  0
SECTION
  2
HEADER
  9
$ACADVER
  1
AC1014
  9
$ACADMAINTVER
 70
     9
  9
$DWGCODEPAGE
  3
ANSI_1252
  9
$INSBASE
 10
0.0
 20
0.0
 30
0.0
  9
$EXTMIN
 10
-23.81849956512451
 20
-1.249999970197677
 30
-5.93749988079071
  9
$EXTMAX
 10
24.18150043487548
 20
1.249999970197677
 30
5.93749988079071
  9
$LIMMIN
 10
0.0
 20
0.0
  9
$LIMMAX
 10
12.0
 20
9.0
  9
$ORTHOMODE
 70
     0
  9
$REGENMODE
 70
     1
  9
$FILLMODE
 70
     1
  9
$QTEXTMODE
 70
     0
  9
$MIRRTEXT
 70
     0
  9
$DRAGMODE
 70
     2
  9
$LTSCALE
 40
1.0
  9
$OSMODE
 70
    37
  9
$ATTMODE
 70
     1
  9
$TEXTSIZE
 40
0.2
  9
$TRACEWID
 40
0.05
  9
$TEXTSTYLE
  7
STANDARD
  9
$CLAYER
  8
0
  9
$CELTYPE
  6
BYLAYER
  9
$CECOLOR
 62
   256
  9
$CELTSCALE
 40
1.0
  9
$DELOBJ
 70
     1
  9
$DISPSILH
 70
     0
  9
$DIMSCALE
 40
1.0
  9
$DIMASZ
 40
0.18
  9
$DIMEXO
 40
0.0625
  9
$DIMDLI
 40
0.38
  9
$DIMRND
 40
0.0
  9
$DIMDLE
 40
0.0
  9
$DIMEXE
 40
0.18
  9
$DIMTP
 40
0.0
  9
$DIMTM
 40
0.0
  9
$DIMTXT
 40
0.18
  9
$DIMCEN
 40
0.09
  9
$DIMTSZ
 40
0.0
  9
$DIMTOL
 70
     0
  9
$DIMLIM
 70
     0
  9
$DIMTIH
 70
     1
  9
$DIMTOH
 70
     1
  9
$DIMSE1
 70
     0
  9
$DIMSE2
 70
     0
  9
$DIMTAD
 70
     0
  9
$DIMZIN
 70
     0
  9
$DIMBLK
  1

  9
$DIMASO
 70
     1
  9
$DIMSHO
 70
     1
  9
$DIMPOST
  1

  9
$DIMAPOST
  1

  9
$DIMALT
 70
     0
  9
$DIMALTD
 70
     2
  9
$DIMALTF
 40
25.4
  9
$DIMLFAC
 40
1.0
  9
$DIMTOFL
 70
     0
  9
$DIMTVP
 40
0.0
  9
$DIMTIX
 70
     0
  9
$DIMSOXD
 70
     0
  9
$DIMSAH
 70
     0
  9
$DIMBLK1
  1

  9
$DIMBLK2
  1

  9
$DIMSTYLE
  2
STANDARD
  9
$DIMCLRD
 70
     0
  9
$DIMCLRE
 70
     0
  9
$DIMCLRT
 70
     0
  9
$DIMTFAC
 40
1.0
  9
$DIMGAP
 40
0.09
  9
$DIMJUST
 70
     0
  9
$DIMSD1
 70
     0
  9
$DIMSD2
 70
     0
  9
$DIMTOLJ
 70
     1
  9
$DIMTZIN
 70
     0
  9
$DIMALTZ
 70
     0
  9
$DIMALTTZ
 70
     0
  9
$DIMFIT
 70
     3
  9
$DIMUPT
 70
     0
  9
$DIMUNIT
 70
     4
  9
$DIMDEC
 70
     4
  9
$DIMTDEC
 70
     4
  9
$DIMALTU
 70
     4
  9
$DIMALTTD
 70
     2
  9
$DIMTXSTY
  7
STANDARD
  9
$DIMAUNIT
 70
     0
  9
$LUNITS
 70
     4
  9
$LUPREC
 70
     4
  9
$SKETCHINC
 40
0.1
  9
$FILLETRAD
 40
0.0
  9
$AUNITS
 70
     0
  9
$AUPREC
 70
     0
  9
$MENU
  1
.
  9
$ELEVATION
 40
0.0
  9
$PELEVATION
 40
0.0
  9
$THICKNESS
 40
0.0
  9
$LIMCHECK
 70
     0
  9
$CHAMFERA
 40
0.0
  9
$CHAMFERB
 40
0.0
  9
$CHAMFERC
 40
0.0
  9
$CHAMFERD
 40
0.0
  9
$SKPOLY
 70
     0
  9
$TDCREATE
 40
2455267.421527153
  9
$TDUPDATE
 40
2456111.450139734
  9
$TDINDWG
 40
0.0
  9
$TDUSRTIMER
 40
0.0
  9
$USRTIMER
 70
     1
  9
$ANGBASE
 50
0.0
  9
$ANGDIR
 70
     0
  9
$PDMODE
 70
     0
  9
$PDSIZE
 40
0.0
  9
$PLINEWID
 40
0.0
  9
$COORDS
 70
     1
  9
$SPLFRAME
 70
     0
  9
$SPLINETYPE
 70
     6
  9
$SPLINESEGS
 70
     8
  9
$ATTDIA
 70
     0
  9
$ATTREQ
 70
     1
  9
$HANDLING
 70
     1
  9
$HANDSEED
  5
14F
  9
$SURFTAB1
 70
     6
  9
$SURFTAB2
 70
     6
  9
$SURFTYPE
 70
     6
  9
$SURFU
 70
     6
  9
$SURFV
 70
     6
  9
$UCSNAME
  2

  9
$UCSORG
 10
0.0
 20
0.0
 30
0.0
  9
$UCSXDIR
 10
1.0
 20
0.0
 30
0.0
  9
$UCSYDIR
 10
0.0
 20
1.0
 30
0.0
  9
$PUCSNAME
  2

  9
$PUCSORG
 10
0.0
 20
0.0
 30
0.0
  9
$PUCSXDIR
 10
1.0
 20
0.0
 30
0.0
  9
$PUCSYDIR
 10
0.0
 20
1.0
 30
0.0
  9
$USERI1
 70
     0
  9
$USERI2
 70
     0
  9
$USERI3
 70
     0
  9
$USERI4
 70
     0
  9
$USERI5
 70
     0
  9
$USERR1
 40
0.0
  9
$USERR2
 40
0.0
  9
$USERR3
 40
0.0
  9
$USERR4
 40
0.0
  9
$USERR5
 40
0.0
  9
$WORLDVIEW
 70
     1
  9
$SHADEDGE
 70
     3
  9
$SHADEDIF
 70
    70
  9
$TILEMODE
 70
     1
  9
$MAXACTVP
 70
    64
  9
$PINSBASE
 10
0.0
 20
0.0
 30
0.0
  9
$PLIMCHECK
 70
     0
  9
$PEXTMIN
 10
1.000000000000000E+20
 20
1.000000000000000E+20
 30
1.000000000000000E+20
  9
$PEXTMAX
 10
-1.000000000000000E+20
 20
-1.000000000000000E+20
 30
-1.000000000000000E+20
  9
$PLIMMIN
 10
0.0
 20
0.0
  9
$PLIMMAX
 10
12.0
 20
9.0
  9
$UNITMODE
 70
     0
  9
$VISRETAIN
 70
     1
  9
$PLINEGEN
 70
     0
  9
$PSLTSCALE
 70
     1
  9
$TREEDEPTH
 70
  3020
  9
$PICKSTYLE
 70
     1
  9
$CMLSTYLE
  2
STANDARD
  9
$CMLJUST
 70
     0
  9
$CMLSCALE
 40
1.0
  9
$PROXYGRAPHICS
 70
     1
  9
$MEASUREMENT
 70
     0
  0
ENDSEC
  0
SECTION
  2
CLASSES
  0
CLASS
  1
ACDBDICTIONARYWDFLT
  2
AcDbDictionaryWithDefault
  3
ObjectDBX Classes
 90
        0
280
     0
281
     0
  0
CLASS
  1
MATERIAL
  2
AcDbMaterial
  3
ObjectDBX Classes
 90
     1153
280
     0
281
     0
  0
CLASS
  1
VISUALSTYLE
  2
AcDbVisualStyle
  3
ObjectDBX Classes
 90
     4095
280
     0
281
     0
  0
CLASS
  1
SCALE
  2
AcDbScale
  3
ObjectDBX Classes
 90
     1153
280
     0
281
     0
  0
CLASS
  1
TABLESTYLE
  2
AcDbTableStyle
  3
ObjectDBX Classes
 90
     4095
280
     0
281
     0
  0
CLASS
  1
MLEADERSTYLE
  2
AcDbMLeaderStyle
  3
ACDB_MLEADERSTYLE_CLASS
 90
     4095
280
     0
281
     0
  0
CLASS
  1
SUN
  2
AcDbSun
  3
SCENEOE
 90
     1024
280
     0
281
     0
  0
CLASS
  1
CELLSTYLEMAP
  2
AcDbCellStyleMap
  3
ObjectDBX Classes
 90
     1152
280
     0
281
     0
  0
CLASS
  1
DICTIONARYVAR
  2
AcDbDictionaryVar
  3
ObjectDBX Classes
 90
        0
280
     0
281
     0
  0
CLASS
  1
XRECORD
  2
AcDbXrecord
  3
AutoCAD 2000
 90
        0
280
     0
281
     0
  0
CLASS
  1
LWPOLYLINE
  2
AcDbPolyline
  3
AutoCAD 2000
 90
        0
280
     0
281
     1
  0
CLASS
  1
HATCH
  2
AcDbHatch
  3
AutoCAD 2000
 90
        0
280
     0
281
     1
  0
CLASS
  1
ACDBPLACEHOLDER
  2
AcDbPlaceHolder
  3
ObjectDBX Classes
 90
        0
280
     0
281
     0
  0
CLASS
  1
LAYOUT
  2
AcDbLayout
  3
ObjectDBX Classes
 90
        0
280
     0
281
     0
  0
ENDSEC
  0
SECTION
  2
TABLES
  0
TABLE
  2
VPORT
  5
8
102
{ACAD_XDICTIONARY
360
144
102
}
330
0
100
AcDbSymbolTable
 70
     1
  0
VPORT
  5
5F
330
8
100
AcDbSymbolTableRecord
100
AcDbViewportTableRecord
  2
*ACTIVE
 70
     0
 10
0.0
 20
0.0
 11
1.0
 21
1.0
 12
0.1815004348754883
 22
0.0
 13
0.0
 23
0.0
 14
1.0
 24
1.0
 15
0.0
 25
0.0
 16
53.33136389592911
 26
-53.33136389592911
 36
53.33136389592911
 17
0.1814999999999767
 27
-0.0000000000001013
 37
0.0
 40
2.499999940395355
 41
19.20000045776368
 42
50.0
 43
0.0
 44
0.0
 50
0.0
 51
0.0
 71
     0
 72
   100
 73
     1
 74
     1
 75
     0
 76
     0
 77
     0
 78
     0
  0
ENDTAB
  0
TABLE
  2
LTYPE
  5
5
330
0
100
AcDbSymbolTable
 70
     1
  0
LTYPE
  5
63
330
5
100
AcDbSymbolTableRecord
100
AcDbLinetypeTableRecord
  2
BYBLOCK
 70
     0
  3

 72
    65
 73
     0
 40
0.0
  0
LTYPE
  5
64
330
5
100
AcDbSymbolTableRecord
100
AcDbLinetypeTableRecord
  2
BYLAYER
 70
     0
  3

 72
    65
 73
     0
 40
0.0
  0
LTYPE
  5
65
330
5
100
AcDbSymbolTableRecord
100
AcDbLinetypeTableRecord
  2
CONTINUOUS
 70
     0
  3
Solid line
 72
    65
 73
     0
 40
0.0
  0
ENDTAB
  0
TABLE
  2
LAYER
  5
2
330
0
100
AcDbSymbolTable
 70
     2
  0
LAYER
  5
5C
330
2
100
AcDbSymbolTableRecord
100
AcDbLayerTableRecord
  2
0
 70
     0
 62
     7
  6
CONTINUOUS
  0
LAYER
  5
7F
330
2
100
AcDbSymbolTableRecord
100
AcDbLayerTableRecord
  2
3D-S-BEAM
 70
     0
 62
     4
  6
CONTINUOUS
  0
ENDTAB
  0
TABLE
  2
STYLE
  5
3
330
0
100
AcDbSymbolTable
 70
     2
  0
STYLE
  5
5D
330
3
100
AcDbSymbolTableRecord
100
AcDbTextStyleTableRecord
  2
STANDARD
 70
     0
 40
0.0
 41
1.0
 50
0.0
 71
     0
 42
0.2
  3
txt
  4

  0
STYLE
  5
62
330
3
100
AcDbSymbolTableRecord
100
AcDbTextStyleTableRecord
  2
ANNOTATIVE
 70
     0
 40
0.0
 41
1.0
 50
0.0
 71
     0
 42
0.2
  3
txt
  4

1001
ACADANNOTATIVE
1000
AnnotativeData
1002
{
1070
     1
1070
     1
1002
}
  0
ENDTAB
  0
TABLE
  2
VIEW
  5
6
330
0
100
AcDbSymbolTable
 70
     1
  0
VIEW
  5
10A
330
6
100
AcDbSymbolTableRecord
100
AcDbViewTableRecord
  2
_3D_
 70
     0
 40
2400.0
 10
0.0
 20
0.0
 41
2400.0
 11
53.33136389592911
 21
-53.33136389592911
 31
53.33136389592911
 12
0.1814999999999767
 22
-0.0000000000001013
 32
0.0
 42
50.0
 43
0.0
 44
0.0
 50
0.0
 71
     0
  0
ENDTAB
  0
TABLE
  2
UCS
  5
7
330
0
100
AcDbSymbolTable
 70
     0
  0
ENDTAB
  0
TABLE
  2
APPID
  5
9
330
0
100
AcDbSymbolTable
 70
     4
  0
APPID
  5
5E
330
9
100
AcDbSymbolTableRecord
100
AcDbRegAppTableRecord
  2
ACAD
 70
     0
  0
APPID
  5
66
330
9
100
AcDbSymbolTableRecord
100
AcDbRegAppTableRecord
  2
ACADANNOTATIVE
 70
     0
  0
APPID
  5
70
330
9
100
AcDbSymbolTableRecord
100
AcDbRegAppTableRecord
  2
ACAD_MLEADERVER
 70
     0
  0
APPID
  5
7D
330
9
100
AcDbSymbolTableRecord
100
AcDbRegAppTableRecord
  2
REVIT
 70
     0
  0
ENDTAB
  0
TABLE
  2
DIMSTYLE
  5
A
330
0
100
AcDbSymbolTable
 70
     2
  0
DIMSTYLE
105
60
330
A
100
AcDbSymbolTableRecord
100
AcDbDimStyleTableRecord
  2
STANDARD
 70
     0
  3

  4

  5

  6

  7

 40
1.0
 41
0.18
 42
0.0625
 43
0.38
 44
0.18
 45
0.0
 46
0.0
 47
0.0
 48
0.0
140
0.18
141
0.09
142
0.0
143
25.4
144
1.0
145
0.0
146
1.0
147
0.09
 71
     0
 72
     0
 73
     1
 74
     1
 75
     0
 76
     0
 77
     0
 78
     0
170
     0
171
     2
172
     0
173
     0
174
     0
175
     0
176
     0
177
     0
178
     0
270
     2
271
     4
272
     4
273
     2
274
     2
340
5D
275
     0
280
     0
281
     0
282
     0
283
     1
284
     0
285
     0
286
     0
287
     3
288
     0
  0
DIMSTYLE
105
61
330
A
100
AcDbSymbolTableRecord
100
AcDbDimStyleTableRecord
  2
ANNOTATIVE
 70
     0
  3

  4

  5

  6

  7

 40
1.0
 41
0.18
 42
0.0625
 43
0.38
 44
0.18
 45
0.0
 46
0.0
 47
0.0
 48
0.0
140
0.18
141
0.09
142
0.0
143
25.4
144
1.0
145
0.0
146
1.0
147
0.09
 71
     0
 72
     0
 73
     1
 74
     1
 75
     0
 76
     0
 77
     0
 78
     0
170
     0
171
     2
172
     0
173
     0
174
     0
175
     0
176
     0
177
     0
178
     0
270
     2
271
     4
272
     4
273
     2
274
     2
340
5D
275
     0
280
     0
281
     0
282
     0
283
     1
284
     0
285
     0
286
     0
287
     3
288
     0
1001
ACADANNOTATIVE
1000
AnnotativeData
1002
{
1070
     1
1070
     1
1002
}
  0
ENDTAB
  0
TABLE
  2
BLOCK_RECORD
  5
1
330
0
100
AcDbSymbolTable
 70
     1
  0
BLOCK_RECORD
  5
75
330
1
100
AcDbSymbolTableRecord
100
AcDbBlockTableRecord
  2
*MODEL_SPACE
  0
BLOCK_RECORD
  5
71
330
1
100
AcDbSymbolTableRecord
100
AcDbBlockTableRecord
  2
*PAPER_SPACE
  0
ENDTAB
  0
ENDSEC
  0
SECTION
  2
BLOCKS
  0
BLOCK
  5
76
330
75
100
AcDbEntity
  8
0
100
AcDbBlockBegin
  2
*MODEL_SPACE
 70
     0
 10
0.0
 20
0.0
 30
0.0
  3
*MODEL_SPACE
  1

  0
ENDBLK
  5
77
330
75
100
AcDbEntity
  8
0
100
AcDbBlockEnd
  0
BLOCK
  5
72
330
71
100
AcDbEntity
 67
     1
  8
0
100
AcDbBlockBegin
  2
*PAPER_SPACE
 70
     0
 10
0.0
 20
0.0
 30
0.0
  3
*PAPER_SPACE
  1

  0
ENDBLK
  5
73
330
71
100
AcDbEntity
 67
     1
  8
0
100
AcDbBlockEnd
  0
ENDSEC
  0
SECTION
  2
ENTITIES
  0
POLYLINE
  5
80
330
75
100
AcDbEntity
  8
3D-S-BEAM
100
AcDbPolyFaceMesh
 66
     1
 10
0.0
 20
0.0
 30
0.0
 70
    64
 71
     6
 72
     2
1001
REVIT
1002
{
1070
     1
1000
7594
1002
}
1002
{
1070
     4
1000
14305
1002
}
1002
{
1070
     2
1000
-2001320
1002
}
  0
VERTEX
  5
81
330
80
100
AcDbEntity
  8
3D-S-BEAM
100
AcDbVertex
100
AcDbPolyFaceMeshVertex
 10
24.18150043487548
 20
-1.249999970197677
 30
4.312499999999999
 70
   192
  0
VERTEX
  5
82
330
80
100
AcDbEntity
  8
3D-S-BEAM
100
AcDbVertex
100
AcDbPolyFaceMeshVertex
 10
24.18150043487548
 20
-1.249999970197677
 30
5.93749988079071
 70
   192
  0
VERTEX
  5
83
330
80
100
AcDbEntity
  8
3D-S-BEAM
100
AcDbVertex
100
AcDbPolyFaceMeshVertex
 10
24.18150043487548
 20
1.249999970197677
 30
5.93749988079071
 70
   192
  0
VERTEX
  5
84
330
80
100
AcDbEntity
  8
3D-S-BEAM
100
AcDbVertex
100
AcDbPolyFaceMeshVertex
 10
24.18150043487548
 20
1.249999970197677
 30
4.312499999999999
 70
   192
  0
VERTEX
  5
85
330
80
100
AcDbEntity
  8
3D-S-BEAM
100
AcDbVertex
100
AcDbPolyFaceMeshVertex
 10
24.18150043487548
 20
0.2500000074505805
 30
4.312499999999999
 70
   192
  0
VERTEX
  5
86
330
80
100
AcDbEntity
  8
3D-S-BEAM
100
AcDbVertex
100
AcDbPolyFaceMeshVertex
 10
24.18150043487548
 20
-0.2500000074505805
 30
4.312499999999999
 70
   192
  0
VERTEX
  5
87
330
80
100
AcDbEntity
  8
3D-S-BEAM
100
AcDbFaceRecord
 10
0.0
 20
0.0
 30
0.0
 70
   128
 71
     5
 72
     4
 73
    -3
 74
     6
  0
VERTEX
  5
88
330
80
100
AcDbEntity
  8
3D-S-BEAM
100
AcDbFaceRecord
 10
0.0
 20
0.0
 30
0.0
 70
   128
 71
    -6
 72
     3
 73
     2
 74
     1
  0
SEQEND
  5
89
330
80
100
AcDbEntity
  8
3D-S-BEAM
  0
POLYLINE
  5
8A
330
75
100
AcDbEntity
  8
3D-S-BEAM
100
AcDbPolyFaceMesh
 66
     1
 10
0.0
 20
0.0
 30
0.0
 70
    64
 71
     6
 72
     2
1001
REVIT
1002
{
1070
     1
1000
7594
1002
}
1002
{
1070
     4
1000
14305
1002
}
1002
{
1070
     2
1000
-2001320
1002
}
  0
VERTEX
  5
8B
330
8A
100
AcDbEntity
  8
3D-S-BEAM
100
AcDbVertex
100
AcDbPolyFaceMeshVertex
 10
24.18150043487548
 20
0.2500000074505805
 30
-4.312499999999999
 70
   192
  0
VERTEX
  5
8C
330
8A
100
AcDbEntity
  8
3D-S-BEAM
100
AcDbVertex
100
AcDbPolyFaceMeshVertex
 10
24.18150043487548
 20
1.249999970197677
 30
-4.312499999999999
 70
   192
  0
VERTEX
  5
8D
330
8A
100
AcDbEntity
  8
3D-S-BEAM
100
AcDbVertex
100
AcDbPolyFaceMeshVertex
 10
24.18150043487548
 20
1.249999970197677
 30
-5.93749988079071
 70
   192
  0
VERTEX
  5
8E
330
8A
100
AcDbEntity
  8
3D-S-BEAM
100
AcDbVertex
100
AcDbPolyFaceMeshVertex
 10
24.18150043487548
 20
-1.249999970197677
 30
-5.93749988079071
 70
   192
  0
VERTEX
  5
8F
330
8A
100
AcDbEntity
  8
3D-S-BEAM
100
AcDbVertex
100
AcDbPolyFaceMeshVertex
 10
24.18150043487548
 20
-1.249999970197677
 30
-4.312499999999999
 70
   192
  0
VERTEX
  5
90
330
8A
100
AcDbEntity
  8
3D-S-BEAM
100
AcDbVertex
100
AcDbPolyFaceMeshVertex
 10
24.18150043487548
 20
-0.2500000074505805
 30
-4.312499999999999
 70
   192
  0
VERTEX
  5
91
330
8A
100
AcDbEntity
  8
3D-S-BEAM
100
AcDbFaceRecord
 10
0.0
 20
0.0
 30
0.0
 70
   128
 71
     4
 72
    -3
 73
     6
 74
     5
  0
VERTEX
  5
92
330
8A
100
AcDbEntity
  8
3D-S-BEAM
100
AcDbFaceRecord
 10
0.0
 20
0.0
 30
0.0
 70
   128
 71
     1
 72
    -6
 73
     3
 74
     2
  0
SEQEND
  5
93
330
8A
100
AcDbEntity
  8
3D-S-BEAM
  0
POLYLINE
  5
94
330
75
100
AcDbEntity
  8
3D-S-BEAM
100
AcDbPolyFaceMesh
 66
     1
 10
0.0
 20
0.0
 30
0.0
 70
    64
 71
     4
 72
     1
1001
REVIT
1002
{
1070
     1
1000
7594
1002
}
1002
{
1070
     4
1000
14305
1002
}
1002
{
1070
     2
1000
-2001320
1002
}
  0
VERTEX
  5
95
330
94
100
AcDbEntity
  8
3D-S-BEAM
100
AcDbVertex
100
AcDbPolyFaceMeshVertex
 10
24.18150043487548
 20
-0.2500000074505805
 30
4.312499999999999
 70
   192
  0
VERTEX
  5
96
330
94
100
AcDbEntity
  8
3D-S-BEAM
100
AcDbVertex
100
AcDbPolyFaceMeshVertex
 10
24.18150043487548
 20
0.2500000074505805
 30
4.312499999999999
 70
   192
  0
VERTEX
  5
97
330
94
100
AcDbEntity
  8
3D-S-BEAM
100
AcDbVertex
100
AcDbPolyFaceMeshVertex
 10
24.18150043487548
 20
0.2500000074505805
 30
-4.312499999999999
 70
   192
  0
VERTEX
  5
98
330
94
100
AcDbEntity
  8
3D-S-BEAM
100
AcDbVertex
100
AcDbPolyFaceMeshVertex
 10
24.18150043487548
 20
-0.2500000074505805
 30
-4.312499999999999
 70
   192
  0
VERTEX
  5
99
330
94
100
AcDbEntity
  8
3D-S-BEAM
100
AcDbFaceRecord
 10
0.0
 20
0.0
 30
0.0
 70
   128
 71
     4
 72
     3
 73
     2
 74
     1
  0
SEQEND
  5
9A
330
94
100
AcDbEntity
  8
3D-S-BEAM
  0
POLYLINE
  5
9B
330
75
100
AcDbEntity
  8
3D-S-BEAM
100
AcDbPolyFaceMesh
 66
     1
 10
0.0
 20
0.0
 30
0.0
 70
    64
 71
     6
 72
     2
1001
REVIT
1002
{
1070
     1
1000
7594
1002
}
1002
{
1070
     4
1000
14305
1002
}
1002
{
1070
     2
1000
-2001320
1002
}
  0
VERTEX
  5
9C
330
9B
100
AcDbEntity
  8
3D-S-BEAM
100
AcDbVertex
100
AcDbPolyFaceMeshVertex
 10
-23.81849956512451
 20
0.2500000074505805
 30
4.312499999999999
 70
   192
  0
VERTEX
  5
9D
330
9B
100
AcDbEntity
  8
3D-S-BEAM
100
AcDbVertex
100
AcDbPolyFaceMeshVertex
 10
-23.81849956512451
 20
-0.2500000074505805
 30
4.312499999999999
 70
   192
  0
VERTEX
  5
9E
330
9B
100
AcDbEntity
  8
3D-S-BEAM
100
AcDbVertex
100
AcDbPolyFaceMeshVertex
 10
-23.81849956512451
 20
-1.249999970197677
 30
4.312499999999999
 70
   192
  0
VERTEX
  5
9F
330
9B
100
AcDbEntity
  8
3D-S-BEAM
100
AcDbVertex
100
AcDbPolyFaceMeshVertex
 10
-23.81849956512451
 20
-1.249999970197677
 30
5.93749988079071
 70
   192
  0
VERTEX
  5
A0
330
9B
100
AcDbEntity
  8
3D-S-BEAM
100
AcDbVertex
100
AcDbPolyFaceMeshVertex
 10
-23.81849956512451
 20
1.249999970197677
 30
5.93749988079071
 70
   192
  0
VERTEX
  5
A1
330
9B
100
AcDbEntity
  8
3D-S-BEAM
100
AcDbVertex
100
AcDbPolyFaceMeshVertex
 10
-23.81849956512451
 20
1.249999970197677
 30
4.312499999999999
 70
   192
  0
VERTEX
  5
A2
330
9B
100
AcDbEntity
  8
3D-S-BEAM
100
AcDbFaceRecord
 10
0.0
 20
0.0
 30
0.0
 70
   128
 71
     5
 72
     6
 73
     1
 74
    -2
  0
VERTEX
  5
A3
330
9B
100
AcDbEntity
  8
3D-S-BEAM
100
AcDbFaceRecord
 10
0.0
 20
0.0
 30
0.0
 70
   128
 71
     4
 72
    -5
 73
     2
 74
     3
  0
SEQEND
  5
A4
330
9B
100
AcDbEntity
  8
3D-S-BEAM
  0
POLYLINE
  5
A5
330
75
100
AcDbEntity
  8
3D-S-BEAM
100
AcDbPolyFaceMesh
 66
     1
 10
0.0
 20
0.0
 30
0.0
 70
    64
 71
     4
 72
     1
1001
REVIT
1002
{
1070
     1
1000
7594
1002
}
1002
{
1070
     4
1000
238
1002
}
1002
{
1070
     2
1000
-2001320
1002
}
  0
VERTEX
  5
A6
330
A5
100
AcDbEntity
  8
3D-S-BEAM
100
AcDbVertex
100
AcDbPolyFaceMeshVertex
 10
-23.81849956512451
 20
0.2500000074505805
 30
4.312499999999999
 70
   192
  0
VERTEX
  5
A7
330
A5
100
AcDbEntity
  8
3D-S-BEAM
100
AcDbVertex
100
AcDbPolyFaceMeshVertex
 10
-23.81849956512451
 20
0.2500000074505805
 30
-4.312499999999999
 70
   192
  0
VERTEX
  5
A8
330
A5
100
AcDbEntity
  8
3D-S-BEAM
100
AcDbVertex
100
AcDbPolyFaceMeshVertex
 10
-23.81849956512451
 20
-0.2500000074505805
 30
-4.312499999999999
 70
   192
  0
VERTEX
  5
A9
330
A5
100
AcDbEntity
  8
3D-S-BEAM
100
AcDbVertex
100
AcDbPolyFaceMeshVertex
 10
-23.81849956512451
 20
-0.2500000074505805
 30
4.312499999999999
 70
   192
  0
VERTEX
  5
AA
330
A5
100
AcDbEntity
  8
3D-S-BEAM
100
AcDbFaceRecord
 10
0.0
 20
0.0
 30
0.0
 70
   128
 71
     2
 72
     3
 73
     4
 74
     1
  0
SEQEND
  5
AB
330
A5
100
AcDbEntity
  8
3D-S-BEAM
  0
POLYLINE
  5
AC
330
75
100
AcDbEntity
  8
3D-S-BEAM
100
AcDbPolyFaceMesh
 66
     1
 10
0.0
 20
0.0
 30
0.0
 70
    64
 71
     6
 72
     2
1001
REVIT
1002
{
1070
     1
1000
7594
1002
}
1002
{
1070
     4
1000
14305
1002
}
1002
{
1070
     2
1000
-2001320
1002
}
  0
VERTEX
  5
AD
330
AC
100
AcDbEntity
  8
3D-S-BEAM
100
AcDbVertex
100
AcDbPolyFaceMeshVertex
 10
-23.81849956512451
 20
0.2500000074505805
 30
-4.312499999999999
 70
   192
  0
VERTEX
  5
AE
330
AC
100
AcDbEntity
  8
3D-S-BEAM
100
AcDbVertex
100
AcDbPolyFaceMeshVertex
 10
-23.81849956512451
 20
1.249999970197677
 30
-4.312499999999999
 70
   192
  0
VERTEX
  5
AF
330
AC
100
AcDbEntity
  8
3D-S-BEAM
100
AcDbVertex
100
AcDbPolyFaceMeshVertex
 10
-23.81849956512451
 20
1.249999970197677
 30
-5.93749988079071
 70
   192
  0
VERTEX
  5
B0
330
AC
100
AcDbEntity
  8
3D-S-BEAM
100
AcDbVertex
100
AcDbPolyFaceMeshVertex
 10
-23.81849956512451
 20
-1.249999970197677
 30
-5.93749988079071
 70
   192
  0
VERTEX
  5
B1
330
AC
100
AcDbEntity
  8
3D-S-BEAM
100
AcDbVertex
100
AcDbPolyFaceMeshVertex
 10
-23.81849956512451
 20
-1.249999970197677
 30
-4.312499999999999
 70
   192
  0
VERTEX
  5
B2
330
AC
100
AcDbEntity
  8
3D-S-BEAM
100
AcDbVertex
100
AcDbPolyFaceMeshVertex
 10
-23.81849956512451
 20
-0.2500000074505805
 30
-4.312499999999999
 70
   192
  0
VERTEX
  5
B3
330
AC
100
AcDbEntity
  8
3D-S-BEAM
100
AcDbFaceRecord
 10
0.0
 20
0.0
 30
0.0
 70
   128
 71
    -6
 72
     3
 73
     4
 74
     5
  0
VERTEX
  5
B4
330
AC
100
AcDbEntity
  8
3D-S-BEAM
100
AcDbFaceRecord
 10
0.0
 20
0.0
 30
0.0
 70
   128
 71
    -3
 72
     6
 73
     1
 74
     2
  0
SEQEND
  5
B5
330
AC
100
AcDbEntity
  8
3D-S-BEAM
  0
POLYLINE
  5
B6
330
75
100
AcDbEntity
  8
3D-S-BEAM
100
AcDbPolyFaceMesh
 66
     1
 10
0.0
 20
0.0
 30
0.0
 70
    64
 71
     4
 72
     1
1001
REVIT
1002
{
1070
     1
1000
7594
1002
}
1002
{
1070
     4
1000
14305
1002
}
1002
{
1070
     2
1000
-2001320
1002
}
  0
VERTEX
  5
B7
330
B6
100
AcDbEntity
  8
3D-S-BEAM
100
AcDbVertex
100
AcDbPolyFaceMeshVertex
 10
24.18150043487548
 20
0.2500000074505805
 30
-4.312499999999999
 70
   192
  0
VERTEX
  5
B8
330
B6
100
AcDbEntity
  8
3D-S-BEAM
100
AcDbVertex
100
AcDbPolyFaceMeshVertex
 10
24.18150043487548
 20
1.249999970197677
 30
-4.312499999999999
 70
   192
  0
VERTEX
  5
B9
330
B6
100
AcDbEntity
  8
3D-S-BEAM
100
AcDbVertex
100
AcDbPolyFaceMeshVertex
 10
-23.81849956512451
 20
1.249999970197677
 30
-4.312499999999999
 70
   192
  0
VERTEX
  5
BA
330
B6
100
AcDbEntity
  8
3D-S-BEAM
100
AcDbVertex
100
AcDbPolyFaceMeshVertex
 10
-23.81849956512451
 20
0.2500000074505805
 30
-4.312499999999999
 70
   192
  0
VERTEX
  5
BB
330
B6
100
AcDbEntity
  8
3D-S-BEAM
100
AcDbFaceRecord
 10
0.0
 20
0.0
 30
0.0
 70
   128
 71
     1
 72
     2
 73
     3
 74
     4
  0
SEQEND
  5
BC
330
B6
100
AcDbEntity
  8
3D-S-BEAM
  0
POLYLINE
  5
BD
330
75
100
AcDbEntity
  8
3D-S-BEAM
100
AcDbPolyFaceMesh
 66
     1
 10
0.0
 20
0.0
 30
0.0
 70
    64
 71
     4
 72
     1
1001
REVIT
1002
{
1070
     1
1000
7594
1002
}
1002
{
1070
     4
1000
14307
1002
}
1002
{
1070
     2
1000
-2001320
1002
}
  0
VERTEX
  5
BE
330
BD
100
AcDbEntity
  8
3D-S-BEAM
100
AcDbVertex
100
AcDbPolyFaceMeshVertex
 10
24.18150043487548
 20
0.2500000074505805
 30
4.312499999999999
 70
   192
  0
VERTEX
  5
BF
330
BD
100
AcDbEntity
  8
3D-S-BEAM
100
AcDbVertex
100
AcDbPolyFaceMeshVertex
 10
24.18150043487548
 20
0.2500000074505805
 30
-4.312499999999999
 70
   192
  0
VERTEX
  5
C0
330
BD
100
AcDbEntity
  8
3D-S-BEAM
100
AcDbVertex
100
AcDbPolyFaceMeshVertex
 10
-23.81849956512451
 20
0.2500000074505805
 30
-4.312499999999999
 70
   192
  0
VERTEX
  5
C1
330
BD
100
AcDbEntity
  8
3D-S-BEAM
100
AcDbVertex
100
AcDbPolyFaceMeshVertex
 10
-23.81849956512451
 20
0.2500000074505805
 30
4.312499999999999
 70
   192
  0
VERTEX
  5
C2
330
BD
100
AcDbEntity
  8
3D-S-BEAM
100
AcDbFaceRecord
 10
0.0
 20
0.0
 30
0.0
 70
   128
 71
     1
 72
     2
 73
     3
 74
     4
  0
SEQEND
  5
C3
330
BD
100
AcDbEntity
  8
3D-S-BEAM
  0
POLYLINE
  5
C4
330
75
100
AcDbEntity
  8
3D-S-BEAM
100
AcDbPolyFaceMesh
 66
     1
 10
0.0
 20
0.0
 30
0.0
 70
    64
 71
     4
 72
     1
1001
REVIT
1002
{
1070
     1
1000
7594
1002
}
1002
{
1070
     4
1000
14305
1002
}
1002
{
1070
     2
1000
-2001320
1002
}
  0
VERTEX
  5
C5
330
C4
100
AcDbEntity
  8
3D-S-BEAM
100
AcDbVertex
100
AcDbPolyFaceMeshVertex
 10
24.18150043487548
 20
1.249999970197677
 30
4.312499999999999
 70
   192
  0
VERTEX
  5
C6
330
C4
100
AcDbEntity
  8
3D-S-BEAM
100
AcDbVertex
100
AcDbPolyFaceMeshVertex
 10
24.18150043487548
 20
0.2500000074505805
 30
4.312499999999999
 70
   192
  0
VERTEX
  5
C7
330
C4
100
AcDbEntity
  8
3D-S-BEAM
100
AcDbVertex
100
AcDbPolyFaceMeshVertex
 10
-23.81849956512451
 20
0.2500000074505805
 30
4.312499999999999
 70
   192
  0
VERTEX
  5
C8
330
C4
100
AcDbEntity
  8
3D-S-BEAM
100
AcDbVertex
100
AcDbPolyFaceMeshVertex
 10
-23.81849956512451
 20
1.249999970197677
 30
4.312499999999999
 70
   192
  0
VERTEX
  5
C9
330
C4
100
AcDbEntity
  8
3D-S-BEAM
100
AcDbFaceRecord
 10
0.0
 20
0.0
 30
0.0
 70
   128
 71
     4
 72
     1
 73
     2
 74
     3
  0
SEQEND
  5
CA
330
C4
100
AcDbEntity
  8
3D-S-BEAM
  0
POLYLINE
  5
CB
330
75
100
AcDbEntity
  8
3D-S-BEAM
100
AcDbPolyFaceMesh
 66
     1
 10
0.0
 20
0.0
 30
0.0
 70
    64
 71
     4
 72
     1
1001
REVIT
1002
{
1070
     1
1000
7594
1002
}
1002
{
1070
     4
1000
14305
1002
}
1002
{
1070
     2
1000
-2001320
1002
}
  0
VERTEX
  5
CC
330
CB
100
AcDbEntity
  8
3D-S-BEAM
100
AcDbVertex
100
AcDbPolyFaceMeshVertex
 10
24.18150043487548
 20
1.249999970197677
 30
5.93749988079071
 70
   192
  0
VERTEX
  5
CD
330
CB
100
AcDbEntity
  8
3D-S-BEAM
100
AcDbVertex
100
AcDbPolyFaceMeshVertex
 10
24.18150043487548
 20
1.249999970197677
 30
4.312499999999999
 70
   192
  0
VERTEX
  5
CE
330
CB
100
AcDbEntity
  8
3D-S-BEAM
100
AcDbVertex
100
AcDbPolyFaceMeshVertex
 10
-23.81849956512451
 20
1.249999970197677
 30
4.312499999999999
 70
   192
  0
VERTEX
  5
CF
330
CB
100
AcDbEntity
  8
3D-S-BEAM
100
AcDbVertex
100
AcDbPolyFaceMeshVertex
 10
-23.81849956512451
 20
1.249999970197677
 30
5.93749988079071
 70
   192
  0
VERTEX
  5
D0
330
CB
100
AcDbEntity
  8
3D-S-BEAM
100
AcDbFaceRecord
 10
0.0
 20
0.0
 30
0.0
 70
   128
 71
     4
 72
     1
 73
     2
 74
     3
  0
SEQEND
  5
D1
330
CB
100
AcDbEntity
  8
3D-S-BEAM
  0
POLYLINE
  5
D2
330
75
100
AcDbEntity
  8
3D-S-BEAM
100
AcDbPolyFaceMesh
 66
     1
 10
0.0
 20
0.0
 30
0.0
 70
    64
 71
     4
 72
     1
1001
REVIT
1002
{
1070
     1
1000
7594
1002
}
1002
{
1070
     4
1000
14305
1002
}
1002
{
1070
     2
1000
-2001320
1002
}
  0
VERTEX
  5
D3
330
D2
100
AcDbEntity
  8
3D-S-BEAM
100
AcDbVertex
100
AcDbPolyFaceMeshVertex
 10
24.18150043487548
 20
-1.249999970197677
 30
5.93749988079071
 70
   192
  0
VERTEX
  5
D4
330
D2
100
AcDbEntity
  8
3D-S-BEAM
100
AcDbVertex
100
AcDbPolyFaceMeshVertex
 10
24.18150043487548
 20
1.249999970197677
 30
5.93749988079071
 70
   192
  0
VERTEX
  5
D5
330
D2
100
AcDbEntity
  8
3D-S-BEAM
100
AcDbVertex
100
AcDbPolyFaceMeshVertex
 10
-23.81849956512451
 20
1.249999970197677
 30
5.93749988079071
 70
   192
  0
VERTEX
  5
D6
330
D2
100
AcDbEntity
  8
3D-S-BEAM
100
AcDbVertex
100
AcDbPolyFaceMeshVertex
 10
-23.81849956512451
 20
-1.249999970197677
 30
5.93749988079071
 70
   192
  0
VERTEX
  5
D7
330
D2
100
AcDbEntity
  8
3D-S-BEAM
100
AcDbFaceRecord
 10
0.0
 20
0.0
 30
0.0
 70
   128
 71
     4
 72
     1
 73
     2
 74
     3
  0
SEQEND
  5
D8
330
D2
100
AcDbEntity
  8
3D-S-BEAM
  0
POLYLINE
  5
D9
330
75
100
AcDbEntity
  8
3D-S-BEAM
100
AcDbPolyFaceMesh
 66
     1
 10
0.0
 20
0.0
 30
0.0
 70
    64
 71
     4
 72
     1
1001
REVIT
1002
{
1070
     1
1000
7594
1002
}
1002
{
1070
     4
1000
14305
1002
}
1002
{
1070
     2
1000
-2001320
1002
}
  0
VERTEX
  5
DA
330
D9
100
AcDbEntity
  8
3D-S-BEAM
100
AcDbVertex
100
AcDbPolyFaceMeshVertex
 10
24.18150043487548
 20
-1.249999970197677
 30
4.312499999999999
 70
   192
  0
VERTEX
  5
DB
330
D9
100
AcDbEntity
  8
3D-S-BEAM
100
AcDbVertex
100
AcDbPolyFaceMeshVertex
 10
24.18150043487548
 20
-1.249999970197677
 30
5.93749988079071
 70
   192
  0
VERTEX
  5
DC
330
D9
100
AcDbEntity
  8
3D-S-BEAM
100
AcDbVertex
100
AcDbPolyFaceMeshVertex
 10
-23.81849956512451
 20
-1.249999970197677
 30
5.93749988079071
 70
   192
  0
VERTEX
  5
DD
330
D9
100
AcDbEntity
  8
3D-S-BEAM
100
AcDbVertex
100
AcDbPolyFaceMeshVertex
 10
-23.81849956512451
 20
-1.249999970197677
 30
4.312499999999999
 70
   192
  0
VERTEX
  5
DE
330
D9
100
AcDbEntity
  8
3D-S-BEAM
100
AcDbFaceRecord
 10
0.0
 20
0.0
 30
0.0
 70
   128
 71
     4
 72
     1
 73
     2
 74
     3
  0
SEQEND
  5
DF
330
D9
100
AcDbEntity
  8
3D-S-BEAM
  0
POLYLINE
  5
E0
330
75
100
AcDbEntity
  8
3D-S-BEAM
100
AcDbPolyFaceMesh
 66
     1
 10
0.0
 20
0.0
 30
0.0
 70
    64
 71
     4
 72
     1
1001
REVIT
1002
{
1070
     1
1000
7594
1002
}
1002
{
1070
     4
1000
14305
1002
}
1002
{
1070
     2
1000
-2001320
1002
}
  0
VERTEX
  5
E1
330
E0
100
AcDbEntity
  8
3D-S-BEAM
100
AcDbVertex
100
AcDbPolyFaceMeshVertex
 10
24.18150043487548
 20
-0.2500000074505805
 30
4.312499999999999
 70
   192
  0
VERTEX
  5
E2
330
E0
100
AcDbEntity
  8
3D-S-BEAM
100
AcDbVertex
100
AcDbPolyFaceMeshVertex
 10
24.18150043487548
 20
-1.249999970197677
 30
4.312499999999999
 70
   192
  0
VERTEX
  5
E3
330
E0
100
AcDbEntity
  8
3D-S-BEAM
100
AcDbVertex
100
AcDbPolyFaceMeshVertex
 10
-23.81849956512451
 20
-1.249999970197677
 30
4.312499999999999
 70
   192
  0
VERTEX
  5
E4
330
E0
100
AcDbEntity
  8
3D-S-BEAM
100
AcDbVertex
100
AcDbPolyFaceMeshVertex
 10
-23.81849956512451
 20
-0.2500000074505805
 30
4.312499999999999
 70
   192
  0
VERTEX
  5
E5
330
E0
100
AcDbEntity
  8
3D-S-BEAM
100
AcDbFaceRecord
 10
0.0
 20
0.0
 30
0.0
 70
   128
 71
     1
 72
     2
 73
     3
 74
     4
  0
SEQEND
  5
E6
330
E0
100
AcDbEntity
  8
3D-S-BEAM
  0
POLYLINE
  5
E7
330
75
100
AcDbEntity
  8
3D-S-BEAM
100
AcDbPolyFaceMesh
 66
     1
 10
0.0
 20
0.0
 30
0.0
 70
    64
 71
     4
 72
     1
1001
REVIT
1002
{
1070
     1
1000
7594
1002
}
1002
{
1070
     4
1000
14307
1002
}
1002
{
1070
     2
1000
-2001320
1002
}
  0
VERTEX
  5
E8
330
E7
100
AcDbEntity
  8
3D-S-BEAM
100
AcDbVertex
100
AcDbPolyFaceMeshVertex
 10
24.18150043487548
 20
-0.2500000074505805
 30
-4.312499999999999
 70
   192
  0
VERTEX
  5
E9
330
E7
100
AcDbEntity
  8
3D-S-BEAM
100
AcDbVertex
100
AcDbPolyFaceMeshVertex
 10
24.18150043487548
 20
-0.2500000074505805
 30
4.312499999999999
 70
   192
  0
VERTEX
  5
EA
330
E7
100
AcDbEntity
  8
3D-S-BEAM
100
AcDbVertex
100
AcDbPolyFaceMeshVertex
 10
-23.81849956512451
 20
-0.2500000074505805
 30
4.312499999999999
 70
   192
  0
VERTEX
  5
EB
330
E7
100
AcDbEntity
  8
3D-S-BEAM
100
AcDbVertex
100
AcDbPolyFaceMeshVertex
 10
-23.81849956512451
 20
-0.2500000074505805
 30
-4.312499999999999
 70
   192
  0
VERTEX
  5
EC
330
E7
100
AcDbEntity
  8
3D-S-BEAM
100
AcDbFaceRecord
 10
0.0
 20
0.0
 30
0.0
 70
   128
 71
     1
 72
     2
 73
     3
 74
     4
  0
SEQEND
  5
ED
330
E7
100
AcDbEntity
  8
3D-S-BEAM
  0
POLYLINE
  5
EE
330
75
100
AcDbEntity
  8
3D-S-BEAM
100
AcDbPolyFaceMesh
 66
     1
 10
0.0
 20
0.0
 30
0.0
 70
    64
 71
     4
 72
     1
1001
REVIT
1002
{
1070
     1
1000
7594
1002
}
1002
{
1070
     4
1000
14305
1002
}
1002
{
1070
     2
1000
-2001320
1002
}
  0
VERTEX
  5
EF
330
EE
100
AcDbEntity
  8
3D-S-BEAM
100
AcDbVertex
100
AcDbPolyFaceMeshVertex
 10
24.18150043487548
 20
-1.249999970197677
 30
-4.312499999999999
 70
   192
  0
VERTEX
  5
F0
330
EE
100
AcDbEntity
  8
3D-S-BEAM
100
AcDbVertex
100
AcDbPolyFaceMeshVertex
 10
24.18150043487548
 20
-0.2500000074505805
 30
-4.312499999999999
 70
   192
  0
VERTEX
  5
F1
330
EE
100
AcDbEntity
  8
3D-S-BEAM
100
AcDbVertex
100
AcDbPolyFaceMeshVertex
 10
-23.81849956512451
 20
-0.2500000074505805
 30
-4.312499999999999
 70
   192
  0
VERTEX
  5
F2
330
EE
100
AcDbEntity
  8
3D-S-BEAM
100
AcDbVertex
100
AcDbPolyFaceMeshVertex
 10
-23.81849956512451
 20
-1.249999970197677
 30
-4.312499999999999
 70
   192
  0
VERTEX
  5
F3
330
EE
100
AcDbEntity
  8
3D-S-BEAM
100
AcDbFaceRecord
 10
0.0
 20
0.0
 30
0.0
 70
   128
 71
     1
 72
     2
 73
     3
 74
     4
  0
SEQEND
  5
F4
330
EE
100
AcDbEntity
  8
3D-S-BEAM
  0
POLYLINE
  5
F5
330
75
100
AcDbEntity
  8
3D-S-BEAM
100
AcDbPolyFaceMesh
 66
     1
 10
0.0
 20
0.0
 30
0.0
 70
    64
 71
     4
 72
     1
1001
REVIT
1002
{
1070
     1
1000
7594
1002
}
1002
{
1070
     4
1000
14305
1002
}
1002
{
1070
     2
1000
-2001320
1002
}
  0
VERTEX
  5
F6
330
F5
100
AcDbEntity
  8
3D-S-BEAM
100
AcDbVertex
100
AcDbPolyFaceMeshVertex
 10
24.18150043487548
 20
-1.249999970197677
 30
-5.93749988079071
 70
   192
  0
VERTEX
  5
F7
330
F5
100
AcDbEntity
  8
3D-S-BEAM
100
AcDbVertex
100
AcDbPolyFaceMeshVertex
 10
24.18150043487548
 20
-1.249999970197677
 30
-4.312499999999999
 70
   192
  0
VERTEX
  5
F8
330
F5
100
AcDbEntity
  8
3D-S-BEAM
100
AcDbVertex
100
AcDbPolyFaceMeshVertex
 10
-23.81849956512451
 20
-1.249999970197677
 30
-4.312499999999999
 70
   192
  0
VERTEX
  5
F9
330
F5
100
AcDbEntity
  8
3D-S-BEAM
100
AcDbVertex
100
AcDbPolyFaceMeshVertex
 10
-23.81849956512451
 20
-1.249999970197677
 30
-5.93749988079071
 70
   192
  0
VERTEX
  5
FA
330
F5
100
AcDbEntity
  8
3D-S-BEAM
100
AcDbFaceRecord
 10
0.0
 20
0.0
 30
0.0
 70
   128
 71
     4
 72
     1
 73
     2
 74
     3
  0
SEQEND
  5
FB
330
F5
100
AcDbEntity
  8
3D-S-BEAM
  0
POLYLINE
  5
FC
330
75
100
AcDbEntity
  8
3D-S-BEAM
100
AcDbPolyFaceMesh
 66
     1
 10
0.0
 20
0.0
 30
0.0
 70
    64
 71
     4
 72
     1
1001
REVIT
1002
{
1070
     1
1000
7594
1002
}
1002
{
1070
     4
1000
14305
1002
}
1002
{
1070
     2
1000
-2001320
1002
}
  0
VERTEX
  5
FD
330
FC
100
AcDbEntity
  8
3D-S-BEAM
100
AcDbVertex
100
AcDbPolyFaceMeshVertex
 10
24.18150043487548
 20
1.249999970197677
 30
-5.93749988079071
 70
   192
  0
VERTEX
  5
FE
330
FC
100
AcDbEntity
  8
3D-S-BEAM
100
AcDbVertex
100
AcDbPolyFaceMeshVertex
 10
24.18150043487548
 20
-1.249999970197677
 30
-5.93749988079071
 70
   192
  0
VERTEX
  5
FF
330
FC
100
AcDbEntity
  8
3D-S-BEAM
100
AcDbVertex
100
AcDbPolyFaceMeshVertex
 10
-23.81849956512451
 20
-1.249999970197677
 30
-5.93749988079071
 70
   192
  0
VERTEX
  5
100
330
FC
100
AcDbEntity
  8
3D-S-BEAM
100
AcDbVertex
100
AcDbPolyFaceMeshVertex
 10
-23.81849956512451
 20
1.249999970197677
 30
-5.93749988079071
 70
   192
  0
VERTEX
  5
101
330
FC
100
AcDbEntity
  8
3D-S-BEAM
100
AcDbFaceRecord
 10
0.0
 20
0.0
 30
0.0
 70
   128
 71
     4
 72
     1
 73
     2
 74
     3
  0
SEQEND
  5
102
330
FC
100
AcDbEntity
  8
3D-S-BEAM
  0
POLYLINE
  5
103
330
75
100
AcDbEntity
  8
3D-S-BEAM
100
AcDbPolyFaceMesh
 66
     1
 10
0.0
 20
0.0
 30
0.0
 70
    64
 71
     4
 72
     1
1001
REVIT
1002
{
1070
     1
1000
7594
1002
}
1002
{
1070
     4
1000
14305
1002
}
1002
{
1070
     2
1000
-2001320
1002
}
  0
VERTEX
  5
104
330
103
100
AcDbEntity
  8
3D-S-BEAM
100
AcDbVertex
100
AcDbPolyFaceMeshVertex
 10
24.18150043487548
 20
1.249999970197677
 30
-4.312499999999999
 70
   192
  0
VERTEX
  5
105
330
103
100
AcDbEntity
  8
3D-S-BEAM
100
AcDbVertex
100
AcDbPolyFaceMeshVertex
 10
24.18150043487548
 20
1.249999970197677
 30
-5.93749988079071
 70
   192
  0
VERTEX
  5
106
330
103
100
AcDbEntity
  8
3D-S-BEAM
100
AcDbVertex
100
AcDbPolyFaceMeshVertex
 10
-23.81849956512451
 20
1.249999970197677
 30
-5.93749988079071
 70
   192
  0
VERTEX
  5
107
330
103
100
AcDbEntity
  8
3D-S-BEAM
100
AcDbVertex
100
AcDbPolyFaceMeshVertex
 10
-23.81849956512451
 20
1.249999970197677
 30
-4.312499999999999
 70
   192
  0
VERTEX
  5
108
330
103
100
AcDbEntity
  8
3D-S-BEAM
100
AcDbFaceRecord
 10
0.0
 20
0.0
 30
0.0
 70
   128
 71
     4
 72
     1
 73
     2
 74
     3
  0
SEQEND
  5
109
330
103
100
AcDbEntity
  8
3D-S-BEAM
  0
ENDSEC
  0
SECTION
  2
OBJECTS
  0
DICTIONARY
  5
C
330
0
100
AcDbDictionary
  3
ACAD_COLOR
350
6B
  3
ACAD_GROUP
350
D
  3
ACAD_LAYOUT
350
6A
  3
ACAD_MATERIAL
350
10
  3
ACAD_MLEADERSTYLE
350
6E
  3
ACAD_MLINESTYLE
350
67
  3
ACAD_PLOTSETTINGS
350
69
  3
ACAD_SCALELIST
350
3A
  3
ACAD_VISUALSTYLE
350
29
  3
ACDBHEADERROUNDTRIPXREC
350
11F
  3
ACDBVARIABLEDICTIONARY
350
11B
  3
REVIT_DICTIONARY
350
115
  0
DICTIONARY
  5
144
330
8
100
AcDbDictionary
280
     1
  3
ACAD_XREC_ROUNDTRIP
360
145
  0
DICTIONARY
  5
6B
102
{ACAD_REACTORS
330
C
102
}
330
C
100
AcDbDictionary
  0
DICTIONARY
  5
D
102
{ACAD_REACTORS
330
C
102
}
330
C
100
AcDbDictionary
  0
DICTIONARY
  5
6A
102
{ACAD_REACTORS
330
C
102
}
330
C
100
AcDbDictionary
  0
DICTIONARY
  5
10
102
{ACAD_REACTORS
330
C
102
}
330
C
100
AcDbDictionary
  3
BYBLOCK
350
19
  3
BYLAYER
350
11
  3
GLOBAL
350
21
  3
REVITMATERIALDEFINITION14305
350
10C
  3
REVITMATERIALDEFINITION14307
350
112
  3
REVITMATERIALDEFINITION238
350
10F
  0
DICTIONARY
  5
6E
102
{ACAD_REACTORS
330
C
102
}
330
C
100
AcDbDictionary
  3
STANDARD
350
6F
  0
DICTIONARY
  5
67
102
{ACAD_REACTORS
330
C
102
}
330
C
100
AcDbDictionary
  3
STANDARD
350
68
  0
DICTIONARY
  5
69
102
{ACAD_REACTORS
330
C
102
}
330
C
100
AcDbDictionary
  0
DICTIONARY
  5
3A
102
{ACAD_REACTORS
330
C
102
}
330
C
100
AcDbDictionary
  3
A0
350
3B
  3
A1
350
3C
  3
A2
350
3D
  3
A3
350
3E
  3
A4
350
3F
  3
A5
350
40
  3
A6
350
41
  3
A7
350
42
  3
A8
350
43
  3
A9
350
44
  3
B0
350
45
  3
B1
350
46
  3
B2
350
47
  3
B3
350
48
  3
B4
350
49
  3
B5
350
4A
  3
B6
350
4B
  3
B7
350
4C
  3
B8
350
4D
  3
B9
350
4E
  3
C0
350
4F
  3
C1
350
50
  3
C2
350
51
  3
C3
350
52
  3
C4
350
53
  3
C5
350
54
  3
C6
350
55
  3
C7
350
56
  3
C8
350
57
  3
C9
350
58
  3
D0
350
59
  3
D1
350
5A
  3
D2
350
5B
  0
DICTIONARY
  5
29
102
{ACAD_REACTORS
330
C
102
}
330
C
100
AcDbDictionary
  3
2DWIREFRAME
350
2F
  3
3D_HIDDEN
350
31
  3
3DWIREFRAME
350
30
  3
BASIC
350
2E
  3
BRIGHTEN
350
35
  3
COLORCHANGE
350
39
  3
CONCEPTUAL
350
32
  3
DIM
350
34
  3
FACEPATTERN
350
38
  3
FLAT
350
2A
  3
FLATWITHEDGES
350
2B
  3
GOURAUD
350
2C
  3
GOURAUDWITHEDGES
350
2D
  3
LINEPATTERN
350
37
  3
REALISTIC
350
33
  3
THICKEN
350
36
  0
DICTIONARY
  5
11F
102
{ACAD_REACTORS
330
C
102
}
330
C
100
AcDbDictionary
  3
CEPSNTYPE
350
128
  3
COLORDICT
350
142
  3
DIMSTYLEDATA
350
13E
  3
FINGERPRINTGUID
350
129
  3
HYPERLINKBASE
350
122
  3
INSUNITS
350
127
  3
LAYOUTDICT
350
124
  3
LWETCUNION
350
126
  3
MATERIALDICT
350
143
  3
PLOTSETDICT
350
125
  3
PSVPSCALE
350
12B
  3
PUCSBASE
350
12E
  3
PUCSORGBACK
350
134
  3
PUCSORGBOTTOM
350
130
  3
PUCSORGFRONT
350
133
  3
PUCSORGLEFT
350
131
  3
PUCSORGRIGHT
350
132
  3
PUCSORGTOP
350
12F
  3
PUCSORTHOREF
350
12C
  3
PUCSORTHOVIEW
350
12D
  3
STYLESHEET
350
123
  3
TSTACKALIGN
350
120
  3
TSTACKSIZE
350
121
  3
UCSBASE
350
137
  3
UCSORGBACK
350
13D
  3
UCSORGBOTTOM
350
139
  3
UCSORGFRONT
350
13C
  3
UCSORGLEFT
350
13A
  3
UCSORGRIGHT
350
13B
  3
UCSORGTOP
350
138
  3
UCSORTHOREF
350
135
  3
UCSORTHOVIEW
350
136
  3
VERSIONGUID
350
12A
  0
DICTIONARY
  5
11B
102
{ACAD_REACTORS
330
C
102
}
330
C
100
AcDbDictionary
  3
CANNOSCALE
350
11E
  3
CMLEADERSTYLE
350
11D
  3
CTABLESTYLE
350
11C
  3
DIMASSOC
350
140
  3
HIDETEXT
350
141
  3
XCLIPFRAME
350
13F
  0
DICTIONARY
  5
115
102
{ACAD_REACTORS
330
C
102
}
330
C
100
AcDbDictionary
  3
REVIT_CATEGORY_MAPPING
350
116
  0
XRECORD
  5
145
102
{ACAD_REACTORS
330
144
102
}
330
144
100
AcDbXrecord
102
VTR_0.000_0.000_1.000_1.000_VISUALSTYLE
340
2D
102
VTR_0.000_0.000_1.000_1.000_GRIDDISPLAY
 70
     3
102
VTR_0.000_0.000_1.000_1.000_GRIDMAJOR
 70
     5
102
VTR_0.000_0.000_1.000_1.000_DEFAULTLIGHTING
280
     1
102
VTR_0.000_0.000_1.000_1.000_DEFAULTLIGHTINGTYPE
 70
     1
102
VTR_0.000_0.000_1.000_1.000_BRIGHTNESS
141
0.0
102
VTR_0.000_0.000_1.000_1.000_CONTRAST
142
0.0
  0
MATERIAL
  5
19
102
{ACAD_REACTORS
330
10
102
}
102
{ACAD_XDICTIONARY
360
146
102
}
330
10
100
AcDbMaterial
  1
ByBlock
 72
     0
 73
     2
 43
0.0208333333333333
 43
0.0
 43
0.0
 43
0.0
 43
0.0
 43
0.0208333333333333
 43
0.0
 43
0.0
 43
0.0
 43
0.0
 43
1.0
 43
0.0
 43
0.0
 43
0.0
 43
0.0
 43
1.0
 77
     0
 78
     2
 47
0.0208333333333333
 47
0.0
 47
0.0
 47
0.0
 47
0.0
 47
0.0208333333333333
 47
0.0
 47
0.0
 47
0.0
 47
0.0
 47
1.0
 47
0.0
 47
0.0
 47
0.0
 47
0.0
 47
1.0
171
     0
172
     2
 49
0.0208333333333333
 49
0.0
 49
0.0
 49
0.0
 49
0.0
 49
0.0208333333333333
 49
0.0
 49
0.0
 49
0.0
 49
0.0
 49
1.0
 49
0.0
 49
0.0
 49
0.0
 49
0.0
 49
1.0
175
     0
176
     2
142
0.0208333333333333
142
0.0
142
0.0
142
0.0
142
0.0
142
0.0208333333333333
142
0.0
142
0.0
142
0.0
142
0.0
142
1.0
142
0.0
142
0.0
142
0.0
142
0.0
142
1.0
179
     0
270
     2
144
0.0208333333333333
144
0.0
144
0.0
144
0.0
144
0.0
144
0.0208333333333333
144
0.0
144
0.0
144
0.0
144
0.0
144
1.0
144
0.0
144
0.0
144
0.0
144
0.0
144
1.0
274
     2
147
0.0208333333333333
147
0.0
147
0.0
147
0.0
147
0.0
147
0.0208333333333333
147
0.0
147
0.0
147
0.0
147
0.0
147
1.0
147
0.0
147
0.0
147
0.0
147
0.0
147
1.0
  0
MATERIAL
  5
11
102
{ACAD_REACTORS
330
10
102
}
102
{ACAD_XDICTIONARY
360
148
102
}
330
10
100
AcDbMaterial
  1
ByLayer
 72
     0
 73
     2
 43
0.0208333333333333
 43
0.0
 43
0.0
 43
0.0
 43
0.0
 43
0.0208333333333333
 43
0.0
 43
0.0
 43
0.0
 43
0.0
 43
1.0
 43
0.0
 43
0.0
 43
0.0
 43
0.0
 43
1.0
 77
     0
 78
     2
 47
0.0208333333333333
 47
0.0
 47
0.0
 47
0.0
 47
0.0
 47
0.0208333333333333
 47
0.0
 47
0.0
 47
0.0
 47
0.0
 47
1.0
 47
0.0
 47
0.0
 47
0.0
 47
0.0
 47
1.0
171
     0
172
     2
 49
0.0208333333333333
 49
0.0
 49
0.0
 49
0.0
 49
0.0
 49
0.0208333333333333
 49
0.0
 49
0.0
 49
0.0
 49
0.0
 49
1.0
 49
0.0
 49
0.0
 49
0.0
 49
0.0
 49
1.0
175
     0
176
     2
142
0.0208333333333333
142
0.0
142
0.0
142
0.0
142
0.0
142
0.0208333333333333
142
0.0
142
0.0
142
0.0
142
0.0
142
1.0
142
0.0
142
0.0
142
0.0
142
0.0
142
1.0
179
     0
270
     2
144
0.0208333333333333
144
0.0
144
0.0
144
0.0
144
0.0
144
0.0208333333333333
144
0.0
144
0.0
144
0.0
144
0.0
144
1.0
144
0.0
144
0.0
144
0.0
144
0.0
144
1.0
274
     2
147
0.0208333333333333
147
0.0
147
0.0
147
0.0
147
0.0
147
0.0208333333333333
147
0.0
147
0.0
147
0.0
147
0.0
147
1.0
147
0.0
147
0.0
147
0.0
147
0.0
147
1.0
  0
MATERIAL
  5
21
102
{ACAD_REACTORS
330
10
102
}
102
{ACAD_XDICTIONARY
360
14A
102
}
330
10
100
AcDbMaterial
  1
Global
 72
     0
 73
     2
 43
0.0208333333333333
 43
0.0
 43
0.0
 43
0.0
 43
0.0
 43
0.0208333333333333
 43
0.0
 43
0.0
 43
0.0
 43
0.0
 43
1.0
 43
0.0
 43
0.0
 43
0.0
 43
0.0
 43
1.0
 77
     0
 78
     2
 47
0.0208333333333333
 47
0.0
 47
0.0
 47
0.0
 47
0.0
 47
0.0208333333333333
 47
0.0
 47
0.0
 47
0.0
 47
0.0
 47
1.0
 47
0.0
 47
0.0
 47
0.0
 47
0.0
 47
1.0
171
     0
172
     2
 49
0.0208333333333333
 49
0.0
 49
0.0
 49
0.0
 49
0.0
 49
0.0208333333333333
 49
0.0
 49
0.0
 49
0.0
 49
0.0
 49
1.0
 49
0.0
 49
0.0
 49
0.0
 49
0.0
 49
1.0
175
     0
176
     2
142
0.0208333333333333
142
0.0
142
0.0
142
0.0
142
0.0
142
0.0208333333333333
142
0.0
142
0.0
142
0.0
142
0.0
142
1.0
142
0.0
142
0.0
142
0.0
142
0.0
142
1.0
179
     0
270
     2
144
0.0208333333333333
144
0.0
144
0.0
144
0.0
144
0.0
144
0.0208333333333333
144
0.0
144
0.0
144
0.0
144
0.0
144
1.0
144
0.0
144
0.0
144
0.0
144
0.0
144
1.0
274
     2
147
0.0208333333333333
147
0.0
147
0.0
147
0.0
147
0.0
147
0.0208333333333333
147
0.0
147
0.0
147
0.0
147
0.0
147
1.0
147
0.0
147
0.0
147
0.0
147
0.0
147
1.0
  0
MATERIAL
  5
10C
102
{ACAD_REACTORS
330
10
102
}
102
{ACAD_XDICTIONARY
360
10D
102
}
330
10
100
AcDbMaterial
  1
RevitMaterialDefinition14305
 70
     1
 90
-1026178410
 71
     1
 91
-1026178410
 44
1.0
 76
     1
 92
-1040187392
 77
     0
 78
     2
172
     2
175
     0
176
     2
270
     2
145
0.0
274
     2
  0
MATERIAL
  5
112
102
{ACAD_REACTORS
330
10
102
}
102
{ACAD_XDICTIONARY
360
113
102
}
330
10
100
AcDbMaterial
  1
RevitMaterialDefinition14307
 70
     1
 90
-1031441069
 71
     1
 91
-1031441069
 44
1.0
 76
     1
 92
-1040187392
 77
     0
 78
     2
172
     2
175
     0
176
     2
270
     2
145
0.0
274
     2
  0
MATERIAL
  5
10F
102
{ACAD_REACTORS
330
10
102
}
102
{ACAD_XDICTIONARY
360
110
102
}
330
10
100
AcDbMaterial
  1
RevitMaterialDefinition238
 70
     1
 90
-1031441069
 71
     1
 91
-1031441069
 44
1.0
 76
     1
 92
-1040187392
 77
     0
 78
     2
172
     2
175
     0
176
     2
270
     2
145
0.0
274
     2
  0
ACAD_PROXY_OBJECT
  5
6F
102
{ACAD_REACTORS
330
6E
102
}
330
6E
100
AcDbProxyObject
 90
      499
 91
      505
 93
      610
310
40901902A4063FBFFFFFE056BD1B81E855B9FC0AD7A3703D0AD73F4214DD185B99185C9900AD7A3703D0AC73F90141901A02B5E8DC0F42B1CFC02B5E8DC0F42B1CFE5765000000000000300FC0
340
63
340
0
340
5D
340
0
 94
        0
1001
ACAD_MLEADERVER
1070
     2
  0
MLINESTYLE
  5
68
102
{ACAD_REACTORS
330
67
102
}
330
67
100
AcDbMlineStyle
  2
STANDARD
 70
     0
  3

 62
   256
 51
90.0
 52
90.0
 71
     2
 49
0.5
 62
   256
  6
BYLAYER
 49
-0.5
 62
   256
  6
BYLAYER
  0
ACAD_PROXY_OBJECT
  5
3B
102
{ACAD_REACTORS
330
3A
102
}
330
3A
100
AcDbProxyObject
 90
      499
 91
      503
 93
       41
310
903313A31580
  0
ACAD_PROXY_OBJECT
  5
3C
102
{ACAD_REACTORS
330
3A
102
}
330
3A
100
AcDbProxyObject
 90
      499
 91
      503
 93
      105
310
903313A324000000000000004000
  0
ACAD_PROXY_OBJECT
  5
3D
102
{ACAD_REACTORS
330
3A
102
}
330
3A
100
AcDbProxyObject
 90
      499
 91
      503
 93
      105
310
903313A344000000000000104000
  0
ACAD_PROXY_OBJECT
  5
3E
102
{ACAD_REACTORS
330
3A
102
}
330
3A
100
AcDbProxyObject
 90
      499
 91
      503
 93
      105
310
903313A354000000000000144000
  0
ACAD_PROXY_OBJECT
  5
3F
102
{ACAD_REACTORS
330
3A
102
}
330
3A
100
AcDbProxyObject
 90
      499
 91
      503
 93
      105
310
903313A384000000000000204000
  0
ACAD_PROXY_OBJECT
  5
40
102
{ACAD_REACTORS
330
3A
102
}
330
3A
100
AcDbProxyObject
 90
      499
 91
      503
 93
      113
310
904313A31304000000000000244000
  0
ACAD_PROXY_OBJECT
  5
41
102
{ACAD_REACTORS
330
3A
102
}
330
3A
100
AcDbProxyObject
 90
      499
 91
      503
 93
      113
310
904313A31364000000000000304000
  0
ACAD_PROXY_OBJECT
  5
42
102
{ACAD_REACTORS
330
3A
102
}
330
3A
100
AcDbProxyObject
 90
      499
 91
      503
 93
      113
310
904313A32304000000000000344000
  0
ACAD_PROXY_OBJECT
  5
43
102
{ACAD_REACTORS
330
3A
102
}
330
3A
100
AcDbProxyObject
 90
      499
 91
      503
 93
      113
310
904313A333040000000000003E4000
  0
ACAD_PROXY_OBJECT
  5
44
102
{ACAD_REACTORS
330
3A
102
}
330
3A
100
AcDbProxyObject
 90
      499
 91
      503
 93
      113
310
904313A34304000000000000444000
  0
ACAD_PROXY_OBJECT
  5
45
102
{ACAD_REACTORS
330
3A
102
}
330
3A
100
AcDbProxyObject
 90
      499
 91
      503
 93
      113
310
904313A35304000000000000494000
  0
ACAD_PROXY_OBJECT
  5
46
102
{ACAD_REACTORS
330
3A
102
}
330
3A
100
AcDbProxyObject
 90
      499
 91
      503
 93
      121
310
905313A3130304000000000000594000
  0
ACAD_PROXY_OBJECT
  5
47
102
{ACAD_REACTORS
330
3A
102
}
330
3A
100
AcDbProxyObject
 90
      499
 91
      503
 93
      105
310
903323A310000000000000010100
  0
ACAD_PROXY_OBJECT
  5
48
102
{ACAD_REACTORS
330
3A
102
}
330
3A
100
AcDbProxyObject
 90
      499
 91
      503
 93
      105
310
903343A310000000000000410100
  0
ACAD_PROXY_OBJECT
  5
49
102
{ACAD_REACTORS
330
3A
102
}
330
3A
100
AcDbProxyObject
 90
      499
 91
      503
 93
      105
310
903383A310000000000000810100
  0
ACAD_PROXY_OBJECT
  5
4A
102
{ACAD_REACTORS
330
3A
102
}
330
3A
100
AcDbProxyObject
 90
      499
 91
      503
 93
      113
310
90431303A310000000000000910100
  0
ACAD_PROXY_OBJECT
  5
4B
102
{ACAD_REACTORS
330
3A
102
}
330
3A
100
AcDbProxyObject
 90
      499
 91
      503
 93
      121
310
9053130303A310000000000001650100
  0
ACAD_PROXY_OBJECT
  5
4C
102
{ACAD_REACTORS
330
3A
102
}
330
3A
100
AcDbProxyObject
 90
      499
 91
      503
 93
      257
310
90E312F31323822203D2031272D3022000000000000200FC000000000000284000
  0
ACAD_PROXY_OBJECT
  5
4D
102
{ACAD_REACTORS
330
3A
102
}
330
3A
100
AcDbProxyObject
 90
      499
 91
      503
 93
      249
310
90D312F363422203D2031272D3022000000000000240FC000000000000284000
  0
ACAD_PROXY_OBJECT
  5
4E
102
{ACAD_REACTORS
330
3A
102
}
330
3A
100
AcDbProxyObject
 90
      499
 91
      503
 93
      249
310
90D312F333222203D2031272D3022000000000000280FC000000000000284000
  0
ACAD_PROXY_OBJECT
  5
4F
102
{ACAD_REACTORS
330
3A
102
}
330
3A
100
AcDbProxyObject
 90
      499
 91
      503
 93
      249
310
90D312F313622203D2031272D30220000000000002C0FC000000000000284000
  0
ACAD_PROXY_OBJECT
  5
50
102
{ACAD_REACTORS
330
3A
102
}
330
3A
100
AcDbProxyObject
 90
      499
 91
      503
 93
      249
310
90D332F333222203D2031272D30220000000000002E0FC000000000000284000
  0
ACAD_PROXY_OBJECT
  5
51
102
{ACAD_REACTORS
330
3A
102
}
330
3A
100
AcDbProxyObject
 90
      499
 91
      503
 93
      241
310
90C312F3822203D2031272D3022000000000000300FC000000000000284000
  0
ACAD_PROXY_OBJECT
  5
52
102
{ACAD_REACTORS
330
3A
102
}
330
3A
100
AcDbProxyObject
 90
      499
 91
      503
 93
      249
310
90D332F313622203D2031272D3022000000000000320FC000000000000284000
  0
ACAD_PROXY_OBJECT
  5
53
102
{ACAD_REACTORS
330
3A
102
}
330
3A
100
AcDbProxyObject
 90
      499
 91
      503
 93
      241
310
90C312F3422203D2031272D3022000000000000340FC000000000000284000
  0
ACAD_PROXY_OBJECT
  5
54
102
{ACAD_REACTORS
330
3A
102
}
330
3A
100
AcDbProxyObject
 90
      499
 91
      503
 93
      241
310
90C332F3822203D2031272D3022000000000000360FC000000000000284000
  0
ACAD_PROXY_OBJECT
  5
55
102
{ACAD_REACTORS
330
3A
102
}
330
3A
100
AcDbProxyObject
 90
      499
 91
      503
 93
      241
310
90C312F3222203D2031272D3022000000000000380FC000000000000284000
  0
ACAD_PROXY_OBJECT
  5
56
102
{ACAD_REACTORS
330
3A
102
}
330
3A
100
AcDbProxyObject
 90
      499
 91
      503
 93
      241
310
90C332F3422203D2031272D30220000000000003A0FC000000000000284000
  0
ACAD_PROXY_OBJECT
  5
57
102
{ACAD_REACTORS
330
3A
102
}
330
3A
100
AcDbProxyObject
 90
      499
 91
      503
 93
      161
310
90A3122203D2031272D30224000000000000284000
  0
ACAD_PROXY_OBJECT
  5
58
102
{ACAD_REACTORS
330
3A
102
}
330
3A
100
AcDbProxyObject
 90
      499
 91
      503
 93
      257
310
90E312D312F3222203D2031272D30220000000000003E0FC000000000000284000
  0
ACAD_PROXY_OBJECT
  5
59
102
{ACAD_REACTORS
330
3A
102
}
330
3A
100
AcDbProxyObject
 90
      499
 91
      503
 93
      225
310
90A3322203D2031272D302200000000000002100000000000000284000
  0
ACAD_PROXY_OBJECT
  5
5A
102
{ACAD_REACTORS
330
3A
102
}
330
3A
100
AcDbProxyObject
 90
      499
 91
      503
 93
      225
310
90A3622203D2031272D302200000000000006100000000000000284000
  0
ACAD_PROXY_OBJECT
  5
5B
102
{ACAD_REACTORS
330
3A
102
}
330
3A
100
AcDbProxyObject
 90
      499
 91
      503
 93
      249
310
90D31272D3022203D2031272D30220000000000000A100000000000000284000
  0
ACAD_PROXY_OBJECT
  5
2F
102
{ACAD_REACTORS
330
29
102
}
330
29
100
AcDbProxyObject
 90
      499
 91
      502
 93
      436
310
42CC9915DA5C99599C985B595049028333333333333E3BF0000000000000FB0107901411070040501600405405064090741402480A0340
1001
ACAD
1000
AcDbSavedByObjectVersion
1070
     0
  0
ACAD_PROXY_OBJECT
  5
31
102
{ACAD_REACTORS
330
29
102
}
330
29
100
AcDbProxyObject
 90
      499
 91
      502
 93
      500
310
424CD108121A5919195B90640502408333333333333E3BF0000000000000FB01079024090700405020000000000001110200405405064090740C02480A0340
1001
ACAD
1000
AcDbSavedByObjectVersion
1070
     0
  0
ACAD_PROXY_OBJECT
  5
30
102
{ACAD_REACTORS
330
29
102
}
330
29
100
AcDbProxyObject
 90
      499
 91
      502
 93
      436
310
42CCD915DA5C99599C985B595059028333333333333E3BF0000000000000FB0107901411070040501600405405064090741402480A0340
1001
ACAD
1000
AcDbSavedByObjectVersion
1070
     0
  0
ACAD_PROXY_OBJECT
  5
2E
102
{ACAD_REACTORS
330
29
102
}
330
29
100
AcDbProxyObject
 90
      499
 91
      502
 93
      388
310
4150985CDA58D07406404333333333333E3BF0000000000000FB0107A41107004050150841D405064090741402480A0350
1001
ACAD
1000
AcDbSavedByObjectVersion
1070
     0
  0
ACAD_PROXY_OBJECT
  5
35
102
{ACAD_REACTORS
330
29
102
}
330
29
100
AcDbProxyObject
 90
      499
 91
      502
 93
      428
310
42109C9A59DA1D195B90C409028333333333333E3BF0000000000000FB010790141107004050150841D405064090741402480A029950
1001
ACAD
1000
AcDbSavedByObjectVersion
1070
     0
  0
ACAD_PROXY_OBJECT
  5
39
102
{ACAD_REACTORS
330
29
102
}
330
29
100
AcDbProxyObject
 90
      499
 91
      502
 93
      452
310
42D0DBDB1BDC90DA185B99D95104090240C333333333333E3BF0000000000000FB0108901411070040501508421405064090741402480A0350
1001
ACAD
1000
AcDbSavedByObjectVersion
1070
     0
  0
ACAD_PROXY_OBJECT
  5
32
102
{ACAD_REACTORS
330
29
102
}
330
29
100
AcDbProxyObject
 90
      499
 91
      502
 93
      500
310
4290DBDB98D95C1D1D585B10940D028333333333333E3BF0000000000000FB0107902409070040501000000000000111010841D405064090740C02480A0340
1001
ACAD
1000
AcDbSavedByObjectVersion
1070
     0
  0
ACAD_PROXY_OBJECT
  5
34
102
{ACAD_REACTORS
330
29
102
}
330
29
100
AcDbProxyObject
 90
      499
 91
      502
 93
      412
310
40D11A5B50B409028333333333333E3BF0000000000000FB010790141107004050150841D405064090741402480A02677FFFFFD0
1001
ACAD
1000
AcDbSavedByObjectVersion
1070
     0
  0
ACAD_PROXY_OBJECT
  5
38
102
{ACAD_REACTORS
330
29
102
}
330
29
100
AcDbProxyObject
 90
      499
 91
      502
 93
      444
310
42D19858D95C185D1D195C9B90F409028333333333333E3BF0000000000000FB010790141107004050150841D405064090741402480A0350
1001
ACAD
1000
AcDbSavedByObjectVersion
1070
     0
  0
ACAD_PROXY_OBJECT
  5
2A
102
{ACAD_REACTORS
330
29
102
}
330
29
100
AcDbProxyObject
 90
      499
 91
      502
 93
      388
310
41119B185D240901404333333333333E3BF0000000000000F9010740A41107004050150841D405064090741402480A1B50
1001
ACAD
1000
AcDbSavedByObjectVersion
1070
     0
  0
ACAD_PROXY_OBJECT
  5
2B
102
{ACAD_REACTORS
330
29
102
}
330
29
100
AcDbProxyObject
 90
      499
 91
      502
 93
      476
310
43519B185D15DA5D1A115919D95CD0140901404333333333333E3BF0000000000000F9010740901411070040501600405405064090741402480A1B50
1001
ACAD
1000
AcDbSavedByObjectVersion
1070
     0
  0
ACAD_PROXY_OBJECT
  5
2C
102
{ACAD_REACTORS
330
29
102
}
330
29
100
AcDbProxyObject
 90
      499
 91
      502
 93
      412
310
41D1DBDD5C985D5910240902404333333333333E3BF0000000000000F9010740A411070040501641D405064090741402480A1B50
1001
ACAD
1000
AcDbSavedByObjectVersion
1070
     0
  0
ACAD_PROXY_OBJECT
  5
2D
102
{ACAD_REACTORS
330
29
102
}
330
29
100
AcDbProxyObject
 90
      499
 91
      502
 93
      500
310
4411DBDD5C985D5915DA5D1A115919D95CD0340902404333333333333E3BF0000000000000F9010740901411070040501600405405064090741402480A1B50
1001
ACAD
1000
AcDbSavedByObjectVersion
1070
     0
  0
ACAD_PROXY_OBJECT
  5
37
102
{ACAD_REACTORS
330
29
102
}
330
29
100
AcDbProxyObject
 90
      499
 91
      502
 93
      444
310
42D31A5B995C185D1D195C9B90E409028333333333333E3BF0000000000000FB010790141107004050750841D405064090741402483A0350
1001
ACAD
1000
AcDbSavedByObjectVersion
1070
     0
  0
ACAD_PROXY_OBJECT
  5
33
102
{ACAD_REACTORS
330
29
102
}
330
29
100
AcDbProxyObject
 90
      499
 91
      502
 93
      420
310
425499585B1A5CDD1A58D08409028333333333333E3BF0000000000000FB01079019070040501508421405064090741402480A1B40
1001
ACAD
1000
AcDbSavedByObjectVersion
1070
     0
  0
ACAD_PROXY_OBJECT
  5
36
102
{ACAD_REACTORS
330
29
102
}
330
29
100
AcDbProxyObject
 90
      499
 91
      502
 93
      412
310
41D51A1A58DAD95B90D409028333333333333E3BF0000000000000FB010790141107004050150C41D405064090741402480A0350
1001
ACAD
1000
AcDbSavedByObjectVersion
1070
     0
  0
XRECORD
  5
128
102
{ACAD_REACTORS
330
11F
102
}
330
11F
100
AcDbXrecord
 90
        0
  0
XRECORD
  5
142
102
{ACAD_REACTORS
330
11F
102
}
330
11F
100
AcDbXrecord
340
6B
  0
XRECORD
  5
13E
102
{ACAD_REACTORS
330
11F
102
}
330
11F
100
AcDbXrecord
1000
DSTYLE
1002
{
1070
   273
 70
     4
1070
   277
 70
     4
1070
   340
340
5D
1002
}
  0
XRECORD
  5
129
102
{ACAD_REACTORS
330
11F
102
}
330
11F
100
AcDbXrecord
  1
{61EE5862-E016-43A9-BFC2-1153B02A6353}
  0
XRECORD
  5
122
102
{ACAD_REACTORS
330
11F
102
}
330
11F
100
AcDbXrecord
  1

  0
XRECORD
  5
127
102
{ACAD_REACTORS
330
11F
102
}
330
11F
100
AcDbXrecord
 90
        1
  0
XRECORD
  5
124
102
{ACAD_REACTORS
330
11F
102
}
330
11F
100
AcDbXrecord
340
6A
  0
XRECORD
  5
126
102
{ACAD_REACTORS
330
11F
102
}
330
11F
100
AcDbXrecord
 90
    10781
  0
XRECORD
  5
143
102
{ACAD_REACTORS
330
11F
102
}
330
11F
100
AcDbXrecord
340
10
  0
XRECORD
  5
125
102
{ACAD_REACTORS
330
11F
102
}
330
11F
100
AcDbXrecord
340
69
  0
XRECORD
  5
12B
102
{ACAD_REACTORS
330
11F
102
}
330
11F
100
AcDbXrecord
 40
0.0
  0
XRECORD
  5
12E
102
{ACAD_REACTORS
330
11F
102
}
330
11F
100
AcDbXrecord
340
0
  0
XRECORD
  5
134
102
{ACAD_REACTORS
330
11F
102
}
330
11F
100
AcDbXrecord
 10
0.0
 20
0.0
 30
0.0
  0
XRECORD
  5
130
102
{ACAD_REACTORS
330
11F
102
}
330
11F
100
AcDbXrecord
 10
0.0
 20
0.0
 30
0.0
  0
XRECORD
  5
133
102
{ACAD_REACTORS
330
11F
102
}
330
11F
100
AcDbXrecord
 10
0.0
 20
0.0
 30
0.0
  0
XRECORD
  5
131
102
{ACAD_REACTORS
330
11F
102
}
330
11F
100
AcDbXrecord
 10
0.0
 20
0.0
 30
0.0
  0
XRECORD
  5
132
102
{ACAD_REACTORS
330
11F
102
}
330
11F
100
AcDbXrecord
 10
0.0
 20
0.0
 30
0.0
  0
XRECORD
  5
12F
102
{ACAD_REACTORS
330
11F
102
}
330
11F
100
AcDbXrecord
 10
0.0
 20
0.0
 30
0.0
  0
XRECORD
  5
12C
102
{ACAD_REACTORS
330
11F
102
}
330
11F
100
AcDbXrecord
340
0
  0
XRECORD
  5
12D
102
{ACAD_REACTORS
330
11F
102
}
330
11F
100
AcDbXrecord
 70
     0
  0
XRECORD
  5
123
102
{ACAD_REACTORS
330
11F
102
}
330
11F
100
AcDbXrecord
  1

  0
XRECORD
  5
120
102
{ACAD_REACTORS
330
11F
102
}
330
11F
100
AcDbXrecord
 90
        1
  0
XRECORD
  5
121
102
{ACAD_REACTORS
330
11F
102
}
330
11F
100
AcDbXrecord
 90
       70
  0
XRECORD
  5
137
102
{ACAD_REACTORS
330
11F
102
}
330
11F
100
AcDbXrecord
340
0
  0
XRECORD
  5
13D
102
{ACAD_REACTORS
330
11F
102
}
330
11F
100
AcDbXrecord
 10
0.0
 20
0.0
 30
0.0
  0
XRECORD
  5
139
102
{ACAD_REACTORS
330
11F
102
}
330
11F
100
AcDbXrecord
 10
0.0
 20
0.0
 30
0.0
  0
XRECORD
  5
13C
102
{ACAD_REACTORS
330
11F
102
}
330
11F
100
AcDbXrecord
 10
0.0
 20
0.0
 30
0.0
  0
XRECORD
  5
13A
102
{ACAD_REACTORS
330
11F
102
}
330
11F
100
AcDbXrecord
 10
0.0
 20
0.0
 30
0.0
  0
XRECORD
  5
13B
102
{ACAD_REACTORS
330
11F
102
}
330
11F
100
AcDbXrecord
 10
0.0
 20
0.0
 30
0.0
  0
XRECORD
  5
138
102
{ACAD_REACTORS
330
11F
102
}
330
11F
100
AcDbXrecord
 10
0.0
 20
0.0
 30
0.0
  0
XRECORD
  5
135
102
{ACAD_REACTORS
330
11F
102
}
330
11F
100
AcDbXrecord
340
0
  0
XRECORD
  5
136
102
{ACAD_REACTORS
330
11F
102
}
330
11F
100
AcDbXrecord
 70
     0
  0
XRECORD
  5
12A
102
{ACAD_REACTORS
330
11F
102
}
330
11F
100
AcDbXrecord
  1
{D92C8526-28E1-40A6-A6A7-4DC9290E6C8F}
  0
DICTIONARYVAR
  5
11E
102
{ACAD_REACTORS
330
11B
102
}
330
11B
100
DictionaryVariables
280
     0
  1
1:1
  0
DICTIONARYVAR
  5
11D
102
{ACAD_REACTORS
330
11B
102
}
330
11B
100
DictionaryVariables
280
     0
  1
Standard
  0
DICTIONARYVAR
  5
11C
102
{ACAD_REACTORS
330
11B
102
}
330
11B
100
DictionaryVariables
280
     0
  1
Standard
  0
DICTIONARYVAR
  5
140
102
{ACAD_REACTORS
330
11B
102
}
330
11B
100
DictionaryVariables
280
     0
  1
2
  0
DICTIONARYVAR
  5
141
102
{ACAD_REACTORS
330
11B
102
}
330
11B
100
DictionaryVariables
280
     0
  1
1
  0
DICTIONARYVAR
  5
13F
102
{ACAD_REACTORS
330
11B
102
}
330
11B
100
DictionaryVariables
280
     0
  1
0
  0
XRECORD
  5
116
102
{ACAD_REACTORS
330
115
102
}
330
115
100
AcDbXrecord
  1
-2001320
  1
Structural Framing
  0
DICTIONARY
  5
146
330
19
100
AcDbDictionary
280
     1
  3
ACAD_XREC_ROUNDTRIP
360
147
  0
DICTIONARY
  5
148
330
11
100
AcDbDictionary
280
     1
  3
ACAD_XREC_ROUNDTRIP
360
149
  0
DICTIONARY
  5
14A
330
21
100
AcDbDictionary
280
     1
  3
ACAD_XREC_ROUNDTRIP
360
14B
  0
DICTIONARY
  5
10D
330
10C
100
AcDbDictionary
280
     1
  3
ACAD_XREC_ROUNDTRIP
360
14C
  3
VIZ_XML_MATERIAL_DEFINITION
360
10E
  0
DICTIONARY
  5
113
330
112
100
AcDbDictionary
280
     1
  3
ACAD_XREC_ROUNDTRIP
360
14D
  3
VIZ_XML_MATERIAL_DEFINITION
360
114
  0
DICTIONARY
  5
110
330
10F
100
AcDbDictionary
280
     1
  3
ACAD_XREC_ROUNDTRIP
360
14E
  3
VIZ_XML_MATERIAL_DEFINITION
360
111
  0
XRECORD
  5
147
102
{ACAD_REACTORS
330
146
102
}
330
146
100
AcDbXrecord
102
MATERIAL
148
0.0
149
0.0
149
0.0
 93
        0
 94
      127
282
     0
 72
     0
 77
     0
171
     0
175
     0
179
     0
273
     0
  0
XRECORD
  5
149
102
{ACAD_REACTORS
330
148
102
}
330
148
100
AcDbXrecord
102
MATERIAL
148
0.0
149
0.0
149
0.0
 93
        0
 94
      127
282
     0
 72
     0
 77
     0
171
     0
175
     0
179
     0
273
     0
  0
XRECORD
  5
14B
102
{ACAD_REACTORS
330
14A
102
}
330
14A
100
AcDbXrecord
102
MATERIAL
148
0.0
149
0.0
149
0.0
 93
        0
 94
      127
282
     0
 72
     0
 77
     0
171
     0
175
     0
179
     0
273
     0
  0
XRECORD
  5
14C
102
{ACAD_REACTORS
330
10D
102
}
330
10D
100
AcDbXrecord
102
MATERIAL
148
0.0
149
0.0
149
0.0
 93
        0
 94
      127
282
     0
 72
     1
 77
     0
171
     1
175
     0
179
     1
273
     0
  0
XRECORD
  5
10E
102
{ACAD_REACTORS
330
10D
102
}
330
10D
100
AcDbXrecord
300
<Material id="RevitMaterialDefinition14305" app="REVIT" Background="0" Backlight="1" Sample="0" Tiling="0">^J<LinearUnits unitType="foot" unitScale="1.0"/>^J<ArchitecturalMaterial name="Solid Sawn Lumber">^J<ArchTemplateParameters name="Solid Sawn Lumber" cl
300
assid_A="2008828122" classid_B="14503598">^J</ArchTemplateParameters>^J<ArchMatParameters>^J<ArchDiffuseColor>^J<RGBf r="0.8353" g="0.7608" b="0.5882"/>^J</ArchDiffuseColor>^J<ArchIndexOfRefraction>2.0000</ArchIndexOfRefraction>^J<ArchTransparency>0.0000</ArchTr
300
ansparency>^J<ArchLuminance>0.0000</ArchLuminance>^J</ArchMatParameters>^J</ArchitecturalMaterial>^J</Material>^J
  0
XRECORD
  5
14D
102
{ACAD_REACTORS
330
113
102
}
330
113
100
AcDbXrecord
102
MATERIAL
148
0.0
149
0.0
149
0.0
 93
        0
 94
      127
282
     0
 72
     1
 77
     0
171
     1
175
     0
179
     1
273
     0
  0
XRECORD
  5
114
102
{ACAD_REACTORS
330
113
102
}
330
113
100
AcDbXrecord
300
<Material id="RevitMaterialDefinition14307" app="REVIT" Background="0" Backlight="1" Sample="0" Tiling="0">^J<LinearUnits unitType="foot" unitScale="1.0"/>^J<ArchitecturalMaterial name="Orineted Strand Board">^J<ArchTemplateParameters name="Orineted Strand B
300
oard" classid_A="2008828122" classid_B="14503598">^J</ArchTemplateParameters>^J<ArchMatParameters>^J<ArchDiffuseColor>^J<RGBf r="0.5216" g="0.4588" b="0.3255"/>^J</ArchDiffuseColor>^J<ArchIndexOfRefraction>2.0000</ArchIndexOfRefraction>^J<ArchTransparency>0.0000
300
</ArchTransparency>^J<ArchLuminance>0.0000</ArchLuminance>^J</ArchMatParameters>^J</ArchitecturalMaterial>^J</Material>^J
  0
XRECORD
  5
14E
102
{ACAD_REACTORS
330
110
102
}
330
110
100
AcDbXrecord
102
MATERIAL
148
0.0
149
0.0
149
0.0
 93
        0
 94
      127
282
     0
 72
     1
 77
     0
171
     1
175
     0
179
     1
273
     0
  0
XRECORD
  5
111
102
{ACAD_REACTORS
330
110
102
}
330
110
100
AcDbXrecord
300
<Material id="RevitMaterialDefinition238" app="REVIT" Background="0" Backlight="1" Sample="0" Tiling="0">^J<LinearUnits unitType="foot" unitScale="1.0"/>^J<ArchitecturalMaterial name="Ultrasonically and Visually Graded Veneers">^J<ArchTemplateParameters name
300
="Ultrasonically and Visually Graded Veneers" classid_A="2008828122" classid_B="14503598">^J</ArchTemplateParameters>^J<ArchMatParameters>^J<ArchDiffuseColor>^J<RGBf r="0.5216" g="0.4588" b="0.3255"/>^J</ArchDiffuseColor>^J<ArchIndexOfRefraction>2.0000</ArchInd
300
exOfRefraction>^J<ArchTransparency>0.0000</ArchTransparency>^J<ArchLuminance>0.0000</ArchLuminance>^J</ArchMatParameters>^J</ArchitecturalMaterial>^J</Material>^J
  0
ENDSEC
  0
EOF
