  0
SECTION
  2
HEADER
  9
$ACADVER
  1
AC1014
  9
$ACADMAINTVER
 70
     9
  9
$DWGCODEPAGE
  3
ANSI_1252
  9
$INSBASE
 10
0.0
 20
0.0
 30
0.0
  9
$EXTMIN
 10
-7.260660000000001
 20
-7.254899999999999
 30
0.0
  9
$EXTMAX
 10
152.47386
 20
152.3529
 30
0.0
  9
$LIMMIN
 10
-7.260660000000001
 20
-7.254899999999999
  9
$LIMMAX
 10
152.47386
 20
152.3529
  9
$ORTHOMODE
 70
     0
  9
$REGENMODE
 70
     1
  9
$FILLMODE
 70
     1
  9
$QTEXTMODE
 70
     0
  9
$MIRRTEXT
 70
     1
  9
$DRAGMODE
 70
     2
  9
$LTSCALE
 40
1.0
  9
$OSMODE
 70
    37
  9
$ATTMODE
 70
     1
  9
$TEXTSIZE
 40
0.2
  9
$TRACEWID
 40
0.05
  9
$TEXTSTYLE
  7
STANDARD
  9
$CLAYER
  8
0
  9
$CELTYPE
  6
BYLAYER
  9
$CECOLOR
 62
   256
  9
$CELTSCALE
 40
1.0
  9
$DELOBJ
 70
     1
  9
$DISPSILH
 70
     0
  9
$DIMSCALE
 40
1.0
  9
$DIMASZ
 40
0.18
  9
$DIMEXO
 40
0.0625
  9
$DIMDLI
 40
0.38
  9
$DIMRND
 40
0.0
  9
$DIMDLE
 40
0.0
  9
$DIMEXE
 40
0.18
  9
$DIMTP
 40
0.0
  9
$DIMTM
 40
0.0
  9
$DIMTXT
 40
0.18
  9
$DIMCEN
 40
0.09
  9
$DIMTSZ
 40
0.0
  9
$DIMTOL
 70
     0
  9
$DIMLIM
 70
     0
  9
$DIMTIH
 70
     1
  9
$DIMTOH
 70
     1
  9
$DIMSE1
 70
     0
  9
$DIMSE2
 70
     0
  9
$DIMTAD
 70
     0
  9
$DIMZIN
 70
     0
  9
$DIMBLK
  1

  9
$DIMASO
 70
     1
  9
$DIMSHO
 70
     1
  9
$DIMPOST
  1

  9
$DIMAPOST
  1

  9
$DIMALT
 70
     0
  9
$DIMALTD
 70
     2
  9
$DIMALTF
 40
25.4
  9
$DIMLFAC
 40
1.0
  9
$DIMTOFL
 70
     0
  9
$DIMTVP
 40
0.0
  9
$DIMTIX
 70
     0
  9
$DIMSOXD
 70
     0
  9
$DIMSAH
 70
     0
  9
$DIMBLK1
  1

  9
$DIMBLK2
  1

  9
$DIMSTYLE
  2
STANDARD
  9
$DIMCLRD
 70
     0
  9
$DIMCLRE
 70
     0
  9
$DIMCLRT
 70
     0
  9
$DIMTFAC
 40
1.0
  9
$DIMGAP
 40
0.09
  9
$DIMJUST
 70
     0
  9
$DIMSD1
 70
     0
  9
$DIMSD2
 70
     0
  9
$DIMTOLJ
 70
     1
  9
$DIMTZIN
 70
     0
  9
$DIMALTZ
 70
     0
  9
$DIMALTTZ
 70
     0
  9
$DIMFIT
 70
     3
  9
$DIMUPT
 70
     0
  9
$DIMUNIT
 70
     2
  9
$DIMDEC
 70
     4
  9
$DIMTDEC
 70
     4
  9
$DIMALTU
 70
     2
  9
$DIMALTTD
 70
     2
  9
$DIMTXSTY
  7
STANDARD
  9
$DIMAUNIT
 70
     0
  9
$LUNITS
 70
     2
  9
$LUPREC
 70
     4
  9
$SKETCHINC
 40
0.1
  9
$FILLETRAD
 40
0.5
  9
$AUNITS
 70
     0
  9
$AUPREC
 70
     0
  9
$MENU
  1
.
  9
$ELEVATION
 40
0.0
  9
$PELEVATION
 40
0.0
  9
$THICKNESS
 40
0.0
  9
$LIMCHECK
 70
     0
  9
$CHAMFERA
 40
0.5
  9
$CHAMFERB
 40
0.5
  9
$CHAMFERC
 40
1.0
  9
$CHAMFERD
 40
0.0
  9
$SKPOLY
 70
     0
  9
$TDCREATE
 40
2456098.41925706
  9
$TDUPDATE
 40
2456098.419257072
  9
$TDINDWG
 40
0.0000000116
  9
$TDUSRTIMER
 40
0.0000000116
  9
$USRTIMER
 70
     1
  9
$ANGBASE
 50
0.0
  9
$ANGDIR
 70
     0
  9
$PDMODE
 70
     0
  9
$PDSIZE
 40
0.0
  9
$PLINEWID
 40
0.0
  9
$COORDS
 70
     1
  9
$SPLFRAME
 70
     0
  9
$SPLINETYPE
 70
     6
  9
$SPLINESEGS
 70
     8
  9
$ATTDIA
 70
     0
  9
$ATTREQ
 70
     1
  9
$HANDLING
 70
     1
  9
$HANDSEED
  5
229
  9
$SURFTAB1
 70
     6
  9
$SURFTAB2
 70
     6
  9
$SURFTYPE
 70
     6
  9
$SURFU
 70
     6
  9
$SURFV
 70
     6
  9
$UCSNAME
  2

  9
$UCSORG
 10
0.0
 20
0.0
 30
0.0
  9
$UCSXDIR
 10
1.0
 20
0.0
 30
0.0
  9
$UCSYDIR
 10
0.0
 20
1.0
 30
0.0
  9
$PUCSNAME
  2

  9
$PUCSORG
 10
0.0
 20
0.0
 30
0.0
  9
$PUCSXDIR
 10
1.0
 20
0.0
 30
0.0
  9
$PUCSYDIR
 10
0.0
 20
1.0
 30
0.0
  9
$USERI1
 70
     0
  9
$USERI2
 70
     0
  9
$USERI3
 70
     0
  9
$USERI4
 70
     0
  9
$USERI5
 70
     0
  9
$USERR1
 40
0.0
  9
$USERR2
 40
0.0
  9
$USERR3
 40
0.0
  9
$USERR4
 40
0.0
  9
$USERR5
 40
0.0
  9
$WORLDVIEW
 70
     1
  9
$SHADEDGE
 70
     3
  9
$SHADEDIF
 70
    70
  9
$TILEMODE
 70
     1
  9
$MAXACTVP
 70
    64
  9
$PINSBASE
 10
0.0
 20
0.0
 30
0.0
  9
$PLIMCHECK
 70
     0
  9
$PEXTMIN
 10
1.000000000000000E+20
 20
1.000000000000000E+20
 30
1.000000000000000E+20
  9
$PEXTMAX
 10
-1.000000000000000E+20
 20
-1.000000000000000E+20
 30
-1.000000000000000E+20
  9
$PLIMMIN
 10
0.0
 20
0.0
  9
$PLIMMAX
 10
12.0
 20
9.0
  9
$UNITMODE
 70
     0
  9
$VISRETAIN
 70
     1
  9
$PLINEGEN
 70
     0
  9
$PSLTSCALE
 70
     1
  9
$TREEDEPTH
 70
  3020
  9
$PICKSTYLE
 70
     1
  9
$CMLSTYLE
  2
STANDARD
  9
$CMLJUST
 70
     0
  9
$CMLSCALE
 40
1.0
  9
$PROXYGRAPHICS
 70
     1
  9
$MEASUREMENT
 70
     0
  0
ENDSEC
  0
SECTION
  2
CLASSES
  0
CLASS
  1
ACDBDICTIONARYWDFLT
  2
AcDbDictionaryWithDefault
  3
ObjectDBX Classes
 90
        0
280
     0
281
     0
  0
CLASS
  1
VISUALSTYLE
  2
AcDbVisualStyle
  3
ObjectDBX Classes
 90
     4095
280
     0
281
     0
  0
CLASS
  1
MATERIAL
  2
AcDbMaterial
  3
ObjectDBX Classes
 90
     1153
280
     0
281
     0
  0
CLASS
  1
DICTIONARYVAR
  2
AcDbDictionaryVar
  3
ObjectDBX Classes
 90
        0
280
     0
281
     0
  0
CLASS
  1
XRECORD
  2
AcDbXrecord
  3
AutoCAD 2000
 90
        0
280
     0
281
     0
  0
CLASS
  1
LWPOLYLINE
  2
AcDbPolyline
  3
AutoCAD 2000
 90
        0
280
     0
281
     1
  0
CLASS
  1
HATCH
  2
AcDbHatch
  3
AutoCAD 2000
 90
        0
280
     0
281
     1
  0
CLASS
  1
ACDBPLACEHOLDER
  2
AcDbPlaceHolder
  3
ObjectDBX Classes
 90
        0
280
     0
281
     0
  0
CLASS
  1
LAYOUT
  2
AcDbLayout
  3
ObjectDBX Classes
 90
        0
280
     0
281
     0
  0
ENDSEC
  0
SECTION
  2
TABLES
  0
TABLE
  2
VPORT
  5
8
330
0
100
AcDbSymbolTable
 70
     1
  0
VPORT
  5
29
330
8
100
AcDbSymbolTableRecord
100
AcDbViewportTableRecord
  2
*ACTIVE
 70
     0
 10
0.0
 20
0.0
 11
1.0
 21
1.0
 12
-7.260660000000001
 22
72.54899999999999
 13
0.0
 23
0.0
 14
0.5
 24
0.5
 15
0.5
 25
0.5
 16
0.0
 26
0.0
 36
1.0
 17
0.0
 27
0.0
 37
0.0
 40
159.6078
 41
0.1112524372596638
 42
50.0
 43
0.0
 44
0.0
 50
0.0
 51
0.0
 71
     0
 72
   100
 73
     1
 74
     3
 75
     0
 76
     0
 77
     0
 78
     0
  0
ENDTAB
  0
TABLE
  2
LTYPE
  5
5
330
0
100
AcDbSymbolTable
 70
    11
  0
LTYPE
  5
14
330
5
100
AcDbSymbolTableRecord
100
AcDbLinetypeTableRecord
  2
BYBLOCK
 70
     0
  3

 72
    65
 73
     0
 40
0.0
  0
LTYPE
  5
15
330
5
100
AcDbSymbolTableRecord
100
AcDbLinetypeTableRecord
  2
BYLAYER
 70
     0
  3

 72
    65
 73
     0
 40
0.0
  0
LTYPE
  5
16
330
5
100
AcDbSymbolTableRecord
100
AcDbLinetypeTableRecord
  2
CONTINUOUS
 70
     0
  3
Solid line
 72
    65
 73
     0
 40
0.0
  0
LTYPE
  5
53
330
5
100
AcDbSymbolTableRecord
100
AcDbLinetypeTableRecord
  2
HIDDEN
 70
     0
  3
Hidden __ __ __ __ __ __ __ __ __ __ __ __ __ _
 72
    65
 73
     2
 40
0.375
 49
0.25
 74
     0
 49
-0.125
 74
     0
  0
LTYPE
  5
54
330
5
100
AcDbSymbolTableRecord
100
AcDbLinetypeTableRecord
  2
DIVIDE
 70
     0
  3
Divide ____ . . ____ . . ____ . . ____ . . ____
 72
    65
 73
     6
 40
1.25
 49
0.5
 74
     0
 49
-0.25
 74
     0
 49
0.0
 74
     0
 49
-0.25
 74
     0
 49
0.0
 74
     0
 49
-0.25
 74
     0
  0
LTYPE
  5
56
330
5
100
AcDbSymbolTableRecord
100
AcDbLinetypeTableRecord
  2
ZIGZAG
 70
     0
  3
/\/\/\/\/\/\/\/\
 72
    65
 73
     4
 40
20.32254
 49
0.00254
 74
     0
 49
-5.08
 74
     4
 75
   131
340
55
 46
5.08
 50
0.0
 44
-5.08
 45
0.0
 49
-10.16
 74
     4
 75
   131
340
55
 46
5.08
 50
180.0
 44
5.08
 45
0.0
 49
-5.08
 74
     0
  0
LTYPE
  5
57
330
5
100
AcDbSymbolTableRecord
100
AcDbLinetypeTableRecord
  2
BATTING
 70
     0
  3
 SSSSSSSSSSSSSSSSSSSSSS
 72
    65
 73
     4
 40
10.16254
 49
0.00254
 74
     0
 49
-2.54
 74
     4
 75
   134
340
55
 46
2.54
 50
0.0
 44
-2.54
 45
0.0
 49
-5.08
 74
     4
 75
   134
340
55
 46
2.54
 50
180.0
 44
2.54
 45
0.0
 49
-2.54
 74
     0
  0
LTYPE
  5
58
330
5
100
AcDbSymbolTableRecord
100
AcDbLinetypeTableRecord
  2
DASHDOT
 70
     0
  3
DASHDOT
 72
    65
 73
     4
 40
1.0
 49
0.5
 74
     0
 49
-0.25
 74
     0
 49
0.0001
 74
     0
 49
-0.25
 74
     0
  0
LTYPE
  5
59
330
5
100
AcDbSymbolTableRecord
100
AcDbLinetypeTableRecord
  2
DASHDOTX2
 70
     0
  3
DASHDOTX2
 72
    65
 73
     4
 40
1.0
 49
1.0
 74
     0
 49
-0.5
 74
     0
 49
0.0002
 74
     0
 49
-0.5
 74
     0
  0
LTYPE
  5
5A
330
5
100
AcDbSymbolTableRecord
100
AcDbLinetypeTableRecord
  2
DASHED
 70
     0
  3
DASHED
 72
    65
 73
     2
 40
0.75
 49
0.5
 74
     0
 49
-0.25
 74
     0
  0
LTYPE
  5
5B
330
5
100
AcDbSymbolTableRecord
100
AcDbLinetypeTableRecord
  2
TRACKS
 70
     0
  3
TRACKS
 72
    65
 73
     2
 40
7.62
 49
3.81
 74
     0
 49
3.81
 74
     0
  0
LTYPE
  5
5C
330
5
100
AcDbSymbolTableRecord
100
AcDbLinetypeTableRecord
  2
DOT
 70
     0
  3
DOT
 72
    65
 73
     2
 40
0.25
 49
0.0001
 74
     0
 49
-0.25
 74
     0
  0
LTYPE
  5
5D
330
5
100
AcDbSymbolTableRecord
100
AcDbLinetypeTableRecord
  2
PHANTOM
 70
     0
  3
PHANTOM
 72
    65
 73
     6
 40
2.5
 49
1.25
 74
     0
 49
-0.25
 74
     0
 49
0.25
 74
     0
 49
-0.25
 74
     0
 49
0.25
 74
     0
 49
-0.25
 74
     0
  0
ENDTAB
  0
TABLE
  2
LAYER
  5
2
330
0
100
AcDbSymbolTable
 70
     2
  0
LAYER
  5
10
330
2
100
AcDbSymbolTableRecord
100
AcDbLayerTableRecord
  2
0
 70
     0
 62
     1
  6
CONTINUOUS
  0
LAYER
  5
5E
330
2
100
AcDbSymbolTableRecord
100
AcDbLayerTableRecord
  2
TEXT
 70
     0
 62
     7
  6
CONTINUOUS
  0
ENDTAB
  0
TABLE
  2
STYLE
  5
3
330
0
100
AcDbSymbolTable
 70
    12
  0
STYLE
  5
11
330
3
100
AcDbSymbolTableRecord
100
AcDbTextStyleTableRecord
  2
STANDARD
 70
     0
 40
0.0
 41
1.0
 50
0.0
 71
     0
 42
0.2
  3
txt
  4

  0
STYLE
  5
40
330
3
100
AcDbSymbolTableRecord
100
AcDbTextStyleTableRecord
  2
LPDETAILTEXT
 70
     0
 40
0.0
 41
1.0
 50
0.0
 71
     0
 42
0.0
  3
COMIC.TTF
  4

1001
ACAD
1000
Comic Sans MS
1071
       34
  0
STYLE
  5
41
330
3
100
AcDbSymbolTableRecord
100
AcDbTextStyleTableRecord
  2
ARIAL
 70
     0
 40
0.0
 41
1.0
 50
0.0
 71
     0
 42
0.2
  3
ARIAL.TTF
  4

1001
ACAD
1000
Arial
1071
       34
  0
STYLE
  5
42
330
3
100
AcDbSymbolTableRecord
100
AcDbTextStyleTableRecord
  2
COURIER_NEW
 70
     0
 40
0.0
 41
1.0
 50
0.0
 71
     0
 42
0.2
  3
COUR.TTF
  4

1001
ACAD
1000
Courier New
1071
       34
  0
STYLE
  5
43
330
3
100
AcDbSymbolTableRecord
100
AcDbTextStyleTableRecord
  2
ARIAL_NARROW
 70
     0
 40
0.0
 41
1.0
 50
0.0
 71
     0
 42
0.2
  3
ARIALN.TTF
  4

1001
ACAD
1000
Arial Narrow
1071
       34
  0
STYLE
  5
44
330
3
100
AcDbSymbolTableRecord
100
AcDbTextStyleTableRecord
  2
TIMES_NEW_ROMAN
 70
     0
 40
0.0
 41
1.0
 50
0.0
 71
     0
 42
0.2
  3
TIMES.TTF
  4

1001
ACAD
1000
Times New Roman
1071
       34
  0
STYLE
  5
45
330
3
100
AcDbSymbolTableRecord
100
AcDbTextStyleTableRecord
  2
IMPACT
 70
     0
 40
0.0
 41
1.0
 50
0.0
 71
     0
 42
0.2
  3
IMPACT.TTF
  4

1001
ACAD
1000
Impact
1071
       34
  0
STYLE
  5
46
330
3
100
AcDbSymbolTableRecord
100
AcDbTextStyleTableRecord
  2
ARIAL_BLACK
 70
     0
 40
0.0
 41
1.0
 50
0.0
 71
     0
 42
0.2
  3
ARIBLK.TTF
  4

1001
ACAD
1000
Arial Black
1071
       34
  0
STYLE
  5
47
330
3
100
AcDbSymbolTableRecord
100
AcDbTextStyleTableRecord
  2
SYMBOL
 70
     0
 40
0.0
 41
1.0
 50
0.0
 71
     0
 42
0.2
  3
SYMBOL.TTF
  4

1001
ACAD
1000
Symbol
1071
       34
  0
STYLE
  5
48
330
3
100
AcDbSymbolTableRecord
100
AcDbTextStyleTableRecord
  2
COMIC_SANS_MS
 70
     0
 40
0.0
 41
1.0
 50
0.0
 71
     0
 42
0.2
  3
COMIC.TTF
  4

1001
ACAD
1000
Comic Sans MS
1071
       34
  0
STYLE
  5
49
330
3
100
AcDbSymbolTableRecord
100
AcDbTextStyleTableRecord
  2
TREBUCHET_MS
 70
     0
 40
0.0
 41
1.0
 50
0.0
 71
     0
 42
0.2
  3
TREBUC.TTF
  4

1001
ACAD
1000
Trebuchet MS
1071
       34
  0
STYLE
  5
55
330
3
100
AcDbSymbolTableRecord
100
AcDbTextStyleTableRecord
  2

 70
     1
 40
0.0
 41
1.0
 50
0.0
 71
     0
 42
22.45
  3
ltypeshp.shx
  4

  0
ENDTAB
  0
TABLE
  2
VIEW
  5
6
330
0
100
AcDbSymbolTable
 70
     0
  0
ENDTAB
  0
TABLE
  2
UCS
  5
7
330
0
100
AcDbSymbolTable
 70
     0
  0
ENDTAB
  0
TABLE
  2
APPID
  5
9
330
0
100
AcDbSymbolTable
 70
     2
  0
APPID
  5
12
330
9
100
AcDbSymbolTableRecord
100
AcDbRegAppTableRecord
  2
ACAD
 70
     0
  0
APPID
  5
3F
330
9
100
AcDbSymbolTableRecord
100
AcDbRegAppTableRecord
  2
VERTEX
 70
     0
  0
ENDTAB
  0
TABLE
  2
DIMSTYLE
  5
A
330
0
100
AcDbSymbolTable
 70
     3
  0
DIMSTYLE
105
27
330
A
100
AcDbSymbolTableRecord
100
AcDbDimStyleTableRecord
  2
STANDARD
 70
     0
  3

  4

  5

  6

  7

 40
1.0
 41
0.18
 42
0.0625
 43
0.38
 44
0.18
 45
0.0
 46
0.0
 47
0.0
 48
0.0
140
0.18
141
0.09
142
0.0
143
25.4
144
1.0
145
0.0
146
1.0
147
0.09
 71
     0
 72
     0
 73
     1
 74
     1
 75
     0
 76
     0
 77
     0
 78
     0
170
     0
171
     2
172
     0
173
     0
174
     0
175
     0
176
     0
177
     0
178
     0
270
     2
271
     4
272
     4
273
     2
274
     2
340
11
275
     0
280
     0
281
     0
282
     0
283
     1
284
     0
285
     0
286
     0
287
     3
288
     0
  0
DIMSTYLE
105
4A
330
A
100
AcDbSymbolTableRecord
100
AcDbDimStyleTableRecord
  2
VERTEX_STYLE
 70
     0
  3

  4

  5

  6
CLOSED
  7
CLOSED
 40
1.0
 41
0.078740157480315
 42
0.0625
 43
0.38
 44
0.0393700787401575
 45
0.0
 46
0.0393700787401575
 47
0.0
 48
0.0
140
0.18
141
0.09
142
0.0
143
25.4
144
25.4
145
0.0
146
0.65
147
0.0669291338582677
 71
     0
 72
     0
 73
     0
 74
     0
 75
     0
 76
     0
 77
     1
 78
     8
170
     0
171
     2
172
     1
173
     1
174
     0
175
     0
176
   256
177
   256
178
     0
179
     1
270
     2
271
     1
272
     4
273
     2
274
     2
340
40
275
     0
280
     0
281
     0
282
     0
283
     1
284
     0
285
     0
286
     0
287
     3
288
     0
  0
DIMSTYLE
105
52
330
A
100
AcDbSymbolTableRecord
100
AcDbDimStyleTableRecord
  2
VERTEX_STYLE__INCHES_
 70
     0
  3

  4

  5

  6
CLOSED
  7
CLOSED
 40
1.0
 41
0.078740157480315
 42
0.0625
 43
0.38
 44
0.0393700787401575
 45
0.0
 46
0.0393700787401575
 47
0.0
 48
0.0
140
0.18
141
0.09
142
0.0
143
25.4
144
1.0
145
0.0
146
0.65
147
0.0669291338582677
 71
     0
 72
     0
 73
     0
 74
     0
 75
     0
 76
     0
 77
     1
 78
     0
170
     0
171
     2
172
     1
173
     1
174
     0
175
     0
176
   256
177
   256
178
     0
179
     1
270
     4
271
     4
272
     4
273
     2
274
     2
340
40
275
     0
280
     0
281
     0
282
     0
283
     1
284
     0
285
     0
286
     0
287
     3
288
     0
  0
ENDTAB
  0
TABLE
  2
BLOCK_RECORD
  5
1
330
0
100
AcDbSymbolTable
 70
     4
  0
BLOCK_RECORD
  5
1F
330
1
100
AcDbSymbolTableRecord
100
AcDbBlockTableRecord
  2
*MODEL_SPACE
  0
BLOCK_RECORD
  5
1B
330
1
100
AcDbSymbolTableRecord
100
AcDbBlockTableRecord
  2
*PAPER_SPACE
  0
BLOCK_RECORD
  5
4B
330
1
100
AcDbSymbolTableRecord
100
AcDbBlockTableRecord
  2
_CLOSED
  0
BLOCK_RECORD
  5
5F
330
1
100
AcDbSymbolTableRecord
100
AcDbBlockTableRecord
  2
GROUP_0_61B744FE-E273-4590
  0
BLOCK_RECORD
  5
62
330
1
100
AcDbSymbolTableRecord
100
AcDbBlockTableRecord
  2
HATCH_1_E1F7EE33-F75D-4D9B
  0
ENDTAB
  0
ENDSEC
  0
SECTION
  2
BLOCKS
  0
BLOCK
  5
20
330
1F
100
AcDbEntity
  8
0
100
AcDbBlockBegin
  2
*MODEL_SPACE
 70
     0
 10
0.0
 20
0.0
 30
0.0
  3
*MODEL_SPACE
  1

  0
ENDBLK
  5
21
330
1F
100
AcDbEntity
  8
0
100
AcDbBlockEnd
  0
BLOCK
  5
1C
330
1B
100
AcDbEntity
 67
     1
  8
0
100
AcDbBlockBegin
  2
*PAPER_SPACE
 70
     0
 10
0.0
 20
0.0
 30
0.0
  3
*PAPER_SPACE
  1

  0
ENDBLK
  5
1D
330
1B
100
AcDbEntity
 67
     1
  8
0
100
AcDbBlockEnd
  0
BLOCK
  5
4C
330
4B
100
AcDbEntity
  8
0
100
AcDbBlockBegin
  2
_CLOSED
 70
     0
 10
0.0
 20
0.0
 30
0.0
  3
_CLOSED
  1

  0
LINE
  5
4E
330
4B
100
AcDbEntity
  8
0
  6
BYBLOCK
 62
     0
100
AcDbLine
 10
-1.0
 20
0.166667
 30
0.0
 11
0.0
 21
0.0
 31
0.0
  0
LINE
  5
4F
330
4B
100
AcDbEntity
  8
0
  6
BYBLOCK
 62
     0
100
AcDbLine
 10
0.0
 20
0.0
 30
0.0
 11
-1.0
 21
-0.166667
 31
0.0
  0
LINE
  5
50
330
4B
100
AcDbEntity
  8
0
  6
BYBLOCK
 62
     0
100
AcDbLine
 10
-1.0
 20
0.166667
 30
0.0
 11
-1.0
 21
-0.166667
 31
0.0
  0
LINE
  5
51
330
4B
100
AcDbEntity
  8
0
  6
BYBLOCK
 62
     0
100
AcDbLine
 10
0.0
 20
0.0
 30
0.0
 11
-1.0
 21
0.0
 31
0.0
  0
ENDBLK
  5
4D
330
4B
100
AcDbEntity
  8
0
100
AcDbBlockEnd
  0
BLOCK
  5
60
330
5F
100
AcDbEntity
  8
0
100
AcDbBlockBegin
  2
GROUP_0_61B744FE-E273-4590
 70
     0
 10
0.0
 20
0.0
 30
0.0
  3
GROUP_0_61B744FE-E273-4590
  1

  0
CIRCLE
  5
14B
330
5F
100
AcDbEntity
  8
TEXT
  6
CONTINUOUS
 62
     1
 48
12.0
100
AcDbCircle
 10
73.17665000000001
 20
68.36231
 30
0.0
 40
51.60996
  0
ARC
  5
1F4
330
5F
100
AcDbEntity
  8
TEXT
  6
CONTINUOUS
 62
     1
 48
12.0
100
AcDbCircle
 10
71.73546955049378
 20
69.80600094337022
 30
0.0
 40
42.13944000000001
100
AcDbArc
 50
231.7806
 51
38.17420000000004
  0
LINE
  5
1F5
330
5F
100
AcDbEntity
  8
TEXT
  6
CONTINUOUS
 62
     1
 48
12.0
100
AcDbLine
 10
99.24785000000001
 20
101.46971
 30
0.0
 11
40.04981
 21
42.31811
 31
0.0
  0
LWPOLYLINE
  5
1F6
330
5F
100
AcDbEntity
  8
TEXT
  6
CONTINUOUS
 62
     1
 48
12.0
100
AcDbPolyline
 90
        3
 70
     0
 43
0.0
 10
104.86277
 20
95.85047
 10
45.66501043609407
 20
36.69915021609604
 10
45.66473
 20
36.69887
  0
ARC
  5
1F7
330
5F
100
AcDbEntity
  8
TEXT
  6
CONTINUOUS
 62
     1
 48
12.0
100
AcDbCircle
 10
73.17665000000001
 20
68.36231
 30
0.0
 40
42.13944
100
AcDbArc
 50
51.7806
 51
218.1742
  0
INSERT
  5
1FC
330
5F
100
AcDbEntity
  8
0
  6
BYBLOCK
100
AcDbBlockReference
  2
HATCH_1_E1F7EE33-F75D-4D9B
 10
0.0
 20
0.0
 30
0.0
  0
ENDBLK
  5
61
330
5F
100
AcDbEntity
  8
0
100
AcDbBlockEnd
  0
BLOCK
  5
63
330
62
100
AcDbEntity
  8
0
100
AcDbBlockBegin
  2
HATCH_1_E1F7EE33-F75D-4D9B
 70
     0
 10
0.0
 20
0.0
 30
0.0
  3
HATCH_1_E1F7EE33-F75D-4D9B
  1

  0
LINE
  5
65
330
62
100
AcDbEntity
  8
0
 62
     0
100
AcDbLine
 10
67.91037430666935
 20
17.18781724152499
 30
0.0
 11
67.71040476763807
 21
17.18432676023754
 31
0.0
  0
LINE
  5
66
330
62
100
AcDbEntity
  8
0
 62
     0
100
AcDbLine
 10
55.84239233904352
 20
20.97777914490315
 30
0.0
 11
55.64242280001224
 21
20.9742886636157
 31
0.0
  0
LINE
  5
67
330
62
100
AcDbEntity
  8
0
 62
     0
100
AcDbLine
 10
47.77380115204326
 20
24.83755067403045
 30
0.0
 11
47.57383161301198
 21
24.834060192743
 31
0.0
  0
LINE
  5
68
330
62
100
AcDbEntity
  8
0
 62
     0
100
AcDbLine
 10
43.70460074566856
 20
28.76713182890688
 30
0.0
 11
43.50463120663728
 21
28.76364134761943
 31
0.0
  0
LINE
  5
69
330
62
100
AcDbEntity
  8
0
 62
     0
100
AcDbLine
 10
39.63540033929386
 20
32.69671298378331
 30
0.0
 11
39.43543080026258
 21
32.69322250249586
 31
0.0
  0
LINE
  5
6A
330
62
100
AcDbEntity
  8
0
 62
     0
100
AcDbLine
 10
35.56619993291916
 20
36.62629413865974
 30
0.0
 11
35.36623039388788
 21
36.62280365737229
 31
0.0
  0
LINE
  5
6B
330
62
100
AcDbEntity
  8
0
 62
     0
100
AcDbLine
 10
31.49699952654446
 20
40.55587529353617
 30
0.0
 11
31.29702998751318
 21
40.55238481224871
 31
0.0
  0
LINE
  5
6C
330
62
100
AcDbEntity
  8
0
 62
     0
100
AcDbLine
 10
27.42779912016976
 20
44.48545644841261
 30
0.0
 11
27.42300611183294
 21
44.48537278614089
 31
0.0
  0
LINE
  5
6D
330
62
100
AcDbEntity
  8
0
 62
     0
100
AcDbLine
 10
27.35798949442063
 20
48.48484722903817
 30
0.0
 11
27.15801995538935
 21
48.48135674775072
 31
0.0
  0
LINE
  5
6E
330
62
100
AcDbEntity
  8
0
 62
     0
100
AcDbLine
 10
27.28817986867149
 20
52.48423800966373
 30
0.0
 11
27.08821032964021
 21
52.48074752837628
 31
0.0
  0
LINE
  5
6F
330
62
100
AcDbEntity
  8
0
 62
     0
100
AcDbLine
 10
23.21897946229679
 20
56.41381916454016
 30
0.0
 11
23.01900992326551
 21
56.41032868325271
 31
0.0
  0
LINE
  5
70
330
62
100
AcDbEntity
  8
0
 62
     0
100
AcDbLine
 10
23.14916983654766
 20
60.41320994516573
 30
0.0
 11
22.94920029751638
 21
60.40971946387827
 31
0.0
  0
LINE
  5
71
330
62
100
AcDbEntity
  8
0
 62
     0
100
AcDbLine
 10
23.07936021079852
 20
64.4126007257913
 30
0.0
 11
22.87939067176725
 21
64.40911024450384
 31
0.0
  0
LINE
  5
72
330
62
100
AcDbEntity
  8
0
 62
     0
100
AcDbLine
 10
58.16635210168987
 20
117.0329675056658
 30
0.0
 11
57.96638256265859
 21
117.0294770243784
 31
0.0
  0
LINE
  5
73
330
62
100
AcDbEntity
  8
0
 62
     0
100
AcDbLine
 10
50.23738016618787
 20
112.893957473542
 30
0.0
 11
50.03741062715659
 21
112.8904669922546
 31
0.0
  0
LINE
  5
74
330
62
100
AcDbEntity
  8
0
 62
     0
100
AcDbLine
 10
42.30840823068588
 20
108.7549474414182
 30
0.0
 11
42.1084386916546
 21
108.7514569601307
 31
0.0
  0
LINE
  5
75
330
62
100
AcDbEntity
  8
0
 62
     0
100
AcDbLine
 10
38.37882707580944
 20
104.6857470350435
 30
0.0
 11
38.17885753677817
 21
104.682256553756
 31
0.0
  0
LINE
  5
76
330
62
100
AcDbEntity
  8
0
 62
     0
100
AcDbLine
 10
34.44924592093302
 20
100.6165466286688
 30
0.0
 11
34.24927638190174
 21
100.6130561473813
 31
0.0
  0
LINE
  5
77
330
62
100
AcDbEntity
  8
0
 62
     0
100
AcDbLine
 10
30.51966476605658
 20
96.54734622229408
 30
0.0
 11
30.3196952270253
 21
96.54385574100662
 31
0.0
  0
LINE
  5
78
330
62
100
AcDbEntity
  8
0
 62
     0
100
AcDbLine
 10
30.58947439180572
 20
92.5479554416685
 30
0.0
 11
30.38950485277444
 21
92.54446496038105
 31
0.0
  0
LINE
  5
79
330
62
100
AcDbEntity
  8
0
 62
     0
100
AcDbLine
 10
26.65989323692929
 20
88.47875503529382
 30
0.0
 11
26.45992369789801
 21
88.47526455400636
 31
0.0
  0
LINE
  5
7A
330
62
100
AcDbEntity
  8
0
 62
     0
100
AcDbLine
 10
26.72970286267842
 20
84.47936425466825
 30
0.0
 11
26.52973332364714
 21
84.4758737733808
 31
0.0
  0
LINE
  5
7B
330
62
100
AcDbEntity
  8
0
 62
     0
100
AcDbLine
 10
26.79951248842755
 20
80.47997347404268
 30
0.0
 11
26.59954294939628
 21
80.47648299275522
 31
0.0
  0
LINE
  5
7C
330
62
100
AcDbEntity
  8
0
 62
     0
100
AcDbLine
 10
22.86993133355112
 20
76.41077306766799
 30
0.0
 11
22.66996179451985
 21
76.40728258638053
 31
0.0
  0
LINE
  5
7D
330
62
100
AcDbEntity
  8
0
 62
     0
100
AcDbLine
 10
22.93974095930026
 20
72.41138228704243
 30
0.0
 11
22.73977142026898
 21
72.40789180575497
 31
0.0
  0
LINE
  5
7E
330
62
100
AcDbEntity
  8
0
 62
     0
100
AcDbLine
 10
23.00955058504939
 20
68.41199150641685
 30
0.0
 11
22.80958104601811
 21
68.4085010251294
 31
0.0
  0
LINE
  5
7F
330
62
100
AcDbEntity
  8
0
 62
     0
100
AcDbLine
 10
46.30779901131145
 20
108.8247570671673
 30
0.0
 11
46.10782947228017
 21
108.8212665858798
 31
0.0
  0
LINE
  5
80
330
62
100
AcDbEntity
  8
0
 62
     0
100
AcDbLine
 10
42.37821785643501
 20
104.7555566607926
 30
0.0
 11
42.17824831740373
 21
104.7520661795051
 31
0.0
  0
LINE
  5
81
330
62
100
AcDbEntity
  8
0
 62
     0
100
AcDbLine
 10
38.44863670155858
 20
100.6863562544179
 30
0.0
 11
38.2486671625273
 21
100.6828657731305
 31
0.0
  0
LINE
  5
82
330
62
100
AcDbEntity
  8
0
 62
     0
100
AcDbLine
 10
34.51905554668215
 20
96.61715584804321
 30
0.0
 11
34.31908600765087
 21
96.61366536675577
 31
0.0
  0
LINE
  5
83
330
62
100
AcDbEntity
  8
0
 62
     0
100
AcDbLine
 10
34.58886517243128
 20
92.61776506741764
 30
0.0
 11
34.3888956334
 21
92.6142745861302
 31
0.0
  0
LINE
  5
84
330
62
100
AcDbEntity
  8
0
 62
     0
100
AcDbLine
 10
30.65928401755485
 20
88.54856466104295
 30
0.0
 11
30.45931447852357
 21
88.54507417975549
 31
0.0
  0
LINE
  5
85
330
62
100
AcDbEntity
  8
0
 62
     0
100
AcDbLine
 10
30.72909364330399
 20
84.54917388041738
 30
0.0
 11
30.52912410427271
 21
84.54568339912993
 31
0.0
  0
LINE
  5
86
330
62
100
AcDbEntity
  8
0
 62
     0
100
AcDbLine
 10
30.79890326905312
 20
80.54978309979181
 30
0.0
 11
30.59893373002184
 21
80.54629261850435
 31
0.0
  0
LINE
  5
87
330
62
100
AcDbEntity
  8
0
 62
     0
100
AcDbLine
 10
26.86932211417669
 20
76.48058269341712
 30
0.0
 11
26.66935257514541
 21
76.47709221212966
 31
0.0
  0
LINE
  5
88
330
62
100
AcDbEntity
  8
0
 62
     0
100
AcDbLine
 10
26.93913173992582
 20
72.48119191279156
 30
0.0
 11
26.73916220089454
 21
72.4777014315041
 31
0.0
  0
LINE
  5
89
330
62
100
AcDbEntity
  8
0
 62
     0
100
AcDbLine
 10
27.00894136567495
 20
68.48180113216598
 30
0.0
 11
26.80897182664368
 21
68.47831065087853
 31
0.0
  0
LINE
  5
8A
330
62
100
AcDbEntity
  8
0
 62
     0
100
AcDbLine
 10
27.07875099142409
 20
64.48241035154042
 30
0.0
 11
26.87878145239281
 21
64.47891987025297
 31
0.0
  0
LINE
  5
8B
330
62
100
AcDbEntity
  8
0
 62
     0
100
AcDbLine
 10
27.14856061717322
 20
60.48301957091486
 30
0.0
 11
26.94859107814194
 21
60.47952908962741
 31
0.0
  0
LINE
  5
8C
330
62
100
AcDbEntity
  8
0
 62
     0
100
AcDbLine
 10
27.21837024292235
 20
56.4836287902893
 30
0.0
 11
27.01840070389108
 21
56.48013830900184
 31
0.0
  0
LINE
  5
8D
330
62
100
AcDbEntity
  8
0
 62
     0
100
AcDbLine
 10
31.28757064929706
 20
52.55404763541286
 30
0.0
 11
31.08760111026578
 21
52.55055715412541
 31
0.0
  0
LINE
  5
8E
330
62
100
AcDbEntity
  8
0
 62
     0
100
AcDbLine
 10
31.35738027504619
 20
48.5546568547873
 30
0.0
 11
31.15741073601491
 21
48.55116637349985
 31
0.0
  0
LINE
  5
8F
330
62
100
AcDbEntity
  8
0
 62
     0
100
AcDbLine
 10
31.42718990079533
 20
44.55526607416174
 30
0.0
 11
31.22722036176405
 21
44.55177559287428
 31
0.0
  0
LINE
  5
90
330
62
100
AcDbEntity
  8
0
 62
     0
100
AcDbLine
 10
47.70399152629412
 20
28.83694145465602
 30
0.0
 11
47.50402198726285
 21
28.83345097336856
 31
0.0
  0
LINE
  5
91
330
62
100
AcDbEntity
  8
0
 62
     0
100
AcDbLine
 10
43.63479111991943
 20
32.76652260953245
 30
0.0
 11
43.43482158088815
 21
32.76303212824499
 31
0.0
  0
LINE
  5
92
330
62
100
AcDbEntity
  8
0
 62
     0
100
AcDbLine
 10
39.56559071354472
 20
36.69610376440888
 30
0.0
 11
39.36562117451344
 21
36.69261328312142
 31
0.0
  0
LINE
  5
93
330
62
100
AcDbEntity
  8
0
 62
     0
100
AcDbLine
 10
35.49639030717002
 20
40.62568491928531
 30
0.0
 11
35.29642076813874
 21
40.62219443799785
 31
0.0
  0
LINE
  5
94
330
62
100
AcDbEntity
  8
0
 62
     0
100
AcDbLine
 10
35.42658068142089
 20
44.62507569991087
 30
0.0
 11
35.22661114238961
 21
44.62158521862342
 31
0.0
  0
LINE
  5
95
330
62
100
AcDbEntity
  8
0
 62
     0
100
AcDbLine
 10
35.35677105567176
 20
48.62446648053644
 30
0.0
 11
35.15680151664048
 21
48.62097599924898
 31
0.0
  0
LINE
  5
96
330
62
100
AcDbEntity
  8
0
 62
     0
100
AcDbLine
 10
51.28452455242488
 20
52.90309576415854
 30
0.0
 11
51.0845550133936
 21
52.89960528287108
 31
0.0
  0
LINE
  5
97
330
62
100
AcDbEntity
  8
0
 62
     0
100
AcDbLine
 10
31.21776102354792
 20
56.55343841603843
 30
0.0
 11
31.01779148451664
 21
56.54994793475097
 31
0.0
  0
LINE
  5
98
330
62
100
AcDbEntity
  8
0
 62
     0
100
AcDbLine
 10
31.14795139779879
 20
60.55282919666399
 30
0.0
 11
30.94798185876751
 21
60.54933871537654
 31
0.0
  0
LINE
  5
99
330
62
100
AcDbEntity
  8
0
 62
     0
100
AcDbLine
 10
31.07814177204965
 20
64.55221997728957
 30
0.0
 11
30.87817223301838
 21
64.54872949600211
 31
0.0
  0
LINE
  5
9A
330
62
100
AcDbEntity
  8
0
 62
     0
100
AcDbLine
 10
31.00833214630052
 20
68.55161075791511
 30
0.0
 11
30.80836260726924
 21
68.54812027662766
 31
0.0
  0
LINE
  5
9B
330
62
100
AcDbEntity
  8
0
 62
     0
100
AcDbLine
 10
30.93852252055139
 20
72.55100153854069
 30
0.0
 11
30.73855298152011
 21
72.54751105725323
 31
0.0
  0
LINE
  5
9C
330
62
100
AcDbEntity
  8
0
 62
     0
100
AcDbLine
 10
30.86871289480225
 20
76.55039231916625
 30
0.0
 11
30.66874335577097
 21
76.54690183787879
 31
0.0
  0
LINE
  5
9D
330
62
100
AcDbEntity
  8
0
 62
     0
100
AcDbLine
 10
82.79098341718546
 20
81.45730823453056
 30
0.0
 11
82.59101387815419
 21
81.4538177532431
 31
0.0
  0
LINE
  5
9E
330
62
100
AcDbEntity
  8
0
 62
     0
100
AcDbLine
 10
86.72056457206189
 20
85.52650864090526
 30
0.0
 11
86.52059503303062
 21
85.5230181596178
 31
0.0
  0
LINE
  5
9F
330
62
100
AcDbEntity
  8
0
 62
     0
100
AcDbLine
 10
34.65867479818042
 20
88.61837428679208
 30
0.0
 11
34.45870525914914
 21
88.61488380550463
 31
0.0
  0
LINE
  5
A0
330
62
100
AcDbEntity
  8
0
 62
     0
100
AcDbLine
 10
38.58825595305684
 20
92.68757469316678
 30
0.0
 11
38.38828641402556
 21
92.68408421187932
 31
0.0
  0
LINE
  5
A1
330
62
100
AcDbEntity
  8
0
 62
     0
100
AcDbLine
 10
71.90976508729491
 20
17.25762686727413
 30
0.0
 11
71.70979554826364
 21
17.25413638598667
 31
0.0
  0
LINE
  5
A2
330
62
100
AcDbEntity
  8
0
 62
     0
100
AcDbLine
 10
75.90915586792049
 20
17.32743649302326
 30
0.0
 11
75.7091863288892
 21
17.32394601173581
 31
0.0
  0
LINE
  5
A3
330
62
100
AcDbEntity
  8
0
 62
     0
100
AcDbLine
 10
79.90854664854605
 20
17.3972461187724
 30
0.0
 11
79.70857710951476
 21
17.39375563748494
 31
0.0
  0
LINE
  5
A4
330
62
100
AcDbEntity
  8
0
 62
     0
100
AcDbLine
 10
59.84178311966909
 20
21.04758877065229
 30
0.0
 11
59.6418135806378
 21
21.04409828936483
 31
0.0
  0
LINE
  5
A5
330
62
100
AcDbEntity
  8
0
 62
     0
100
AcDbLine
 10
63.84117390029466
 20
21.11739839640142
 30
0.0
 11
63.64120436126337
 21
21.11390791511397
 31
0.0
  0
LINE
  5
A6
330
62
100
AcDbEntity
  8
0
 62
     0
100
AcDbLine
 10
67.84056468092022
 20
21.18720802215056
 30
0.0
 11
67.64059514188894
 21
21.1837175408631
 31
0.0
  0
LINE
  5
A7
330
62
100
AcDbEntity
  8
0
 62
     0
100
AcDbLine
 10
71.83995546154578
 20
21.25701764789969
 30
0.0
 11
71.63998592251451
 21
21.25352716661223
 31
0.0
  0
LINE
  5
A8
330
62
100
AcDbEntity
  8
0
 62
     0
100
AcDbLine
 10
75.83934624217136
 20
21.32682727364882
 30
0.0
 11
75.63937670314007
 21
21.32333679236137
 31
0.0
  0
LINE
  5
A9
330
62
100
AcDbEntity
  8
0
 62
     0
100
AcDbLine
 10
79.83873702279692
 20
21.39663689939796
 30
0.0
 11
79.63876748376563
 21
21.3931464181105
 31
0.0
  0
LINE
  5
AA
330
62
100
AcDbEntity
  8
0
 62
     0
100
AcDbLine
 10
83.83812780342248
 20
21.46644652514709
 30
0.0
 11
83.63815826439121
 21
21.46295604385963
 31
0.0
  0
LINE
  5
AB
330
62
100
AcDbEntity
  8
0
 62
     0
100
AcDbLine
 10
87.83751858404804
 20
21.53625615089623
 30
0.0
 11
87.63754904501677
 21
21.53276566960877
 31
0.0
  0
LINE
  5
AC
330
62
100
AcDbEntity
  8
0
 62
     0
100
AcDbLine
 10
91.83690936467362
 20
21.60606577664536
 30
0.0
 11
91.63693982564233
 21
21.60257529535791
 31
0.0
  0
LINE
  5
AD
330
62
100
AcDbEntity
  8
0
 62
     0
100
AcDbLine
 10
51.77319193266882
 20
24.90736029977959
 30
0.0
 11
51.57322239363754
 21
24.90386981849213
 31
0.0
  0
LINE
  5
AE
330
62
100
AcDbEntity
  8
0
 62
     0
100
AcDbLine
 10
55.77258271329439
 20
24.97716992552872
 30
0.0
 11
55.57261317426311
 21
24.97367944424127
 31
0.0
  0
LINE
  5
AF
330
62
100
AcDbEntity
  8
0
 62
     0
100
AcDbLine
 10
59.77197349391996
 20
25.04697955127786
 30
0.0
 11
59.57200395488867
 21
25.0434890699904
 31
0.0
  0
LINE
  5
B0
330
62
100
AcDbEntity
  8
0
 62
     0
100
AcDbLine
 10
63.77136427454553
 20
25.11678917702699
 30
0.0
 11
63.57139473551424
 21
25.11329869573953
 31
0.0
  0
LINE
  5
B1
330
62
100
AcDbEntity
  8
0
 62
     0
100
AcDbLine
 10
67.77075505517108
 20
25.18659880277612
 30
0.0
 11
67.5707855161398
 21
25.18310832148867
 31
0.0
  0
LINE
  5
B2
330
62
100
AcDbEntity
  8
0
 62
     0
100
AcDbLine
 10
71.77014583579664
 20
25.25640842852526
 30
0.0
 11
71.57017629676537
 21
25.2529179472378
 31
0.0
  0
LINE
  5
B3
330
62
100
AcDbEntity
  8
0
 62
     0
100
AcDbLine
 10
75.76953661642222
 20
25.32621805427439
 30
0.0
 11
75.56956707739093
 21
25.32272757298693
 31
0.0
  0
LINE
  5
B4
330
62
100
AcDbEntity
  8
0
 62
     0
100
AcDbLine
 10
79.76892739704778
 20
25.39602768002353
 30
0.0
 11
79.56895785801649
 21
25.39253719873607
 31
0.0
  0
LINE
  5
B5
330
62
100
AcDbEntity
  8
0
 62
     0
100
AcDbLine
 10
83.76831817767334
 20
25.46583730577266
 30
0.0
 11
83.56834863864206
 21
25.4623468244852
 31
0.0
  0
LINE
  5
B6
330
62
100
AcDbEntity
  8
0
 62
     0
100
AcDbLine
 10
87.7677089582989
 20
25.53564693152179
 30
0.0
 11
87.56773941926762
 21
25.53215645023434
 31
0.0
  0
LINE
  5
B7
330
62
100
AcDbEntity
  8
0
 62
     0
100
AcDbLine
 10
91.76709973892447
 20
25.60545655727093
 30
0.0
 11
91.56713019989319
 21
25.60196607598347
 31
0.0
  0
LINE
  5
B8
330
62
100
AcDbEntity
  8
0
 62
     0
100
AcDbLine
 10
95.76649051955003
 20
25.67526618302006
 30
0.0
 11
95.56652098051876
 21
25.67177570173261
 31
0.0
  0
LINE
  5
B9
330
62
100
AcDbEntity
  8
0
 62
     0
100
AcDbLine
 10
99.7658813001756
 20
25.7450758087692
 30
0.0
 11
99.56591176114432
 21
25.74158532748174
 31
0.0
  0
LINE
  5
BA
330
62
100
AcDbEntity
  8
0
 62
     0
100
AcDbLine
 10
51.70338230691969
 20
28.90675108040515
 30
0.0
 11
51.50341276788841
 21
28.9032605991177
 31
0.0
  0
LINE
  5
BB
330
62
100
AcDbEntity
  8
0
 62
     0
100
AcDbLine
 10
55.70277308754525
 20
28.97656070615429
 30
0.0
 11
55.50280354851397
 21
28.97307022486683
 31
0.0
  0
LINE
  5
BC
330
62
100
AcDbEntity
  8
0
 62
     0
100
AcDbLine
 10
59.70216386817082
 20
29.04637033190342
 30
0.0
 11
59.50219432913953
 21
29.04287985061596
 31
0.0
  0
LINE
  5
BD
330
62
100
AcDbEntity
  8
0
 62
     0
100
AcDbLine
 10
87.69789933254977
 20
29.53503771214736
 30
0.0
 11
87.4979297935185
 21
29.5315472308599
 31
0.0
  0
LINE
  5
BE
330
62
100
AcDbEntity
  8
0
 62
     0
100
AcDbLine
 10
91.69729011317534
 20
29.60484733789649
 30
0.0
 11
91.49732057414406
 21
29.60135685660904
 31
0.0
  0
LINE
  5
BF
330
62
100
AcDbEntity
  8
0
 62
     0
100
AcDbLine
 10
95.6966808938009
 20
29.67465696364563
 30
0.0
 11
95.49671135476963
 21
29.67116648235817
 31
0.0
  0
LINE
  5
C0
330
62
100
AcDbEntity
  8
0
 62
     0
100
AcDbLine
 10
99.69607167442646
 20
29.74446658939476
 30
0.0
 11
99.49610213539519
 21
29.7409761081073
 31
0.0
  0
LINE
  5
C1
330
62
100
AcDbEntity
  8
0
 62
     0
100
AcDbLine
 10
103.695462455052
 20
29.8142762151439
 30
0.0
 11
103.4954929160208
 21
29.81078573385644
 31
0.0
  0
LINE
  5
C2
330
62
100
AcDbEntity
  8
0
 62
     0
100
AcDbLine
 10
107.568927835957
 20
29.8818878048648
 30
0.0
 11
107.4948836966463
 21
29.88059535960557
 31
0.0
  0
LINE
  5
C3
330
62
100
AcDbEntity
  8
0
 62
     0
100
AcDbLine
 10
47.63418190054499
 20
32.83633223528158
 30
0.0
 11
47.43421236151372
 21
32.83284175399412
 31
0.0
  0
LINE
  5
C4
330
62
100
AcDbEntity
  8
0
 62
     0
100
AcDbLine
 10
95.62687126805177
 20
33.67404774427119
 30
0.0
 11
95.4269017290205
 21
33.67055726298373
 31
0.0
  0
LINE
  5
C5
330
62
100
AcDbEntity
  8
0
 62
     0
100
AcDbLine
 10
99.62626204867733
 20
33.74385737002032
 30
0.0
 11
99.42629250964606
 21
33.74036688873286
 31
0.0
  0
LINE
  5
C6
330
62
100
AcDbEntity
  8
0
 62
     0
100
AcDbLine
 10
103.6256528293029
 20
33.81366699576946
 30
0.0
 11
103.4256832902716
 21
33.810176514482
 31
0.0
  0
LINE
  5
C7
330
62
100
AcDbEntity
  8
0
 62
     0
100
AcDbLine
 10
107.6250436099285
 20
33.8834766215186
 30
0.0
 11
107.4250740708972
 21
33.87998614023114
 31
0.0
  0
LINE
  5
C8
330
62
100
AcDbEntity
  8
0
 62
     0
100
AcDbLine
 10
111.624434390554
 20
33.95328624726773
 30
0.0
 11
111.4244648515228
 21
33.94979576598027
 31
0.0
  0
LINE
  5
C9
330
62
100
AcDbEntity
  8
0
 62
     0
100
AcDbLine
 10
43.56498149417029
 20
36.76591339015801
 30
0.0
 11
43.36501195513901
 21
36.76242290887055
 31
0.0
  0
LINE
  5
CA
330
62
100
AcDbEntity
  8
0
 62
     0
100
AcDbLine
 10
99.55645242292819
 20
37.74324815064589
 30
0.0
 11
99.35648288389692
 21
37.73975766935843
 31
0.0
  0
LINE
  5
CB
330
62
100
AcDbEntity
  8
0
 62
     0
100
AcDbLine
 10
103.5558432035538
 20
37.81305777639502
 30
0.0
 11
103.3558736645225
 21
37.80956729510757
 31
0.0
  0
LINE
  5
CC
330
62
100
AcDbEntity
  8
0
 62
     0
100
AcDbLine
 10
107.5552339841793
 20
37.88286740214416
 30
0.0
 11
107.355264445148
 21
37.8793769208567
 31
0.0
  0
LINE
  5
CD
330
62
100
AcDbEntity
  8
0
 62
     0
100
AcDbLine
 10
111.5546247648049
 20
37.95267702789329
 30
0.0
 11
111.3546552257736
 21
37.94918654660584
 31
0.0
  0
LINE
  5
CE
330
62
100
AcDbEntity
  8
0
 62
     0
100
AcDbLine
 10
39.49578108779559
 20
40.69549454503444
 30
0.0
 11
39.29581154876431
 21
40.69200406374699
 31
0.0
  0
LINE
  5
CF
330
62
100
AcDbEntity
  8
0
 62
     0
100
AcDbLine
 10
43.49517186842115
 20
40.76530417078357
 30
0.0
 11
43.29520232938987
 21
40.76181368949612
 31
0.0
  0
LINE
  5
D0
330
62
100
AcDbEntity
  8
0
 62
     0
100
AcDbLine
 10
47.49456264904672
 20
40.83511379653271
 30
0.0
 11
47.29459311001544
 21
40.83162331524525
 31
0.0
  0
LINE
  5
D1
330
62
100
AcDbEntity
  8
0
 62
     0
100
AcDbLine
 10
103.4860335778046
 20
41.81244855702058
 30
0.0
 11
103.2860640387733
 21
41.80895807573313
 31
0.0
  0
LINE
  5
D2
330
62
100
AcDbEntity
  8
0
 62
     0
100
AcDbLine
 10
107.4854243584302
 20
41.88225818276972
 30
0.0
 11
107.2854548193989
 21
41.87876770148226
 31
0.0
  0
LINE
  5
D3
330
62
100
AcDbEntity
  8
0
 62
     0
100
AcDbLine
 10
111.4848151390558
 20
41.95206780851885
 30
0.0
 11
111.2848456000245
 21
41.9485773272314
 31
0.0
  0
LINE
  5
D4
330
62
100
AcDbEntity
  8
0
 62
     0
100
AcDbLine
 10
115.4842059196813
 20
42.02187743426799
 30
0.0
 11
115.28423638065
 21
42.01838695298053
 31
0.0
  0
LINE
  5
D5
330
62
100
AcDbEntity
  8
0
 62
     0
100
AcDbLine
 10
43.42536224267202
 20
44.76469495140914
 30
0.0
 11
43.22539270364074
 21
44.76120447012168
 31
0.0
  0
LINE
  5
D6
330
62
100
AcDbEntity
  8
0
 62
     0
100
AcDbLine
 10
47.42475302329759
 20
44.83450457715828
 30
0.0
 11
47.22478348426631
 21
44.83101409587082
 31
0.0
  0
LINE
  5
D7
330
62
100
AcDbEntity
  8
0
 62
     0
100
AcDbLine
 10
51.42414380392315
 20
44.90431420290741
 30
0.0
 11
51.22417426489187
 21
44.90082372161995
 31
0.0
  0
LINE
  5
D8
330
62
100
AcDbEntity
  8
0
 62
     0
100
AcDbLine
 10
107.4156147326811
 20
45.88164896339529
 30
0.0
 11
107.2156451936498
 21
45.87815848210783
 31
0.0
  0
LINE
  5
D9
330
62
100
AcDbEntity
  8
0
 62
     0
100
AcDbLine
 10
111.4150055133066
 20
45.95145858914442
 30
0.0
 11
111.2150359742754
 21
45.94796810785697
 31
0.0
  0
LINE
  5
DA
330
62
100
AcDbEntity
  8
0
 62
     0
100
AcDbLine
 10
115.4143962939322
 20
46.02126821489355
 30
0.0
 11
115.2144267549009
 21
46.0177777336061
 31
0.0
  0
LINE
  5
DB
330
62
100
AcDbEntity
  8
0
 62
     0
100
AcDbLine
 10
119.4137870745578
 20
46.09107784064269
 30
0.0
 11
119.2138175355265
 21
46.08758735935523
 31
0.0
  0
LINE
  5
DC
330
62
100
AcDbEntity
  8
0
 62
     0
100
AcDbLine
 10
47.35494339754845
 20
48.83389535778385
 30
0.0
 11
47.15497385851717
 21
48.83040487649639
 31
0.0
  0
LINE
  5
DD
330
62
100
AcDbEntity
  8
0
 62
     0
100
AcDbLine
 10
51.35433417817401
 20
48.90370498353298
 30
0.0
 11
51.15436463914273
 21
48.90021450224552
 31
0.0
  0
LINE
  5
DE
330
62
100
AcDbEntity
  8
0
 62
     0
100
AcDbLine
 10
55.35372495879958
 20
48.97351460928211
 30
0.0
 11
55.1537554197683
 21
48.97002412799466
 31
0.0
  0
LINE
  5
DF
330
62
100
AcDbEntity
  8
0
 62
     0
100
AcDbLine
 10
111.3451958875575
 20
49.95084936976999
 30
0.0
 11
111.1452263485262
 21
49.94735888848253
 31
0.0
  0
LINE
  5
E0
330
62
100
AcDbEntity
  8
0
 62
     0
100
AcDbLine
 10
115.3445866681831
 20
50.02065899551912
 30
0.0
 11
115.1446171291518
 21
50.01716851423166
 31
0.0
  0
LINE
  5
E1
330
62
100
AcDbEntity
  8
0
 62
     0
100
AcDbLine
 10
119.3439774488086
 20
50.09046862126826
 30
0.0
 11
119.1440079097773
 21
50.0869781399808
 31
0.0
  0
LINE
  5
E2
330
62
100
AcDbEntity
  8
0
 62
     0
100
AcDbLine
 10
55.28391533305045
 20
52.97290538990767
 30
0.0
 11
55.08394579401917
 21
52.96941490862022
 31
0.0
  0
LINE
  5
E3
330
62
100
AcDbEntity
  8
0
 62
     0
100
AcDbLine
 10
59.28330611367602
 20
53.0427150156568
 30
0.0
 11
59.08333657464473
 21
53.03922453436935
 31
0.0
  0
LINE
  5
E4
330
62
100
AcDbEntity
  8
0
 62
     0
100
AcDbLine
 10
111.2753862618084
 20
53.95024015039555
 30
0.0
 11
111.0754167227771
 21
53.94674966910809
 31
0.0
  0
LINE
  5
E5
330
62
100
AcDbEntity
  8
0
 62
     0
100
AcDbLine
 10
115.2747770424339
 20
54.02004977614468
 30
0.0
 11
115.0748075034026
 21
54.01655929485722
 31
0.0
  0
LINE
  5
E6
330
62
100
AcDbEntity
  8
0
 62
     0
100
AcDbLine
 10
119.2741678230595
 20
54.08985940189382
 30
0.0
 11
119.0741982840282
 21
54.08636892060636
 31
0.0
  0
LINE
  5
E7
330
62
100
AcDbEntity
  8
0
 62
     0
100
AcDbLine
 10
55.21410570730131
 20
56.97229617053324
 30
0.0
 11
55.01413616827003
 21
56.96880568924578
 31
0.0
  0
LINE
  5
E8
330
62
100
AcDbEntity
  8
0
 62
     0
100
AcDbLine
 10
59.21349648792688
 20
57.04210579628237
 30
0.0
 11
59.0135269488956
 21
57.03861531499491
 31
0.0
  0
LINE
  5
E9
330
62
100
AcDbEntity
  8
0
 62
     0
100
AcDbLine
 10
63.21288726855245
 20
57.11191542203151
 30
0.0
 11
63.01291772952116
 21
57.10842494074405
 31
0.0
  0
LINE
  5
EA
330
62
100
AcDbEntity
  8
0
 62
     0
100
AcDbLine
 10
115.2049674166848
 20
58.01944055677025
 30
0.0
 11
115.0049978776535
 21
58.01595007548279
 31
0.0
  0
LINE
  5
EB
330
62
100
AcDbEntity
  8
0
 62
     0
100
AcDbLine
 10
119.2043581973104
 20
58.08925018251939
 30
0.0
 11
119.0043886582791
 21
58.08575970123193
 31
0.0
  0
LINE
  5
EC
330
62
100
AcDbEntity
  8
0
 62
     0
100
AcDbLine
 10
123.2037489779359
 20
58.15905980826852
 30
0.0
 11
123.0037794389046
 21
58.15556932698106
 31
0.0
  0
LINE
  5
ED
330
62
100
AcDbEntity
  8
0
 62
     0
100
AcDbLine
 10
59.14368686217775
 20
61.04149657690793
 30
0.0
 11
58.94371732314647
 21
61.03800609562047
 31
0.0
  0
LINE
  5
EE
330
62
100
AcDbEntity
  8
0
 62
     0
100
AcDbLine
 10
63.14307764280332
 20
61.11130620265707
 30
0.0
 11
62.94310810377203
 21
61.10781572136961
 31
0.0
  0
LINE
  5
EF
330
62
100
AcDbEntity
  8
0
 62
     0
100
AcDbLine
 10
67.14246842342888
 20
61.1811158284062
 30
0.0
 11
66.9424988843976
 21
61.17762534711875
 31
0.0
  0
LINE
  5
F0
330
62
100
AcDbEntity
  8
0
 62
     0
100
AcDbLine
 10
115.1351577909357
 20
62.01883133739581
 30
0.0
 11
114.9351882519044
 21
62.01534085610835
 31
0.0
  0
LINE
  5
F1
330
62
100
AcDbEntity
  8
0
 62
     0
100
AcDbLine
 10
119.1345485715612
 20
62.08864096314495
 30
0.0
 11
118.9345790325299
 21
62.08515048185749
 31
0.0
  0
LINE
  5
F2
330
62
100
AcDbEntity
  8
0
 62
     0
100
AcDbLine
 10
123.1339393521868
 20
62.15845058889408
 30
0.0
 11
122.9339698131555
 21
62.15496010760662
 31
0.0
  0
LINE
  5
F3
330
62
100
AcDbEntity
  8
0
 62
     0
100
AcDbLine
 10
63.07326801705418
 20
65.11069698328264
 30
0.0
 11
62.8732984780229
 21
65.10720650199518
 31
0.0
  0
LINE
  5
F4
330
62
100
AcDbEntity
  8
0
 62
     0
100
AcDbLine
 10
67.07265879767975
 20
65.18050660903177
 30
0.0
 11
66.87268925864846
 21
65.17701612774431
 31
0.0
  0
LINE
  5
F5
330
62
100
AcDbEntity
  8
0
 62
     0
100
AcDbLine
 10
71.07204957830531
 20
65.25031623478091
 30
0.0
 11
70.87208003927404
 21
65.24682575349345
 31
0.0
  0
LINE
  5
F6
330
62
100
AcDbEntity
  8
0
 62
     0
100
AcDbLine
 10
115.0653481651865
 20
66.01822211802138
 30
0.0
 11
114.8653786261552
 21
66.01473163673393
 31
0.0
  0
LINE
  5
F7
330
62
100
AcDbEntity
  8
0
 62
     0
100
AcDbLine
 10
119.0647389458121
 20
66.08803174377051
 30
0.0
 11
118.8647694067808
 21
66.08454126248306
 31
0.0
  0
LINE
  5
F8
330
62
100
AcDbEntity
  8
0
 62
     0
100
AcDbLine
 10
123.0641297264377
 20
66.15784136951964
 30
0.0
 11
122.8641601874064
 21
66.15435088823219
 31
0.0
  0
LINE
  5
F9
330
62
100
AcDbEntity
  8
0
 62
     0
100
AcDbLine
 10
67.0028491719306
 20
69.17989738965733
 30
0.0
 11
66.93135664442622
 21
69.17864948294785
 31
0.0
  0
LINE
  5
FA
330
62
100
AcDbEntity
  8
0
 62
     0
100
AcDbLine
 10
71.00223995255617
 20
69.24970701540646
 30
0.0
 11
70.8022704135249
 21
69.246216534119
 31
0.0
  0
LINE
  5
FB
330
62
100
AcDbEntity
  8
0
 62
     0
100
AcDbLine
 10
75.00163073318174
 20
69.31951664115559
 30
0.0
 11
74.80166119415046
 21
69.31602615986813
 31
0.0
  0
LINE
  5
FC
330
62
100
AcDbEntity
  8
0
 62
     0
100
AcDbLine
 10
114.9955385394374
 20
70.01761289864693
 30
0.0
 11
114.7955690004061
 21
70.01412241735947
 31
0.0
  0
LINE
  5
FD
330
62
100
AcDbEntity
  8
0
 62
     0
100
AcDbLine
 10
118.994929320063
 20
70.08742252439606
 30
0.0
 11
118.7949597810317
 21
70.0839320431086
 31
0.0
  0
LINE
  5
FE
330
62
100
AcDbEntity
  8
0
 62
     0
100
AcDbLine
 10
122.9943201006885
 20
70.1572321501452
 30
0.0
 11
122.7943505616572
 21
70.15374166885775
 31
0.0
  0
LINE
  5
FF
330
62
100
AcDbEntity
  8
0
 62
     0
100
AcDbLine
 10
74.93182110743261
 20
73.31890742178116
 30
0.0
 11
74.73185156840132
 21
73.3154169404937
 31
0.0
  0
LINE
  5
100
330
62
100
AcDbEntity
  8
0
 62
     0
100
AcDbLine
 10
78.93121188805817
 20
73.3887170475303
 30
0.0
 11
78.73124234902689
 21
73.38522656624285
 31
0.0
  0
LINE
  5
101
330
62
100
AcDbEntity
  8
0
 62
     0
100
AcDbLine
 10
114.9257289136883
 20
74.0170036792725
 30
0.0
 11
114.725759374657
 21
74.01351319798505
 31
0.0
  0
LINE
  5
102
330
62
100
AcDbEntity
  8
0
 62
     0
100
AcDbLine
 10
118.9251196943138
 20
74.08681330502164
 30
0.0
 11
118.7251501552825
 21
74.08332282373418
 31
0.0
  0
LINE
  5
103
330
62
100
AcDbEntity
  8
0
 62
     0
100
AcDbLine
 10
122.9245104749394
 20
74.15662293077078
 30
0.0
 11
122.7245409359081
 21
74.15313244948332
 31
0.0
  0
LINE
  5
104
330
62
100
AcDbEntity
  8
0
 62
     0
100
AcDbLine
 10
78.86140226230904
 20
77.38810782815587
 30
0.0
 11
78.66143272327776
 21
77.38461734686841
 31
0.0
  0
LINE
  5
105
330
62
100
AcDbEntity
  8
0
 62
     0
100
AcDbLine
 10
82.8607930429346
 20
77.457917453905
 30
0.0
 11
82.66082350390333
 21
77.45442697261754
 31
0.0
  0
LINE
  5
106
330
62
100
AcDbEntity
  8
0
 62
     0
100
AcDbLine
 10
114.8559192879391
 20
78.01639445989807
 30
0.0
 11
114.6559497489078
 21
78.01290397861061
 31
0.0
  0
LINE
  5
107
330
62
100
AcDbEntity
  8
0
 62
     0
100
AcDbLine
 10
118.8553100685647
 20
78.0862040856472
 30
0.0
 11
118.6553405295334
 21
78.08271360435974
 31
0.0
  0
LINE
  5
108
330
62
100
AcDbEntity
  8
0
 62
     0
100
AcDbLine
 10
122.8547008491903
 20
78.15601371139634
 30
0.0
 11
122.654731310159
 21
78.15252323010888
 31
0.0
  0
LINE
  5
109
330
62
100
AcDbEntity
  8
0
 62
     0
100
AcDbLine
 10
86.79037419781102
 20
81.52711786027969
 30
0.0
 11
86.59040465877975
 21
81.52362737899223
 31
0.0
  0
LINE
  5
10A
330
62
100
AcDbEntity
  8
0
 62
     0
100
AcDbLine
 10
90.59462821171711
 20
81.59352136109585
 30
0.0
 11
90.58979543940531
 21
81.59343700474136
 31
0.0
  0
LINE
  5
10B
330
62
100
AcDbEntity
  8
0
 62
     0
100
AcDbLine
 10
114.78610966219
 20
82.01578524052363
 30
0.0
 11
114.5861401231587
 21
82.01229475923617
 31
0.0
  0
LINE
  5
10C
330
62
100
AcDbEntity
  8
0
 62
     0
100
AcDbLine
 10
118.7855004428155
 20
82.08559486627276
 30
0.0
 11
118.5855309037843
 21
82.0821043849853
 31
0.0
  0
LINE
  5
10D
330
62
100
AcDbEntity
  8
0
 62
     0
100
AcDbLine
 10
122.7848912234411
 20
82.1554044920219
 30
0.0
 11
122.5849216844098
 21
82.15191401073444
 31
0.0
  0
LINE
  5
10E
330
62
100
AcDbEntity
  8
0
 62
     0
100
AcDbLine
 10
90.71995535268746
 20
85.5963182666544
 30
0.0
 11
90.51998581365618
 21
85.59282778536694
 31
0.0
  0
LINE
  5
10F
330
62
100
AcDbEntity
  8
0
 62
     0
100
AcDbLine
 10
94.6695624929307
 20
85.6652589157283
 30
0.0
 11
94.51937659428175
 21
85.66263741111608
 31
0.0
  0
LINE
  5
110
330
62
100
AcDbEntity
  8
0
 62
     0
100
AcDbLine
 10
110.7169092558153
 20
85.94536639540007
 30
0.0
 11
110.6614063901396
 21
85.944397589276
 31
0.0
  0
LINE
  5
111
330
62
100
AcDbEntity
  8
0
 62
     0
100
AcDbLine
 10
114.7163000364409
 20
86.0151760211492
 30
0.0
 11
114.5163304974096
 21
86.01168553986174
 31
0.0
  0
LINE
  5
112
330
62
100
AcDbEntity
  8
0
 62
     0
100
AcDbLine
 10
118.7156908170664
 20
86.08498564689833
 30
0.0
 11
118.5157212780351
 21
86.08149516561087
 31
0.0
  0
LINE
  5
113
330
62
100
AcDbEntity
  8
0
 62
     0
100
AcDbLine
 10
90.65014572693833
 20
89.59570904727995
 30
0.0
 11
90.45017618790705
 21
89.5922185659925
 31
0.0
  0
LINE
  5
114
330
62
100
AcDbEntity
  8
0
 62
     0
100
AcDbLine
 10
94.6495365075639
 20
89.6655186730291
 30
0.0
 11
94.44956696853262
 21
89.66202819174164
 31
0.0
  0
LINE
  5
115
330
62
100
AcDbEntity
  8
0
 62
     0
100
AcDbLine
 10
98.64892728818945
 20
89.73532829877823
 30
0.0
 11
98.44895774915818
 21
89.73183781749077
 31
0.0
  0
LINE
  5
116
330
62
100
AcDbEntity
  8
0
 62
     0
100
AcDbLine
 10
110.6470996300662
 20
89.94475717602563
 30
0.0
 11
110.4471300910349
 21
89.94126669473818
 31
0.0
  0
LINE
  5
117
330
62
100
AcDbEntity
  8
0
 62
     0
100
AcDbLine
 10
114.6464904106917
 20
90.01456680177476
 30
0.0
 11
114.4465208716604
 21
90.0110763204873
 31
0.0
  0
LINE
  5
118
330
62
100
AcDbEntity
  8
0
 62
     0
100
AcDbLine
 10
118.6458811913173
 20
90.08437642752389
 30
0.0
 11
118.445911652286
 21
90.08088594623644
 31
0.0
  0
LINE
  5
119
330
62
100
AcDbEntity
  8
0
 62
     0
100
AcDbLine
 10
94.57972688181476
 20
93.66490945365466
 30
0.0
 11
94.37975734278349
 21
93.6614189723672
 31
0.0
  0
LINE
  5
11A
330
62
100
AcDbEntity
  8
0
 62
     0
100
AcDbLine
 10
98.57911766244032
 20
93.73471907940379
 30
0.0
 11
98.37914812340905
 21
93.73122859811633
 31
0.0
  0
LINE
  5
11B
330
62
100
AcDbEntity
  8
0
 62
     0
100
AcDbLine
 10
102.5785084430659
 20
93.80452870515292
 30
0.0
 11
102.3785389040346
 21
93.80103822386546
 31
0.0
  0
LINE
  5
11C
330
62
100
AcDbEntity
  8
0
 62
     0
100
AcDbLine
 10
106.5778992236915
 20
93.87433833090206
 30
0.0
 11
106.3779296846602
 21
93.8708478496146
 31
0.0
  0
LINE
  5
11D
330
62
100
AcDbEntity
  8
0
 62
     0
100
AcDbLine
 10
110.577290004317
 20
93.9441479566512
 30
0.0
 11
110.3773204652857
 21
93.94065747536374
 31
0.0
  0
LINE
  5
11E
330
62
100
AcDbEntity
  8
0
 62
     0
100
AcDbLine
 10
114.5766807849426
 20
94.01395758240032
 30
0.0
 11
114.3767112459113
 21
94.01046710111287
 31
0.0
  0
LINE
  5
11F
330
62
100
AcDbEntity
  8
0
 62
     0
100
AcDbLine
 10
38.51844632730771
 20
96.68696547379236
 30
0.0
 11
38.31847678827643
 21
96.6834749925049
 31
0.0
  0
LINE
  5
120
330
62
100
AcDbEntity
  8
0
 62
     0
100
AcDbLine
 10
98.50930803669118
 20
97.73410986002936
 30
0.0
 11
98.30933849765991
 21
97.7306193787419
 31
0.0
  0
LINE
  5
121
330
62
100
AcDbEntity
  8
0
 62
     0
100
AcDbLine
 10
102.5086988173168
 20
97.8039194857785
 30
0.0
 11
102.3087292782855
 21
97.80042900449104
 31
0.0
  0
LINE
  5
122
330
62
100
AcDbEntity
  8
0
 62
     0
100
AcDbLine
 10
106.5080895979423
 20
97.87372911152764
 30
0.0
 11
106.308120058911
 21
97.87023863024018
 31
0.0
  0
LINE
  5
123
330
62
100
AcDbEntity
  8
0
 62
     0
100
AcDbLine
 10
110.5074803785679
 20
97.94353873727677
 30
0.0
 11
110.3075108395366
 21
97.94004825598931
 31
0.0
  0
LINE
  5
124
330
62
100
AcDbEntity
  8
0
 62
     0
100
AcDbLine
 10
114.5068711591935
 20
98.0133483630259
 30
0.0
 11
114.3069016201622
 21
98.00985788173844
 31
0.0
  0
LINE
  5
125
330
62
100
AcDbEntity
  8
0
 62
     0
100
AcDbLine
 10
42.44802748218414
 20
100.756165880167
 30
0.0
 11
42.24805794315287
 21
100.7526753988796
 31
0.0
  0
LINE
  5
126
330
62
100
AcDbEntity
  8
0
 62
     0
100
AcDbLine
 10
46.30666559669469
 20
100.8235186589903
 30
0.0
 11
46.24744872377843
 21
100.8224850246287
 31
0.0
  0
LINE
  5
127
330
62
100
AcDbEntity
  8
0
 62
     0
100
AcDbLine
 10
102.4388891915676
 20
101.8033102664041
 30
0.0
 11
102.2389196525363
 21
101.7998197851166
 31
0.0
  0
LINE
  5
128
330
62
100
AcDbEntity
  8
0
 62
     0
100
AcDbLine
 10
106.4382799721932
 20
101.8731198921532
 30
0.0
 11
106.2383104331619
 21
101.8696294108657
 31
0.0
  0
LINE
  5
129
330
62
100
AcDbEntity
  8
0
 62
     0
100
AcDbLine
 10
110.4376707528187
 20
101.9429295179023
 30
0.0
 11
110.2377012137875
 21
101.9394390366149
 31
0.0
  0
LINE
  5
12A
330
62
100
AcDbEntity
  8
0
 62
     0
100
AcDbLine
 10
46.37760863706058
 20
104.8253662865417
 30
0.0
 11
46.1776390980293
 21
104.8218758052543
 31
0.0
  0
LINE
  5
12B
330
62
100
AcDbEntity
  8
0
 62
     0
100
AcDbLine
 10
50.37699941768614
 20
104.8951759122909
 30
0.0
 11
50.17702987865486
 21
104.8916854310034
 31
0.0
  0
LINE
  5
12C
330
62
100
AcDbEntity
  8
0
 62
     0
100
AcDbLine
 10
94.37029800456736
 20
105.6630817955314
 30
0.0
 11
94.17032846553609
 21
105.6595913142439
 31
0.0
  0
LINE
  5
12D
330
62
100
AcDbEntity
  8
0
 62
     0
100
AcDbLine
 10
98.36968878519292
 20
105.7328914212805
 30
0.0
 11
98.16971924616165
 21
105.729400939993
 31
0.0
  0
LINE
  5
12E
330
62
100
AcDbEntity
  8
0
 62
     0
100
AcDbLine
 10
102.3690795658185
 20
105.8027010470296
 30
0.0
 11
102.1691100267872
 21
105.7992105657422
 31
0.0
  0
LINE
  5
12F
330
62
100
AcDbEntity
  8
0
 62
     0
100
AcDbLine
 10
106.3684703464441
 20
105.8725106727788
 30
0.0
 11
106.1685008074128
 21
105.8690201914913
 31
0.0
  0
LINE
  5
130
330
62
100
AcDbEntity
  8
0
 62
     0
100
AcDbLine
 10
50.30718979193701
 20
108.8945666929164
 30
0.0
 11
50.10722025290573
 21
108.891076211629
 31
0.0
  0
LINE
  5
131
330
62
100
AcDbEntity
  8
0
 62
     0
100
AcDbLine
 10
54.30658057256257
 20
108.9643763186656
 30
0.0
 11
54.10661103353129
 21
108.9608858373781
 31
0.0
  0
LINE
  5
132
330
62
100
AcDbEntity
  8
0
 62
     0
100
AcDbLine
 10
58.30597135318814
 20
109.0341859444147
 30
0.0
 11
58.10600181415685
 21
109.0306954631272
 31
0.0
  0
LINE
  5
133
330
62
100
AcDbEntity
  8
0
 62
     0
100
AcDbLine
 10
62.30536213381371
 20
109.1039955701638
 30
0.0
 11
62.10539259478242
 21
109.1005050888764
 31
0.0
  0
LINE
  5
134
330
62
100
AcDbEntity
  8
0
 62
     0
100
AcDbLine
 10
86.30170681756708
 20
109.5228533246586
 30
0.0
 11
86.10173727853581
 21
109.5193628433712
 31
0.0
  0
LINE
  5
135
330
62
100
AcDbEntity
  8
0
 62
     0
100
AcDbLine
 10
90.30109759819265
 20
109.5926629504078
 30
0.0
 11
90.10112805916137
 21
109.5891724691203
 31
0.0
  0
LINE
  5
136
330
62
100
AcDbEntity
  8
0
 62
     0
100
AcDbLine
 10
94.30048837881822
 20
109.6624725761569
 30
0.0
 11
94.10051883978694
 21
109.6589820948695
 31
0.0
  0
LINE
  5
137
330
62
100
AcDbEntity
  8
0
 62
     0
100
AcDbLine
 10
98.29987915944378
 20
109.732282201906
 30
0.0
 11
98.0999096204125
 21
109.7287917206186
 31
0.0
  0
LINE
  5
138
330
62
100
AcDbEntity
  8
0
 62
     0
100
AcDbLine
 10
102.2992699400694
 20
109.8020918276552
 30
0.0
 11
102.0993004010381
 21
109.7986013463677
 31
0.0
  0
LINE
  5
139
330
62
100
AcDbEntity
  8
0
 62
     0
100
AcDbLine
 10
54.23677094681344
 20
112.9637670992911
 30
0.0
 11
54.03680140778216
 21
112.9602766180037
 31
0.0
  0
LINE
  5
13A
330
62
100
AcDbEntity
  8
0
 62
     0
100
AcDbLine
 10
58.236161727439
 20
113.0335767250403
 30
0.0
 11
58.03619218840772
 21
113.0300862437528
 31
0.0
  0
LINE
  5
13B
330
62
100
AcDbEntity
  8
0
 62
     0
100
AcDbLine
 10
62.23555250806457
 20
113.1033863507894
 30
0.0
 11
62.03558296903329
 21
113.0998958695019
 31
0.0
  0
LINE
  5
13C
330
62
100
AcDbEntity
  8
0
 62
     0
100
AcDbLine
 10
66.23494328869013
 20
113.1731959765386
 30
0.0
 11
66.03497374965885
 21
113.1697054952511
 31
0.0
  0
LINE
  5
13D
330
62
100
AcDbEntity
  8
0
 62
     0
100
AcDbLine
 10
70.2343340693157
 20
113.2430056022877
 30
0.0
 11
70.03436453028442
 21
113.2395151210002
 31
0.0
  0
LINE
  5
13E
330
62
100
AcDbEntity
  8
0
 62
     0
100
AcDbLine
 10
74.23372484994127
 20
113.3128152280368
 30
0.0
 11
74.03375531090998
 21
113.3093247467494
 31
0.0
  0
LINE
  5
13F
330
62
100
AcDbEntity
  8
0
 62
     0
100
AcDbLine
 10
78.23311563056683
 20
113.382624853786
 30
0.0
 11
78.03314609153554
 21
113.3791343724985
 31
0.0
  0
LINE
  5
140
330
62
100
AcDbEntity
  8
0
 62
     0
100
AcDbLine
 10
82.23250641119239
 20
113.4524344795351
 30
0.0
 11
82.03253687216112
 21
113.4489439982476
 31
0.0
  0
LINE
  5
141
330
62
100
AcDbEntity
  8
0
 62
     0
100
AcDbLine
 10
86.23189719181795
 20
113.5222441052842
 30
0.0
 11
86.03192765278668
 21
113.5187536239968
 31
0.0
  0
LINE
  5
142
330
62
100
AcDbEntity
  8
0
 62
     0
100
AcDbLine
 10
90.23128797244352
 20
113.5920537310333
 30
0.0
 11
90.03131843341224
 21
113.5885632497459
 31
0.0
  0
LINE
  5
143
330
62
100
AcDbEntity
  8
0
 62
     0
100
AcDbLine
 10
94.23067875306909
 20
113.6618633567825
 30
0.0
 11
94.03070921403781
 21
113.658372875495
 31
0.0
  0
LINE
  5
144
330
62
100
AcDbEntity
  8
0
 62
     0
100
AcDbLine
 10
62.16574288231544
 20
117.102777131415
 30
0.0
 11
61.96577334328416
 21
117.0992866501275
 31
0.0
  0
LINE
  5
145
330
62
100
AcDbEntity
  8
0
 62
     0
100
AcDbLine
 10
66.165133662941
 20
117.1725867571641
 30
0.0
 11
65.96516412390972
 21
117.1690962758767
 31
0.0
  0
LINE
  5
146
330
62
100
AcDbEntity
  8
0
 62
     0
100
AcDbLine
 10
70.16452444356656
 20
117.2423963829132
 30
0.0
 11
69.96455490453529
 21
117.2389059016258
 31
0.0
  0
LINE
  5
147
330
62
100
AcDbEntity
  8
0
 62
     0
100
AcDbLine
 10
74.16391522419214
 20
117.3122060086624
 30
0.0
 11
73.96394568516085
 21
117.3087155273749
 31
0.0
  0
LINE
  5
148
330
62
100
AcDbEntity
  8
0
 62
     0
100
AcDbLine
 10
78.1633060048177
 20
117.3820156344115
 30
0.0
 11
77.96333646578641
 21
117.3785251531241
 31
0.0
  0
LINE
  5
149
330
62
100
AcDbEntity
  8
0
 62
     0
100
AcDbLine
 10
82.16269678544326
 20
117.4518252601606
 30
0.0
 11
81.96272724641199
 21
117.4483347788732
 31
0.0
  0
LINE
  5
14A
330
62
100
AcDbEntity
  8
0
 62
     0
100
AcDbLine
 10
86.16208756606882
 20
117.5216348859098
 30
0.0
 11
85.96211802703755
 21
117.5181444046223
 31
0.0
  0
ENDBLK
  5
64
330
62
100
AcDbEntity
  8
0
100
AcDbBlockEnd
  0
ENDSEC
  0
SECTION
  2
ENTITIES
  0
LINE
  5
14C
330
1F
100
AcDbEntity
  8
0
  6
CONTINUOUS
 62
   250
 48
12.0
100
AcDbLine
 10
49.66505000000001
 20
31.96415
 30
0.0
 11
53.04005000000001
 21
33.91139
 31
0.0
  0
LINE
  5
14D
330
1F
100
AcDbEntity
  8
0
  6
CONTINUOUS
 62
   250
 48
12.0
100
AcDbLine
 10
50.67377
 20
31.97171
 30
0.0
 11
53.16533
 21
33.41027
 31
0.0
  0
LINE
  5
14E
330
1F
100
AcDbEntity
  8
0
  6
CONTINUOUS
 62
   250
 48
12.0
100
AcDbLine
 10
52.11125000000001
 20
31.79135
 30
0.0
 11
54.04013
 21
32.90483
 31
0.0
  0
LINE
  5
14F
330
1F
100
AcDbEntity
  8
0
  6
CONTINUOUS
 62
   250
 48
12.0
100
AcDbLine
 10
52.15337
 20
31.55267000000001
 30
0.0
 11
53.73125
 21
32.46311
 31
0.0
  0
LINE
  5
150
330
1F
100
AcDbEntity
  8
0
  6
CONTINUOUS
 62
   250
 48
12.0
100
AcDbLine
 10
46.23065
 20
29.98019
 30
0.0
 11
49.16717
 21
31.67579
 31
0.0
  0
LINE
  5
151
330
1F
100
AcDbEntity
  8
0
  6
CONTINUOUS
 62
   250
 48
12.0
100
AcDbLine
 10
46.00493
 20
29.27603
 30
0.0
 11
48.23297
 21
30.56231
 31
0.0
  0
LINE
  5
152
330
1F
100
AcDbEntity
  8
0
  6
CONTINUOUS
 62
   250
 48
12.0
100
AcDbLine
 10
45.17440999999999
 20
27.78563
 30
0.0
 11
46.58813000000001
 21
28.60211
 31
0.0
  0
LINE
  5
153
330
1F
100
AcDbEntity
  8
0
  6
CONTINUOUS
 62
   250
 48
12.0
100
AcDbLine
 10
44.71325000000001
 20
27.25751
 30
0.0
 11
46.16045000000001
 21
28.09235
 31
0.0
  0
LINE
  5
154
330
1F
100
AcDbEntity
  8
0
  6
CONTINUOUS
 62
   250
 48
12.0
100
AcDbLine
 10
49.40693
 20
31.96199
 30
0.0
 11
52.07776999999999
 21
31.98251
 31
0.0
  0
LINE
  5
155
330
1F
100
AcDbEntity
  8
0
  6
CONTINUOUS
 62
   250
 48
12.0
100
AcDbLine
 10
52.24625
 20
31.03103
 30
0.0
 11
53.09405
 21
30.56663
 31
0.0
  0
LINE
  5
156
330
1F
100
AcDbEntity
  8
0
  6
CONTINUOUS
 62
   250
 48
12.0
100
AcDbLine
 10
53.09405
 20
30.56663
 30
0.0
 11
53.15777000000001
 21
29.25983
 31
0.0
  0
LINE
  5
157
330
1F
100
AcDbEntity
  8
0
  6
CONTINUOUS
 62
   250
 48
12.0
100
AcDbLine
 10
53.15777000000001
 20
29.25983
 30
0.0
 11
54.02285000000001
 21
29.96399
 31
0.0
  0
LINE
  5
158
330
1F
100
AcDbEntity
  8
0
  6
CONTINUOUS
 62
   250
 48
12.0
100
AcDbLine
 10
54.46781
 20
28.88075
 30
0.0
 11
54.48617000000001
 21
27.54587
 31
0.0
  0
LINE
  5
159
330
1F
100
AcDbEntity
  8
0
  6
CONTINUOUS
 62
   250
 48
12.0
100
AcDbLine
 10
54.48617000000001
 20
27.54587
 30
0.0
 11
55.80377000000001
 21
27.64415
 31
0.0
  0
LINE
  5
15A
330
1F
100
AcDbEntity
  8
0
  6
CONTINUOUS
 62
   250
 48
12.0
100
AcDbLine
 10
54.02285000000001
 20
29.96399
 30
0.0
 11
54.46781
 21
28.88075
 31
0.0
  0
LINE
  5
15B
330
1F
100
AcDbEntity
  8
0
  6
CONTINUOUS
 62
   250
 48
12.0
100
AcDbLine
 10
52.07776999999999
 20
31.98251
 30
0.0
 11
52.24625
 21
31.03103
 31
0.0
  0
LINE
  5
15C
330
1F
100
AcDbEntity
  8
0
  6
CONTINUOUS
 62
   250
 48
12.0
100
AcDbLine
 10
53.14373000000001
 20
31.43171
 30
0.0
 11
55.44197000000001
 21
30.10547
 31
0.0
  0
LINE
  5
15D
330
1F
100
AcDbEntity
  8
0
  6
CONTINUOUS
 62
   250
 48
12.0
100
AcDbLine
 10
52.86725
 20
33.58199
 30
0.0
 11
55.16549
 21
32.25574999999999
 31
0.0
  0
LINE
  5
15E
330
1F
100
AcDbEntity
  8
0
  6
CONTINUOUS
 62
   250
 48
12.0
100
AcDbLine
 10
53.47421000000001
 20
34.74190999999999
 30
0.0
 11
55.77245000000001
 21
33.41566999999999
 31
0.0
  0
LINE
  5
15F
330
1F
100
AcDbEntity
  8
0
  6
CONTINUOUS
 62
   250
 48
12.0
100
AcDbLine
 10
52.97848999999999
 20
35.57135
 30
0.0
 11
55.27673000000001
 21
34.24511
 31
0.0
  0
LINE
  5
160
330
1F
100
AcDbEntity
  8
0
  6
CONTINUOUS
 62
   250
 48
12.0
100
AcDbLine
 10
53.31653
 20
36.47747
 30
0.0
 11
55.61369000000001
 21
35.15015
 31
0.0
  0
LINE
  5
161
330
1F
100
AcDbEntity
  8
0
  6
CONTINUOUS
 62
   250
 48
12.0
100
AcDbLine
 10
52.97848999999999
 20
35.57135
 30
0.0
 11
53.47421000000001
 21
34.74190999999999
 31
0.0
  0
LINE
  5
162
330
1F
100
AcDbEntity
  8
0
  6
CONTINUOUS
 62
   250
 48
12.0
100
AcDbLine
 10
53.47421000000001
 20
34.74190999999999
 30
0.0
 11
52.86725
 21
33.58199
 31
0.0
  0
LINE
  5
163
330
1F
100
AcDbEntity
  8
0
  6
CONTINUOUS
 62
   250
 48
12.0
100
AcDbLine
 10
53.80469
 20
32.59162999999999
 30
0.0
 11
53.14373000000001
 21
31.43171
 31
0.0
  0
LINE
  5
164
330
1F
100
AcDbEntity
  8
0
  6
CONTINUOUS
 62
   250
 48
12.0
100
AcDbLine
 10
53.14373000000001
 20
31.43171
 30
0.0
 11
54.13409
 21
30.94463
 31
0.0
  0
LINE
  5
165
330
1F
100
AcDbEntity
  8
0
  6
CONTINUOUS
 62
   250
 48
12.0
100
AcDbLine
 10
53.86409
 20
33.00743
 30
0.0
 11
53.80469
 21
32.59162999999999
 31
0.0
  0
LINE
  5
166
330
1F
100
AcDbEntity
  8
0
  6
CONTINUOUS
 62
   250
 48
12.0
100
AcDbLine
 10
53.31653
 20
36.47747
 30
0.0
 11
52.97848999999999
 21
35.57135
 31
0.0
  0
LWPOLYLINE
  5
167
330
1F
100
AcDbEntity
  8
0
  6
CONTINUOUS
 62
   250
 48
12.0
100
AcDbPolyline
 90
        8
 70
     0
 43
0.0
 10
55.61369000000001
 20
35.15015
 10
55.27673000000001
 20
34.24511
 10
55.77245000000001
 20
33.41566999999999
 10
55.16549
 20
32.25574999999999
 10
56.26709
 20
32.42422999999999
 10
56.10185000000001
 20
31.26539
 10
55.44197000000001
 20
30.10547
 10
56.43233
 20
29.61839
  0
LINE
  5
168
330
1F
100
AcDbEntity
  8
0
  6
CONTINUOUS
 62
   250
 48
12.0
100
AcDbLine
 10
44.32877000000001
 20
21.82187
 30
0.0
 11
45.32453
 21
23.00879
 31
0.0
  0
LINE
  5
169
330
1F
100
AcDbEntity
  8
0
  6
CONTINUOUS
 62
   250
 48
12.0
100
AcDbLine
 10
44.14193
 20
25.68719
 30
0.0
 11
49.40693
 21
31.96199
 31
0.0
  0
LINE
  5
16A
330
1F
100
AcDbEntity
  8
0
  6
CONTINUOUS
 62
   250
 48
12.0
100
AcDbLine
 10
46.79549
 20
25.68719
 30
0.0
 11
52.07776999999999
 21
31.98251
 31
0.0
  0
LINE
  5
16B
330
1F
100
AcDbEntity
  8
0
  6
CONTINUOUS
 62
   250
 48
12.0
100
AcDbLine
 10
49.79789
 20
20.48591
 30
0.0
 11
55.80377000000001
 21
27.64415
 31
0.0
  0
LINE
  5
16C
330
1F
100
AcDbEntity
  8
0
  6
CONTINUOUS
 62
   250
 48
12.0
100
AcDbLine
 10
45.34505000000001
 20
23.60279
 30
0.0
 11
44.14193
 21
25.68719
 31
0.0
  0
LWPOLYLINE
  5
16D
330
1F
100
AcDbEntity
  8
0
  6
CONTINUOUS
 62
   250
 48
12.0
100
AcDbPolyline
 90
        3
 70
     0
 43
0.0
 10
49.79789
 20
20.48591
 10
46.79549
 20
25.68719
 10
44.14193
 20
25.68719
  0
LINE
  5
16E
330
1F
100
AcDbEntity
  8
0
  6
CONTINUOUS
 62
   250
 48
12.0
100
AcDbLine
 10
49.79789
 20
20.48591
 30
0.0
 11
45.39257
 21
20.48591
 31
0.0
  0
LWPOLYLINE
  5
16F
330
1F
100
AcDbEntity
  8
0
  6
CONTINUOUS
 62
   250
 48
12.0
100
AcDbPolyline
 90
        6
 70
     0
 43
0.0
 10
45.39257
 20
20.48591
 10
45.52757
 20
21.17495
 10
44.32877000000001
 20
21.82187
 10
45.50165000000001
 20
22.88027
 10
45.05885
 20
23.20103
 10
45.34505000000001
 20
23.60279
  0
LWPOLYLINE
  5
170
330
1F
100
AcDbEntity
  8
0
  6
CONTINUOUS
 62
   250
 48
12.0
100
AcDbPolyline
 90
        6
 70
     0
 43
0.0
 10
44.71325000000001
 20
27.25751
 10
45.17440999999999
 20
27.78563
 10
44.46053000000001
 20
28.94555
 10
46.00493
 20
29.27603
 10
45.78137000000002
 20
29.77499
 10
46.23065
 20
29.98019
  0
LINE
  5
171
330
1F
100
AcDbEntity
  8
0
  6
CONTINUOUS
 62
   250
 48
12.0
100
AcDbLine
 10
71.37089
 20
38.24218999999999
 30
0.0
 11
104.10785
 21
57.14435
 31
0.0
  0
LINE
  5
172
330
1F
100
AcDbEntity
  8
0
  6
CONTINUOUS
 62
   250
 48
12.0
100
AcDbLine
 10
64.29041000000001
 20
40.16027
 30
0.0
 11
104.10785
 21
63.14915000000001
 31
0.0
  0
LINE
  5
173
330
1F
100
AcDbEntity
  8
0
  6
CONTINUOUS
 62
   250
 48
12.0
100
AcDbLine
 10
61.18000999999999
 20
41.00158999999999
 30
0.0
 11
101.85929
 21
64.44731000000002
 31
0.0
  0
ARC
  5
174
330
1F
100
AcDbEntity
  8
0
  6
CONTINUOUS
 62
   250
 48
12.0
100
AcDbCircle
 10
55.86640999999999
 20
43.40675
 30
0.0
 40
0.524879999999996
100
AcDbArc
 50
160.0826000000003
 51
228.6039999999999
  0
ARC
  5
175
330
1F
100
AcDbEntity
  8
0
  6
CONTINUOUS
 62
   250
 48
12.0
100
AcDbCircle
 10
57.76288999999999
 20
45.55919
 30
0.0
 40
3.393359999999999
100
AcDbArc
 50
228.6059
 51
245.9421
  0
LINE
  5
176
330
1F
100
AcDbEntity
  8
0
  6
CONTINUOUS
 62
   250
 48
12.0
100
AcDbLine
 10
57.28337000000001
 20
42.05675
 30
0.0
 11
56.37941000000001
 21
42.46066999999999
 31
0.0
  0
ARC
  5
177
330
1F
100
AcDbEntity
  8
0
  6
CONTINUOUS
 62
   250
 48
12.0
100
AcDbCircle
 10
64.03553
 20
31.89286999999999
 30
0.0
 40
15.6546
100
AcDbArc
 50
107.8141
 51
115.145
  0
ARC
  5
178
330
1F
100
AcDbEntity
  8
0
  6
CONTINUOUS
 62
   250
 48
12.0
100
AcDbCircle
 10
59.13665
 20
47.13491
 30
0.0
 40
0.3563999999999979
100
AcDbArc
 50
287.8134000000001
 51
354.8461999999997
  0
LINE
  5
179
330
1F
100
AcDbEntity
  8
0
  6
CONTINUOUS
 62
   250
 48
12.0
100
AcDbLine
 10
59.53409000000001
 20
47.57339
 30
0.0
 11
59.49196999999999
 21
47.10358999999999
 31
0.0
  0
ARC
  5
17A
330
1F
100
AcDbEntity
  8
0
  6
CONTINUOUS
 62
   250
 48
12.0
100
AcDbCircle
 10
59.07077
 20
45.59591
 30
0.0
 40
0.3445199999999976
100
AcDbArc
 50
348.5508999999997
 51
96.76160000000027
  0
LINE
  5
17B
330
1F
100
AcDbEntity
  8
0
  6
CONTINUOUS
 62
   250
 48
12.0
100
AcDbLine
 10
59.26301000000002
 20
44.81291
 30
0.0
 11
59.40881
 21
45.52787
 31
0.0
  0
ARC
  5
17C
330
1F
100
AcDbEntity
  8
0
  6
CONTINUOUS
 62
   250
 48
12.0
100
AcDbCircle
 10
58.92388999999999
 20
45.44363
 30
0.0
 40
0.3240000000000023
100
AcDbArc
 50
268.7433999999998
 51
337.8592999999999
  0
ARC
  5
17D
330
1F
100
AcDbEntity
  8
0
  6
CONTINUOUS
 62
   250
 48
12.0
100
AcDbCircle
 10
58.73705000000001
 20
45.51922999999999
 30
0.0
 40
0.5259600000000023
100
AcDbArc
 50
337.8592999999998
 51
31.66979999999985
  0
ARC
  5
17E
330
1F
100
AcDbEntity
  8
0
  6
CONTINUOUS
 62
   250
 48
12.0
100
AcDbCircle
 10
58.84936999999999
 20
45.58943
 30
0.0
 40
0.3931199999999992
100
AcDbArc
 50
31.6723000000001
 51
83.40639999999966
  0
ARC
  5
17F
330
1F
100
AcDbEntity
  8
0
  6
CONTINUOUS
 62
   250
 48
12.0
100
AcDbCircle
 10
57.44752999999999
 20
33.46211
 30
0.0
 40
12.60144
100
AcDbArc
 50
83.4032
 51
104.3027
  0
LINE
  5
180
330
1F
100
AcDbEntity
  8
0
  6
CONTINUOUS
 62
   250
 48
12.0
100
AcDbLine
 10
53.68049000000001
 20
45.50626999999999
 30
0.0
 11
54.33389000000001
 21
45.67258999999999
 31
0.0
  0
ARC
  5
181
330
1F
100
AcDbEntity
  8
0
  6
CONTINUOUS
 62
   250
 48
12.0
100
AcDbCircle
 10
60.81173000000001
 20
31.62071
 30
0.0
 40
15.60924
100
AcDbArc
 50
102.9124
 51
117.1853
  0
ARC
  5
182
330
1F
100
AcDbEntity
  8
0
  6
CONTINUOUS
 62
   250
 48
12.0
100
AcDbCircle
 10
60.16588999999999
 20
34.43735
 30
0.0
 40
12.71916
100
AcDbArc
 50
94.0673
 51
102.9126
  0
ARC
  5
183
330
1F
100
AcDbEntity
  8
0
  6
CONTINUOUS
 62
   250
 48
12.0
100
AcDbCircle
 10
59.24249
 20
47.41679
 30
0.0
 40
0.2915999999999979
100
AcDbArc
 50
274.0708999999996
 51
351.0215999999996
  0
ARC
  5
184
330
1F
100
AcDbEntity
  8
0
  6
CONTINUOUS
 62
   250
 48
12.0
100
AcDbCircle
 10
58.82885
 20
47.48159
 30
0.0
 40
0.7117200000000026
100
AcDbArc
 50
351.0188000000001
 51
21.21419999999992
  0
ARC
  5
185
330
1F
100
AcDbEntity
  8
0
  6
CONTINUOUS
 62
   250
 48
12.0
100
AcDbCircle
 10
59.25113
 20
47.64575
 30
0.0
 40
0.2581199999999985
100
AcDbArc
 50
21.21539999999978
 51
82.38369999999959
  0
ARC
  5
186
330
1F
100
AcDbEntity
  8
0
  6
CONTINUOUS
 62
   250
 48
12.0
100
AcDbCircle
 10
58.91524999999999
 20
45.13475
 30
0.0
 40
2.791799999999996
100
AcDbArc
 50
82.38110000000003
 51
100.482
  0
ARC
  5
187
330
1F
100
AcDbEntity
  8
0
  6
CONTINUOUS
 62
   250
 48
12.0
100
AcDbCircle
 10
62.29673
 20
26.86007
 30
0.0
 40
21.37752
100
AcDbArc
 50
100.4822
 51
113.1809
  0
ARC
  5
188
330
1F
100
AcDbEntity
  8
0
  6
CONTINUOUS
 62
   250
 48
12.0
100
AcDbCircle
 10
55.90528999999999
 20
41.78675
 30
0.0
 40
5.139719999999997
100
AcDbArc
 50
113.181
 51
140.4579
  0
ARC
  5
189
330
1F
100
AcDbEntity
  8
0
  6
CONTINUOUS
 62
   250
 48
12.0
100
AcDbCircle
 10
55.45493
 20
42.15719000000001
 30
0.0
 40
4.556519999999997
100
AcDbArc
 50
140.4579
 51
162.0471
  0
LINE
  5
18A
330
1F
100
AcDbEntity
  8
0
  6
CONTINUOUS
 62
   250
 48
12.0
100
AcDbLine
 10
50.65001000000001
 20
42.10967
 30
0.0
 11
51.12089
 21
43.56227
 31
0.0
  0
ARC
  5
18B
330
1F
100
AcDbEntity
  8
0
  6
CONTINUOUS
 62
   250
 48
12.0
100
AcDbCircle
 10
52.72253
 20
40.77155
 30
0.0
 40
2.183760000000002
100
AcDbArc
 50
196.5782
 51
211.3606000000001
  0
ARC
  5
18C
330
1F
100
AcDbEntity
  8
0
  6
CONTINUOUS
 62
   250
 48
12.0
100
AcDbCircle
 10
52.39097
 20
40.56958999999999
 30
0.0
 40
1.796040000000009
100
AcDbArc
 50
211.3606
 51
260.8126000000001
  0
ARC
  5
18D
330
1F
100
AcDbEntity
  8
0
  6
CONTINUOUS
 62
   250
 48
12.0
100
AcDbCircle
 10
53.03681
 20
44.56451
 30
0.0
 40
5.842799999999998
100
AcDbArc
 50
260.8122999999999
 51
276.3162
  0
LINE
  5
18E
330
1F
100
AcDbEntity
  8
0
  6
CONTINUOUS
 62
   250
 48
12.0
100
AcDbLine
 10
54.94841000000001
 20
38.89774999999999
 30
0.0
 11
53.68049000000001
 21
38.75735
 31
0.0
  0
ARC
  5
18F
330
1F
100
AcDbEntity
  8
0
  6
CONTINUOUS
 62
   250
 48
12.0
100
AcDbCircle
 10
51.52049
 20
38.51111
 30
0.0
 40
1.642679999999997
100
AcDbArc
 50
201.9545
 51
297.8624
  0
ARC
  5
190
330
1F
100
AcDbEntity
  8
0
  6
CONTINUOUS
 62
   250
 48
12.0
100
AcDbCircle
 10
55.64069
 20
33.33575
 30
0.0
 40
5.543639999999995
100
AcDbArc
 50
80.14160000000001
 51
117.6880999999999
  0
ARC
  5
191
330
1F
100
AcDbEntity
  8
0
  6
CONTINUOUS
 62
   250
 48
12.0
100
AcDbCircle
 10
53.48177
 20
37.45162999999999
 30
0.0
 40
0.8942399999999999
100
AcDbArc
 50
117.6881
 51
199.0162999999998
  0
ARC
  5
192
330
1F
100
AcDbEntity
  8
0
  6
CONTINUOUS
 62
   250
 48
12.0
100
AcDbCircle
 10
51.80453
 20
36.87383
 30
0.0
 40
0.8791200000000036
100
AcDbArc
 50
352.0429000000001
 51
19.01720000000005
  0
ARC
  5
193
330
1F
100
AcDbEntity
  8
0
  6
CONTINUOUS
 62
   250
 48
12.0
100
AcDbCircle
 10
51.55181
 20
36.90839
 30
0.0
 40
1.133999999999996
100
AcDbArc
 50
307.9390999999999
 51
352.0428999999999
  0
ARC
  5
194
330
1F
100
AcDbEntity
  8
0
  6
CONTINUOUS
 62
   250
 48
12.0
100
AcDbCircle
 10
51.09173
 20
37.49915
 30
0.0
 40
1.882439999999999
100
AcDbArc
 50
225.3783000000001
 51
307.9388
  0
ARC
  5
195
330
1F
100
AcDbEntity
  8
0
  6
CONTINUOUS
 62
   250
 48
12.0
100
AcDbCircle
 10
50.73533
 20
37.13843
 30
0.0
 40
1.375920000000001
100
AcDbArc
 50
182.4083999999999
 51
225.378
  0
ARC
  5
196
330
1F
100
AcDbEntity
  8
0
  6
CONTINUOUS
 62
   250
 48
12.0
100
AcDbCircle
 10
51.21161
 20
37.15895
 30
0.0
 40
1.852200000000001
100
AcDbArc
 50
148.7152
 51
182.4093999999999
  0
ARC
  5
197
330
1F
100
AcDbEntity
  8
0
  6
CONTINUOUS
 62
   250
 48
12.0
100
AcDbCircle
 10
50.23853
 20
37.74971
 30
0.0
 40
0.7138800000000052
100
AcDbArc
 50
108.2671999999999
 51
148.7137999999998
  0
ARC
  5
198
330
1F
100
AcDbEntity
  8
0
  6
CONTINUOUS
 62
   250
 48
12.0
100
AcDbCircle
 10
49.90805
 20
38.74979
 30
0.0
 40
0.3391200000000019
100
AcDbArc
 50
288.2702999999995
 51
350.8219000000005
  0
ARC
  5
199
330
1F
100
AcDbEntity
  8
0
  6
CONTINUOUS
 62
   250
 48
12.0
100
AcDbCircle
 10
59.58268999999999
 20
37.18595000000001
 30
0.0
 40
9.4608
100
AcDbArc
 50
164.4786
 51
170.8202999999999
  0
ARC
  5
19A
330
1F
100
AcDbEntity
  8
0
  6
CONTINUOUS
 62
   250
 48
12.0
100
AcDbCircle
 10
49.97933
 20
39.85355
 30
0.0
 40
0.5054399999999962
100
AcDbArc
 50
344.4784000000002
 51
32.64839999999987
  0
ARC
  5
19B
330
1F
100
AcDbEntity
  8
0
  6
CONTINUOUS
 62
   250
 48
12.0
100
AcDbCircle
 10
51.19109
 20
40.62899
 30
0.0
 40
0.933120000000005
100
AcDbArc
 50
166.8517000000001
 51
212.6483000000001
  0
ARC
  5
19C
330
1F
100
AcDbEntity
  8
0
  6
CONTINUOUS
 62
   250
 48
12.0
100
AcDbCircle
 10
62.46737000000001
 20
37.99486999999999
 30
0.0
 40
12.51288
100
AcDbArc
 50
158.0994
 51
166.852
  0
ARC
  5
19D
330
1F
100
AcDbEntity
  8
0
  6
CONTINUOUS
 62
   250
 48
12.0
100
AcDbCircle
 10
53.23013
 20
41.70899
 30
0.0
 40
2.556360000000006
100
AcDbArc
 50
128.6062
 51
158.0989
  0
ARC
  5
19E
330
1F
100
AcDbEntity
  8
0
  6
CONTINUOUS
 62
   250
 48
12.0
100
AcDbCircle
 10
52.84349
 20
42.19175
 30
0.0
 40
1.938600000000002
100
AcDbArc
 50
113.1386999999999
 51
128.6058999999999
  0
ARC
  5
19F
330
1F
100
AcDbEntity
  8
0
  6
CONTINUOUS
 62
   250
 48
12.0
100
AcDbCircle
 10
57.54797000000001
 20
31.18331
 30
0.0
 40
13.90932
100
AcDbArc
 50
83.2447
 51
113.1391
  0
ARC
  5
1A0
330
1F
100
AcDbEntity
  8
0
  6
CONTINUOUS
 62
   250
 48
12.0
100
AcDbCircle
 10
59.17013
 20
44.87447
 30
0.0
 40
0.1242000000000029
100
AcDbArc
 50
276.7599999999997
 51
83.23959999999867
  0
ARC
  5
1A1
330
1F
100
AcDbEntity
  8
0
  6
CONTINUOUS
 62
   250
 48
12.0
100
AcDbCircle
 10
60.72532999999999
 20
31.74059
 30
0.0
 40
13.10148
100
AcDbArc
 50
96.7554
 51
103.7635
  0
ARC
  5
1A2
330
1F
100
AcDbEntity
  8
0
  6
CONTINUOUS
 62
   250
 48
12.0
100
AcDbCircle
 10
59.73497
 20
35.78735
 30
0.0
 40
8.93484
100
AcDbArc
 50
103.7634
 51
126.6921
  0
ARC
  5
1A3
330
1F
100
AcDbEntity
  8
0
  6
CONTINUOUS
 62
   250
 48
12.0
100
AcDbCircle
 10
54.71297
 20
42.52547000000001
 30
0.0
 40
0.5324400000000008
100
AcDbArc
 50
126.6927000000003
 51
227.7954000000001
  0
ARC
  5
1A4
330
1F
100
AcDbEntity
  8
0
  6
CONTINUOUS
 62
   250
 48
12.0
100
AcDbCircle
 10
55.96145
 20
43.90139
 30
0.0
 40
2.388959999999997
100
AcDbArc
 50
227.7955999999999
 51
258.3763
  0
LINE
  5
1A5
330
1F
100
AcDbEntity
  8
0
  6
CONTINUOUS
 62
   250
 48
12.0
100
AcDbLine
 10
56.69585
 20
41.31047
 30
0.0
 11
55.47976999999999
 21
41.56103
 31
0.0
  0
ARC
  5
1A6
330
1F
100
AcDbEntity
  8
0
  6
CONTINUOUS
 62
   250
 48
12.0
100
AcDbCircle
 10
55.80917
 20
37.66331
 30
0.0
 40
3.620159999999999
100
AcDbArc
 50
37.76830000000004
 51
74.31600000000006
  0
ARC
  5
1A7
330
1F
100
AcDbEntity
  8
0
  6
CONTINUOUS
 62
   250
 48
12.0
100
AcDbCircle
 10
58.19597
 20
39.51227
 30
0.0
 40
0.6015599999999997
100
AcDbArc
 50
288.4309999999999
 51
37.76800000000037
  0
ARC
  5
1A8
330
1F
100
AcDbEntity
  8
0
  6
CONTINUOUS
 62
   250
 48
12.0
100
AcDbCircle
 10
57.31901
 20
42.14099
 30
0.0
 40
3.372839999999998
100
AcDbArc
 50
258.5043
 51
288.4302
  0
LWPOLYLINE
  5
1A9
330
1F
100
AcDbEntity
  8
0
  6
CONTINUOUS
 62
   250
 48
12.0
100
AcDbPolyline
 90
        4
 70
     0
 43
0.0
 10
88.05905000000001
 20
33.72454999999999
 10
57.28337000000001
 20
42.05675
 10
56.69585
 20
41.31047
 10
56.59001000000001
 20
38.79623
  0
ARC
  5
1AA
330
1F
100
AcDbEntity
  8
0
  6
CONTINUOUS
 62
   250
 48
12.0
100
AcDbCircle
 10
84.69593
 20
32.59919
 30
0.0
 40
3.546719999999994
100
AcDbArc
 50
314.9905999999999
 51
18.49680000000006
  0
LWPOLYLINE
  5
1AB
330
1F
100
AcDbEntity
  8
0
  6
CONTINUOUS
 62
   250
 48
12.0
100
AcDbPolyline
 90
        3
 70
     0
 43
0.0
 10
56.59001000000001
 20
38.79623
 10
87.04493000000002
 20
29.93267
 10
87.20260999999999
 20
30.09035
  0
LWPOLYLINE
  5
1AC
330
1F
100
AcDbEntity
  8
0
  6
CONTINUOUS
 62
   250
 48
12.0
100
AcDbPolyline
 90
        3
 70
     0
 43
0.0
 10
85.55993000000001
 20
74.73539000000001
 10
84.42269000000002
 20
74.90603000000002
 10
81.46457000000001
 20
78.34691
  0
LWPOLYLINE
  5
1AD
330
1F
100
AcDbEntity
  8
0
  6
CONTINUOUS
 62
   250
 48
12.0
100
AcDbPolyline
 90
       11
 70
     0
 43
0.0
 10
81.46457000000001
 20
78.34691
 10
79.63397
 20
73.45559
 10
76.30324999999999
 20
75.12095000000001
 10
79.26029
 20
67.16351
 10
76.40692999999999
 20
59.04731
 10
81.83825000000002
 20
63.40511000000001
 10
87.75341
 20
62.00327
 10
83.77360999999999
 20
68.88935000000001
 10
87.91865000000001
 20
68.02643
 10
90.87568999999999
 20
73.93943
 10
88.61633
 20
74.27747000000001
  0
LWPOLYLINE
  5
1AE
330
1F
100
AcDbEntity
  8
0
  6
CONTINUOUS
 62
   250
 48
12.0
100
AcDbPolyline
 90
        6
 70
     0
 43
0.0
 10
77.02253000000002
 20
60.79691
 10
80.92781
 20
63.93107000000001
 10
86.84297000000001
 20
62.52923
 10
82.86317000000003
 20
69.41531
 10
87.00820999999999
 20
68.55239
 10
89.78489000000002
 20
74.10251000000001
  0
LINE
  5
1AF
330
1F
100
AcDbEntity
  8
0
  6
CONTINUOUS
 62
   250
 48
12.0
100
AcDbLine
 10
83.51225
 20
75.43199
 30
0.0
 11
81.32525000000001
 21
77.97539
 31
0.0
  0
LINE
  5
1B0
330
1F
100
AcDbEntity
  8
0
  6
CONTINUOUS
 62
   250
 48
12.0
100
AcDbLine
 10
83.51225
 20
75.43199
 30
0.0
 11
84.42269000000002
 21
74.90603000000002
 31
0.0
  0
LINE
  5
1B1
330
1F
100
AcDbEntity
  8
0
  6
CONTINUOUS
 62
   250
 48
12.0
100
AcDbLine
 10
87.00820999999999
 20
68.55239
 30
0.0
 11
87.91865000000001
 21
68.02643
 31
0.0
  0
LINE
  5
1B2
330
1F
100
AcDbEntity
  8
0
  6
CONTINUOUS
 62
   250
 48
12.0
100
AcDbLine
 10
80.92781
 20
63.93107000000001
 30
0.0
 11
81.83825000000002
 21
63.40511000000001
 31
0.0
  0
LINE
  5
1B3
330
1F
100
AcDbEntity
  8
0
  6
CONTINUOUS
 62
   250
 48
12.0
100
AcDbLine
 10
86.84297000000001
 20
62.52923
 30
0.0
 11
87.75341
 21
62.00327
 31
0.0
  0
LINE
  5
1B4
330
1F
100
AcDbEntity
  8
0
  6
CONTINUOUS
 62
   250
 48
12.0
100
AcDbLine
 10
82.86317000000003
 20
69.41531
 30
0.0
 11
83.77360999999999
 21
68.88935000000001
 31
0.0
  0
LINE
  5
1B5
330
1F
100
AcDbEntity
  8
0
  6
CONTINUOUS
 62
   250
 48
12.0
100
AcDbLine
 10
101.81069
 20
71.70383000000001
 30
0.0
 11
101.81069
 21
81.02855
 31
0.0
  0
ARC
  5
1B6
330
1F
100
AcDbEntity
  8
0
  6
CONTINUOUS
 62
   250
 48
12.0
100
AcDbCircle
 10
93.55733000000001
 20
74.67707
 30
0.0
 40
3.174120000000006
100
AcDbArc
 50
16.05940000000012
 51
51.43910000000004
  0
ARC
  5
1B7
330
1F
100
AcDbEntity
  8
0
  6
CONTINUOUS
 62
   250
 48
12.0
100
AcDbCircle
 10
95.74433000000002
 20
75.30671
 30
0.0
 40
0.8974800000000058
100
AcDbArc
 50
267.5808000000004
 51
16.05909999999993
  0
ARC
  5
1B8
330
1F
100
AcDbEntity
  8
0
  6
CONTINUOUS
 62
   250
 48
12.0
100
AcDbCircle
 10
95.82641000000001
 20
77.25071000000001
 30
0.0
 40
2.842560000000002
100
AcDbArc
 50
224.237
 51
267.5806
  0
ARC
  5
1B9
330
1F
100
AcDbEntity
  8
0
  6
CONTINUOUS
 62
   250
 48
12.0
100
AcDbCircle
 10
89.37989000000002
 20
77.20427000000001
 30
0.0
 40
2.660040000000001
100
AcDbArc
 50
200.9521
 51
244.5458
  0
ARC
  5
1BA
330
1F
100
AcDbEntity
  8
0
  6
CONTINUOUS
 62
   250
 48
12.0
100
AcDbCircle
 10
91.37357
 20
79.16663000000001
 30
0.0
 40
2.763720000000002
100
AcDbArc
 50
175.8032000000001
 51
259.9141
  0
ARC
  5
1BB
330
1F
100
AcDbEntity
  8
0
  6
CONTINUOUS
 62
   250
 48
12.0
100
AcDbCircle
 10
98.45297
 20
86.06351000000001
 30
0.0
 40
11.74716
100
AcDbArc
 50
237.6179
 51
245.9624
  0
ARC
  5
1BC
330
1F
100
AcDbEntity
  8
0
  6
CONTINUOUS
 62
   250
 48
12.0
100
AcDbCircle
 10
91.08737000000002
 20
74.44811
 30
0.0
 40
2.006640000000008
100
AcDbArc
 50
57.61809999999995
 51
122.3814
  0
ARC
  5
1BD
330
1F
100
AcDbEntity
  8
0
  6
CONTINUOUS
 62
   250
 48
12.0
100
AcDbCircle
 10
92.25485
 20
72.60670999999999
 30
0.0
 40
4.187159999999991
100
AcDbArc
 50
122.3813999999999
 51
144.8639000000001
  0
ARC
  5
1BE
330
1F
100
AcDbEntity
  8
0
  6
CONTINUOUS
 62
   250
 48
12.0
100
AcDbCircle
 10
89.79353
 20
74.33903000000001
 30
0.0
 40
1.177199999999996
100
AcDbArc
 50
144.8649999999999
 51
180.9903999999999
  0
ARC
  5
1BF
330
1F
100
AcDbEntity
  8
0
  6
CONTINUOUS
 62
   250
 48
12.0
100
AcDbCircle
 10
87.46829000000002
 20
74.29907
 30
0.0
 40
1.148040000000001
100
AcDbArc
 50
284.3641
 51
0.9910000000001937
  0
ARC
  5
1C0
330
1F
100
AcDbEntity
  8
0
  6
CONTINUOUS
 62
   250
 48
12.0
100
AcDbCircle
 10
87.60761
 20
73.75259
 30
0.0
 40
0.5842799999999927
100
AcDbArc
 50
240.9859999999998
 51
284.3628000000001
  0
ARC
  5
1C1
330
1F
100
AcDbEntity
  8
0
  6
CONTINUOUS
 62
   250
 48
12.0
100
AcDbCircle
 10
90.19745000000003
 20
78.42143
 30
0.0
 40
5.92379999999999
100
AcDbArc
 50
215.7424
 51
240.9874
  0
ARC
  5
1C2
330
1F
100
AcDbEntity
  8
0
  6
CONTINUOUS
 62
   250
 48
12.0
100
AcDbCircle
 10
85.72085000000001
 20
75.19979000000001
 30
0.0
 40
0.4082400000000026
100
AcDbArc
 50
132.5742000000004
 51
215.7419000000008
  0
LINE
  5
1C3
330
1F
100
AcDbEntity
  8
0
  6
CONTINUOUS
 62
   250
 48
12.0
100
AcDbLine
 10
86.73065
 20
76.68155000000002
 30
0.0
 11
85.44437000000002
 21
75.50003000000001
 31
0.0
  0
ARC
  5
1C4
330
1F
100
AcDbEntity
  8
0
  6
CONTINUOUS
 62
   250
 48
12.0
100
AcDbCircle
 10
85.36121
 20
79.60187
 30
0.0
 40
3.224880000000003
100
AcDbArc
 50
295.1146
 51
347.1605
  0
LWPOLYLINE
  5
1C5
330
1F
100
AcDbEntity
  8
0
  6
CONTINUOUS
 62
   250
 48
12.0
100
AcDbPolyline
 90
        3
 70
     0
 43
0.0
 10
92.32720999999998
 20
82.43579000000001
 10
88.61633
 20
79.36859
 10
88.50617
 20
78.88475000000001
  0
ARC
  5
1C6
330
1F
100
AcDbEntity
  8
0
  6
CONTINUOUS
 62
   250
 48
12.0
100
AcDbCircle
 10
94.44077000000001
 20
62.37911
 30
0.0
 40
20.16684
100
AcDbArc
 50
73.1681
 51
96.01720000000003
  0
ARC
  5
1C7
330
1F
100
AcDbEntity
  8
0
  6
CONTINUOUS
 62
   250
 48
12.0
100
AcDbCircle
 10
100.22417
 20
81.49403000000001
 30
0.0
 40
0.1965599999999973
100
AcDbArc
 50
256.1597000000011
 51
73.16910000000193
  0
ARC
  5
1C8
330
1F
100
AcDbEntity
  8
0
  6
CONTINUOUS
 62
   250
 48
12.0
100
AcDbCircle
 10
98.31473
 20
73.74611
 30
0.0
 40
7.782479999999992
100
AcDbArc
 50
76.1557
 51
116.4337999999999
  0
ARC
  5
1C9
330
1F
100
AcDbEntity
  8
0
  6
CONTINUOUS
 62
   250
 48
12.0
100
AcDbCircle
 10
95.32637000000003
 20
79.75631000000001
 30
0.0
 40
1.071360000000003
100
AcDbArc
 50
116.4335999999998
 51
186.3289000000003
  0
ARC
  5
1CA
330
1F
100
AcDbEntity
  8
0
  6
CONTINUOUS
 62
   250
 48
12.0
100
AcDbCircle
 10
97.36649
 20
79.98203
 30
0.0
 40
3.123359999999998
100
AcDbArc
 50
186.3293999999999
 51
216.3194000000001
  0
LWPOLYLINE
  5
1CB
330
1F
100
AcDbEntity
  8
0
  6
CONTINUOUS
 62
   250
 48
12.0
100
AcDbPolyline
 90
        3
 70
     0
 43
0.0
 10
119.80133
 20
55.82135
 10
95.44409000000002
 20
77.32415000000002
 10
94.85009
 20
78.13199
  0
ARC
  5
1CC
330
1F
100
AcDbEntity
  8
0
  6
CONTINUOUS
 62
   250
 48
12.0
100
AcDbCircle
 10
114.48557
 20
58.09259000000001
 30
0.0
 40
5.780159999999996
100
AcDbArc
 50
305.7945
 51
336.8675
  0
LWPOLYLINE
  5
1CD
330
1F
100
AcDbEntity
  8
0
  6
CONTINUOUS
 62
   250
 48
12.0
100
AcDbPolyline
 90
        4
 70
     0
 43
0.0
 10
95.44409000000002
 20
77.32415000000002
 10
93.66749000000002
 20
75.33479
 10
117.49229
 20
53.13430999999999
 10
117.86597
 20
53.40323
  0
LINE
  5
1CE
330
1F
100
AcDbEntity
  8
0
  6
CONTINUOUS
 62
   250
 48
12.0
100
AcDbLine
 10
44.71325000000001
 20
27.25751
 30
0.0
 11
43.02197
 21
28.23383
 31
0.0
  0
LINE
  5
1CF
330
1F
100
AcDbEntity
  8
0
  6
CONTINUOUS
 62
   250
 48
12.0
100
AcDbLine
 10
46.23065
 20
54.76079
 30
0.0
 11
46.23065
 21
68.45195000000001
 31
0.0
  0
LWPOLYLINE
  5
1D0
330
1F
100
AcDbEntity
  8
0
  6
CONTINUOUS
 62
   250
 48
12.0
100
AcDbPolyline
 90
        3
 70
     0
 43
0.0
 10
46.23065
 20
54.76079
 10
45.32021
 20
55.28674999999999
 10
45.32021
 20
68.97791000000001
  0
LINE
  5
1D1
330
1F
100
AcDbEntity
  8
0
  6
CONTINUOUS
 62
   250
 48
12.0
100
AcDbLine
 10
44.09441
 20
47.70623000000001
 30
0.0
 11
43.18397
 21
48.23219
 31
0.0
  0
LINE
  5
1D2
330
1F
100
AcDbEntity
  8
0
  6
CONTINUOUS
 62
   250
 48
12.0
100
AcDbLine
 10
43.18397
 20
48.23219
 30
0.0
 11
46.81817
 21
55.13015
 31
0.0
  0
LINE
  5
1D3
330
1F
100
AcDbEntity
  8
0
  6
CONTINUOUS
 62
   250
 48
12.0
100
AcDbLine
 10
46.23065
 20
48.93959
 30
0.0
 11
44.09441
 21
47.70623000000001
 31
0.0
  0
LINE
  5
1D4
330
1F
100
AcDbEntity
  8
0
  6
CONTINUOUS
 62
   250
 48
12.0
100
AcDbLine
 10
44.09441
 20
47.70623000000001
 30
0.0
 11
48.52457
 21
56.11511
 31
0.0
  0
LINE
  5
1D5
330
1F
100
AcDbEntity
  8
0
  6
CONTINUOUS
 62
   250
 48
12.0
100
AcDbLine
 10
48.52457
 20
56.11511
 30
0.0
 11
46.20581000000001
 21
54.77590999999999
 31
0.0
  0
LINE
  5
1D6
330
1F
100
AcDbEntity
  8
0
  6
CONTINUOUS
 62
   250
 48
12.0
100
AcDbLine
 10
77.25256999999999
 20
93.78119000000001
 30
0.0
 11
77.55389
 21
93.95506999999999
 31
0.0
  0
LINE
  5
1D7
330
1F
100
AcDbEntity
  8
0
  6
CONTINUOUS
 62
   250
 48
12.0
100
AcDbLine
 10
53.32193000000002
 20
36.47315
 30
0.0
 11
57.09761
 21
38.64935
 31
0.0
  0
LINE
  5
1D8
330
1F
100
AcDbEntity
  8
0
  6
CONTINUOUS
 62
   250
 48
12.0
100
AcDbLine
 10
102.96089
 20
86.03327
 30
0.0
 11
102.05045
 21
86.55923
 31
0.0
  0
LINE
  5
1D9
330
1F
100
AcDbEntity
  8
0
  6
CONTINUOUS
 62
   250
 48
12.0
100
AcDbLine
 10
101.81069
 20
81.02855
 30
0.0
 11
100.90025
 21
81.55451000000001
 31
0.0
  0
LINE
  5
1DA
330
1F
100
AcDbEntity
  8
0
  6
CONTINUOUS
 62
   250
 48
12.0
100
AcDbLine
 10
102.05045
 20
86.55923
 30
0.0
 11
101.78585
 21
86.40587000000001
 31
0.0
  0
LINE
  5
1DB
330
1F
100
AcDbEntity
  8
0
  6
CONTINUOUS
 62
   250
 48
12.0
100
AcDbLine
 10
100.90025
 20
81.55451000000001
 30
0.0
 11
100.47041
 21
81.30611
 31
0.0
  0
LWPOLYLINE
  5
1DC
330
1F
100
AcDbEntity
  8
0
  6
CONTINUOUS
 62
   250
 48
12.0
100
AcDbPolyline
 90
        5
 70
     0
 43
0.0
 10
101.81069
 20
81.02855
 10
99.67445000000001
 20
79.79519
 10
102.96089
 20
86.03327
 10
101.78585
 20
85.35395000000001
 10
101.78585
 20
95.58263
  0
LINE
  5
1DD
330
1F
100
AcDbEntity
  8
0
  6
CONTINUOUS
 62
   250
 48
12.0
100
AcDbLine
 10
101.81069
 20
64.47539
 30
0.0
 11
101.81069
 21
67.74779000000001
 31
0.0
  0
LINE
  5
1DE
330
1F
100
AcDbEntity
  8
0
  6
CONTINUOUS
 62
   250
 48
12.0
100
AcDbLine
 10
43.02197
 20
74.01827
 30
0.0
 11
98.60201000000004
 21
106.10723
 31
0.0
  0
LINE
  5
1DF
330
1F
100
AcDbEntity
  8
0
  6
CONTINUOUS
 62
   250
 48
12.0
100
AcDbLine
 10
104.10785
 20
96.92399
 30
0.0
 11
104.10785
 21
102.92879
 31
0.0
  0
LINE
  5
1E0
330
1F
100
AcDbEntity
  8
0
  6
CONTINUOUS
 62
   250
 48
12.0
100
AcDbLine
 10
104.10785
 20
102.92879
 30
0.0
 11
98.60201000000004
 21
106.10723
 31
0.0
  0
LINE
  5
1E1
330
1F
100
AcDbEntity
  8
0
  6
CONTINUOUS
 62
   250
 48
12.0
100
AcDbLine
 10
48.52889
 20
64.83502999999999
 30
0.0
 11
104.10785
 21
96.92399
 31
0.0
  0
LINE
  5
1E2
330
1F
100
AcDbEntity
  8
0
  6
CONTINUOUS
 62
   250
 48
12.0
100
AcDbLine
 10
48.52889
 20
70.83983
 30
0.0
 11
104.10785
 21
102.92879
 31
0.0
  0
LINE
  5
1E3
330
1F
100
AcDbEntity
  8
0
  6
CONTINUOUS
 62
   250
 48
12.0
100
AcDbLine
 10
45.32021
 20
66.68723
 30
0.0
 11
43.02197
 21
68.01347
 31
0.0
  0
LINE
  5
1E4
330
1F
100
AcDbEntity
  8
0
  6
CONTINUOUS
 62
   250
 48
12.0
100
AcDbLine
 10
48.52889
 20
70.83983
 30
0.0
 11
43.02197
 21
74.01827
 31
0.0
  0
LINE
  5
1E5
330
1F
100
AcDbEntity
  8
0
  6
CONTINUOUS
 62
   250
 48
12.0
100
AcDbLine
 10
43.02197
 20
74.01827
 30
0.0
 11
43.02197
 21
68.01347
 31
0.0
  0
LINE
  5
1E6
330
1F
100
AcDbEntity
  8
0
  6
CONTINUOUS
 62
   250
 48
12.0
100
AcDbLine
 10
48.52889
 20
64.83502999999999
 30
0.0
 11
48.52889
 21
70.83983
 31
0.0
  0
LINE
  5
1E7
330
1F
100
AcDbEntity
  8
0
  6
CONTINUOUS
 62
   250
 48
12.0
100
AcDbLine
 10
48.52889
 20
64.83502999999999
 30
0.0
 11
46.23065
 21
66.16127
 31
0.0
  0
LINE
  5
1E8
330
1F
100
AcDbEntity
  8
0
  6
CONTINUOUS
 62
   250
 48
12.0
100
AcDbLine
 10
46.23065
 20
68.45195000000001
 30
0.0
 11
45.32021
 21
68.97791000000001
 31
0.0
  0
LINE
  5
1E9
330
1F
100
AcDbEntity
  8
0
  6
CONTINUOUS
 62
   250
 48
12.0
100
AcDbLine
 10
45.32021
 20
32.91130999999999
 30
0.0
 11
43.02197
 21
34.23863
 31
0.0
  0
LINE
  5
1EA
330
1F
100
AcDbEntity
  8
0
  6
CONTINUOUS
 62
   250
 48
12.0
100
AcDbLine
 10
46.23065
 20
29.98019
 30
0.0
 11
46.23065
 21
48.93959
 31
0.0
  0
LWPOLYLINE
  5
1EB
330
1F
100
AcDbEntity
  8
0
  6
CONTINUOUS
 62
   250
 48
12.0
100
AcDbPolyline
 90
        3
 70
     0
 43
0.0
 10
46.23065
 20
29.98019
 10
45.32021
 20
30.50615
 10
45.32021
 20
48.41363
  0
LINE
  5
1EC
330
1F
100
AcDbEntity
  8
0
  6
CONTINUOUS
 62
   250
 48
12.0
100
AcDbLine
 10
43.02197
 20
34.23863
 30
0.0
 11
45.32021
 21
35.56487
 31
0.0
  0
LINE
  5
1ED
330
1F
100
AcDbEntity
  8
0
  6
CONTINUOUS
 62
   250
 48
12.0
100
AcDbLine
 10
55.61369000000001
 20
35.15015
 30
0.0
 11
60.13997
 21
37.76375
 31
0.0
  0
LINE
  5
1EE
330
1F
100
AcDbEntity
  8
0
  6
CONTINUOUS
 62
   250
 48
12.0
100
AcDbLine
 10
104.10785
 20
57.14435
 30
0.0
 11
104.10785
 21
63.14915000000001
 31
0.0
  0
LINE
  5
1EF
330
1F
100
AcDbEntity
  8
0
  6
CONTINUOUS
 62
   250
 48
12.0
100
AcDbLine
 10
104.10785
 20
63.14915000000001
 30
0.0
 11
101.81069
 21
64.47539
 31
0.0
  0
LINE
  5
1F0
330
1F
100
AcDbEntity
  8
0
  6
CONTINUOUS
 62
   250
 48
12.0
100
AcDbLine
 10
56.43233
 20
29.61839
 30
0.0
 11
67.05412999999999
 21
35.75063
 31
0.0
  0
LINE
  5
1F1
330
1F
100
AcDbEntity
  8
0
  6
CONTINUOUS
 62
   250
 48
12.0
100
AcDbLine
 10
43.02197
 20
34.23863
 30
0.0
 11
43.02197
 21
28.23383
 31
0.0
  0
LWPOLYLINE
  5
1F2
330
1F
100
AcDbEntity
  8
0
  6
CONTINUOUS
 62
   250
 48
12.0
100
AcDbPolyline
 90
        4
 70
     1
 43
0.0
 10
0.0
 20
0.0
 10
0.0
 20
145.098
 10
145.2132
 20
145.098
 10
145.2132
 20
0.0
  0
LWPOLYLINE
  5
1F3
330
1F
100
AcDbEntity
  8
0
  6
CONTINUOUS
 62
   250
 48
12.0
100
AcDbPolyline
 90
        4
 70
     1
 43
0.0
 10
0.0
 20
133.6872
 10
0.0
 20
145.098
 10
13.1028
 20
145.098
 10
13.1028
 20
133.6872
  0
TEXT
  5
1F8
330
1F
100
AcDbEntity
  8
0
 62
   250
100
AcDbText
 10
6.238812499999995
 20
6.722587946741419
 30
0.0
 40
5.0
  1
DON'T hammer on flange and damage joist.
 41
0.7936507936507936
  7
LPDETAILTEXT
 11
6.238812499999995
 21
4.704000000000004
 31
0.0
100
AcDbText
 73
     1
  0
TEXT
  5
1F9
330
1F
100
AcDbEntity
  8
0
 62
   250
100
AcDbText
 10
2.351562500000001
 20
137.9560879467414
 30
0.0
 40
5.0
  1
R3
 41
0.7936507936507936
  7
LPDETAILTEXT
 11
2.351562500000001
 21
135.9375
 31
0.0
100
AcDbText
 73
     1
  0
TEXT
  5
1FA
330
1F
100
AcDbEntity
  8
0
 62
   250
100
AcDbText
 10
15.125
 20
137.25
 30
0.0
 40
5.0
  1
DON'T make holes with hammers
 41
0.7936507936507936
  7
LPDETAILTEXT
 11
15.125
 21
142.25
 31
0.0
100
AcDbText
 73
     3
  0
TEXT
  5
1FB
330
1F
100
AcDbEntity
  8
0
 62
   250
100
AcDbText
 10
15.125
 20
129.375
 30
0.0
 40
5.0
  1
unless knock-out is provided.
 41
0.7936507936507936
  7
LPDETAILTEXT
 11
15.125
 21
134.375
 31
0.0
100
AcDbText
 73
     3
  0
INSERT
  5
1FD
330
1F
100
AcDbEntity
  8
0
  6
BYBLOCK
100
AcDbBlockReference
  2
GROUP_0_61B744FE-E273-4590
 10
0.0
 20
0.0
 30
0.0
  0
ENDSEC
  0
SECTION
  2
OBJECTS
  0
DICTIONARY
  5
C
330
0
100
AcDbDictionary
  3
ACAD_GROUP
350
D
  3
ACAD_LAYOUT
350
1A
  3
ACAD_MATERIAL
350
3B
  3
ACAD_MLEADERSTYLE
350
220
  3
ACAD_MLINESTYLE
350
17
  3
ACAD_PLOTSETTINGS
350
19
  3
ACAD_VISUALSTYLE
350
2A
  3
ACDBHEADERROUNDTRIPXREC
350
1FE
  3
ACDBVARIABLEDICTIONARY
350
21E
  0
DICTIONARY
  5
D
102
{ACAD_REACTORS
330
C
102
}
330
C
100
AcDbDictionary
  0
DICTIONARY
  5
1A
102
{ACAD_REACTORS
330
C
102
}
330
C
100
AcDbDictionary
  0
DICTIONARY
  5
3B
102
{ACAD_REACTORS
330
C
102
}
330
C
100
AcDbDictionary
  3
BYBLOCK
350
3D
  3
BYLAYER
350
3C
  3
GLOBAL
350
3E
  0
DICTIONARY
  5
220
102
{ACAD_REACTORS
330
C
102
}
330
C
100
AcDbDictionary
  0
DICTIONARY
  5
17
102
{ACAD_REACTORS
330
C
102
}
330
C
100
AcDbDictionary
  3
STANDARD
350
18
  0
DICTIONARY
  5
19
102
{ACAD_REACTORS
330
C
102
}
330
C
100
AcDbDictionary
  0
DICTIONARY
  5
2A
102
{ACAD_REACTORS
330
C
102
}
330
C
100
AcDbDictionary
  3
2DWIREFRAME
350
2F
  3
3D_HIDDEN
350
31
  3
3DWIREFRAME
350
30
  3
BASIC
350
32
  3
BRIGHTEN
350
36
  3
COLORCHANGE
350
3A
  3
CONCEPTUAL
350
34
  3
DIM
350
35
  3
FACEPATTERN
350
39
  3
FLAT
350
2B
  3
FLATWITHEDGES
350
2C
  3
GOURAUD
350
2D
  3
GOURAUDWITHEDGES
350
2E
  3
LINEPATTERN
350
38
  3
REALISTIC
350
33
  3
THICKEN
350
37
  0
DICTIONARY
  5
1FE
102
{ACAD_REACTORS
330
C
102
}
330
C
100
AcDbDictionary
  3
CEPSNTYPE
350
207
  3
DIMSTYLEDATA
350
21D
  3
FINGERPRINTGUID
350
208
  3
HYPERLINKBASE
350
201
  3
INSUNITS
350
206
  3
LAYOUTDICT
350
203
  3
LWETCUNION
350
205
  3
PLOTSETDICT
350
204
  3
PSVPSCALE
350
20A
  3
PUCSBASE
350
20D
  3
PUCSORGBACK
350
213
  3
PUCSORGBOTTOM
350
20F
  3
PUCSORGFRONT
350
212
  3
PUCSORGLEFT
350
210
  3
PUCSORGRIGHT
350
211
  3
PUCSORGTOP
350
20E
  3
PUCSORTHOREF
350
20B
  3
PUCSORTHOVIEW
350
20C
  3
STYLESHEET
350
202
  3
TSTACKALIGN
350
1FF
  3
TSTACKSIZE
350
200
  3
UCSBASE
350
216
  3
UCSORGBACK
350
21C
  3
UCSORGBOTTOM
350
218
  3
UCSORGFRONT
350
21B
  3
UCSORGLEFT
350
219
  3
UCSORGRIGHT
350
21A
  3
UCSORGTOP
350
217
  3
UCSORTHOREF
350
214
  3
UCSORTHOVIEW
350
215
  3
VERSIONGUID
350
209
  0
DICTIONARY
  5
21E
102
{ACAD_REACTORS
330
C
102
}
330
C
100
AcDbDictionary
  3
DIMASSOC
350
221
  3
HIDETEXT
350
222
  0
MATERIAL
  5
3D
102
{ACAD_REACTORS
330
3B
102
}
102
{ACAD_XDICTIONARY
360
225
102
}
330
3B
100
AcDbMaterial
  1
ByBlock
  0
MATERIAL
  5
3C
102
{ACAD_REACTORS
330
3B
102
}
102
{ACAD_XDICTIONARY
360
223
102
}
330
3B
100
AcDbMaterial
  1
ByLayer
  0
MATERIAL
  5
3E
102
{ACAD_REACTORS
330
3B
102
}
102
{ACAD_XDICTIONARY
360
227
102
}
330
3B
100
AcDbMaterial
  1
Global
  0
MLINESTYLE
  5
18
102
{ACAD_REACTORS
330
17
102
}
330
17
100
AcDbMlineStyle
  2
Standard
 70
     0
  3

 62
   256
 51
90.0
 52
90.0
 71
     2
 49
0.5
 62
   256
  6
BYLAYER
 49
-0.5
 62
   256
  6
BYLAYER
  0
ACAD_PROXY_OBJECT
  5
2F
102
{ACAD_REACTORS
330
2A
102
}
330
2A
100
AcDbProxyObject
 90
      499
 91
      501
 93
      436
310
42CC9915DA5C99599C985B595049028333333333333E3BF0000000000000FB0107901411070040501600405405064090741402480A0340
1001
ACAD
1000
AcDbSavedByObjectVersion
1070
     0
  0
ACAD_PROXY_OBJECT
  5
31
102
{ACAD_REACTORS
330
2A
102
}
330
2A
100
AcDbProxyObject
 90
      499
 91
      501
 93
      500
310
424CD108121A5919195B90640502408333333333333E3BF0000000000000FB01079024090700405020000000000001110200405405064090740C02480A0340
1001
ACAD
1000
AcDbSavedByObjectVersion
1070
     0
  0
ACAD_PROXY_OBJECT
  5
30
102
{ACAD_REACTORS
330
2A
102
}
330
2A
100
AcDbProxyObject
 90
      499
 91
      501
 93
      436
310
42CCD915DA5C99599C985B595059028333333333333E3BF0000000000000FB0107901411070040501600405405064090741402480A0340
1001
ACAD
1000
AcDbSavedByObjectVersion
1070
     0
  0
ACAD_PROXY_OBJECT
  5
32
102
{ACAD_REACTORS
330
2A
102
}
330
2A
100
AcDbProxyObject
 90
      499
 91
      501
 93
      388
310
4150985CDA58D07406404333333333333E3BF0000000000000FB0107A41107004050150841D405064090741402480A0350
1001
ACAD
1000
AcDbSavedByObjectVersion
1070
     0
  0
ACAD_PROXY_OBJECT
  5
36
102
{ACAD_REACTORS
330
2A
102
}
330
2A
100
AcDbProxyObject
 90
      499
 91
      501
 93
      428
310
42109C9A59DA1D195B90C409028333333333333E3BF0000000000000FB010790141107004050150841D405064090741402480A029950
1001
ACAD
1000
AcDbSavedByObjectVersion
1070
     0
  0
ACAD_PROXY_OBJECT
  5
3A
102
{ACAD_REACTORS
330
2A
102
}
330
2A
100
AcDbProxyObject
 90
      499
 91
      501
 93
      452
310
42D0DBDB1BDC90DA185B99D95104090240C333333333333E3BF0000000000000FB0108901411070040501508421405064090741402480A0350
1001
ACAD
1000
AcDbSavedByObjectVersion
1070
     0
  0
ACAD_PROXY_OBJECT
  5
34
102
{ACAD_REACTORS
330
2A
102
}
330
2A
100
AcDbProxyObject
 90
      499
 91
      501
 93
      500
310
4290DBDB98D95C1D1D585B10940D028333333333333E3BF0000000000000FB0107902409070040501000000000000111010841D405064090740C02480A0340
1001
ACAD
1000
AcDbSavedByObjectVersion
1070
     0
  0
ACAD_PROXY_OBJECT
  5
35
102
{ACAD_REACTORS
330
2A
102
}
330
2A
100
AcDbProxyObject
 90
      499
 91
      501
 93
      412
310
40D11A5B50B409028333333333333E3BF0000000000000FB010790141107004050150841D405064090741402480A02677FFFFFD0
1001
ACAD
1000
AcDbSavedByObjectVersion
1070
     0
  0
ACAD_PROXY_OBJECT
  5
39
102
{ACAD_REACTORS
330
2A
102
}
330
2A
100
AcDbProxyObject
 90
      499
 91
      501
 93
      444
310
42D19858D95C185D1D195C9B90F409028333333333333E3BF0000000000000FB010790141107004050150841D405064090741402480A0350
1001
ACAD
1000
AcDbSavedByObjectVersion
1070
     0
  0
ACAD_PROXY_OBJECT
  5
2B
102
{ACAD_REACTORS
330
2A
102
}
330
2A
100
AcDbProxyObject
 90
      499
 91
      501
 93
      388
310
41119B185D240901404333333333333E3BF0000000000000F9010740A41107004050150841D405064090741402480A1B50
1001
ACAD
1000
AcDbSavedByObjectVersion
1070
     0
  0
ACAD_PROXY_OBJECT
  5
2C
102
{ACAD_REACTORS
330
2A
102
}
330
2A
100
AcDbProxyObject
 90
      499
 91
      501
 93
      476
310
43519B185D15DA5D1A115919D95CD0140901404333333333333E3BF0000000000000F9010740901411070040501600405405064090741402480A1B50
1001
ACAD
1000
AcDbSavedByObjectVersion
1070
     0
  0
ACAD_PROXY_OBJECT
  5
2D
102
{ACAD_REACTORS
330
2A
102
}
330
2A
100
AcDbProxyObject
 90
      499
 91
      501
 93
      412
310
41D1DBDD5C985D5910240902404333333333333E3BF0000000000000F9010740A411070040501641D405064090741402480A1B50
1001
ACAD
1000
AcDbSavedByObjectVersion
1070
     0
  0
ACAD_PROXY_OBJECT
  5
2E
102
{ACAD_REACTORS
330
2A
102
}
330
2A
100
AcDbProxyObject
 90
      499
 91
      501
 93
      500
310
4411DBDD5C985D5915DA5D1A115919D95CD0340902404333333333333E3BF0000000000000F9010740901411070040501600405405064090741402480A1B50
1001
ACAD
1000
AcDbSavedByObjectVersion
1070
     0
  0
ACAD_PROXY_OBJECT
  5
38
102
{ACAD_REACTORS
330
2A
102
}
330
2A
100
AcDbProxyObject
 90
      499
 91
      501
 93
      444
310
42D31A5B995C185D1D195C9B90E409028333333333333E3BF0000000000000FB010790141107004050750841D405064090741402483A0350
1001
ACAD
1000
AcDbSavedByObjectVersion
1070
     0
  0
ACAD_PROXY_OBJECT
  5
33
102
{ACAD_REACTORS
330
2A
102
}
330
2A
100
AcDbProxyObject
 90
      499
 91
      501
 93
      420
310
425499585B1A5CDD1A58D08409028333333333333E3BF0000000000000FB01079019070040501508421405064090741402480A1B40
1001
ACAD
1000
AcDbSavedByObjectVersion
1070
     0
  0
ACAD_PROXY_OBJECT
  5
37
102
{ACAD_REACTORS
330
2A
102
}
330
2A
100
AcDbProxyObject
 90
      499
 91
      501
 93
      412
310
41D51A1A58DAD95B90D409028333333333333E3BF0000000000000FB010790141107004050150C41D405064090741402480A0350
1001
ACAD
1000
AcDbSavedByObjectVersion
1070
     0
  0
XRECORD
  5
207
102
{ACAD_REACTORS
330
1FE
102
}
330
1FE
100
AcDbXrecord
 90
        0
  0
XRECORD
  5
21D
102
{ACAD_REACTORS
330
1FE
102
}
330
1FE
100
AcDbXrecord
1000
DSTYLE
1002
{
1070
   340
340
11
1002
}
  0
XRECORD
  5
208
102
{ACAD_REACTORS
330
1FE
102
}
330
1FE
100
AcDbXrecord
  1
{09B2A3F0-9D22-4FDD-9509-B9BA100BF7AD}
  0
XRECORD
  5
201
102
{ACAD_REACTORS
330
1FE
102
}
330
1FE
100
AcDbXrecord
  1

  0
XRECORD
  5
206
102
{ACAD_REACTORS
330
1FE
102
}
330
1FE
100
AcDbXrecord
 90
        4
  0
XRECORD
  5
203
102
{ACAD_REACTORS
330
1FE
102
}
330
1FE
100
AcDbXrecord
340
1A
  0
XRECORD
  5
205
102
{ACAD_REACTORS
330
1FE
102
}
330
1FE
100
AcDbXrecord
 90
    10781
  0
XRECORD
  5
204
102
{ACAD_REACTORS
330
1FE
102
}
330
1FE
100
AcDbXrecord
340
19
  0
XRECORD
  5
20A
102
{ACAD_REACTORS
330
1FE
102
}
330
1FE
100
AcDbXrecord
 40
0.0
  0
XRECORD
  5
20D
102
{ACAD_REACTORS
330
1FE
102
}
330
1FE
100
AcDbXrecord
340
0
  0
XRECORD
  5
213
102
{ACAD_REACTORS
330
1FE
102
}
330
1FE
100
AcDbXrecord
 10
0.0
 20
0.0
 30
0.0
  0
XRECORD
  5
20F
102
{ACAD_REACTORS
330
1FE
102
}
330
1FE
100
AcDbXrecord
 10
0.0
 20
0.0
 30
0.0
  0
XRECORD
  5
212
102
{ACAD_REACTORS
330
1FE
102
}
330
1FE
100
AcDbXrecord
 10
0.0
 20
0.0
 30
0.0
  0
XRECORD
  5
210
102
{ACAD_REACTORS
330
1FE
102
}
330
1FE
100
AcDbXrecord
 10
0.0
 20
0.0
 30
0.0
  0
XRECORD
  5
211
102
{ACAD_REACTORS
330
1FE
102
}
330
1FE
100
AcDbXrecord
 10
0.0
 20
0.0
 30
0.0
  0
XRECORD
  5
20E
102
{ACAD_REACTORS
330
1FE
102
}
330
1FE
100
AcDbXrecord
 10
0.0
 20
0.0
 30
0.0
  0
XRECORD
  5
20B
102
{ACAD_REACTORS
330
1FE
102
}
330
1FE
100
AcDbXrecord
340
0
  0
XRECORD
  5
20C
102
{ACAD_REACTORS
330
1FE
102
}
330
1FE
100
AcDbXrecord
 70
     0
  0
XRECORD
  5
202
102
{ACAD_REACTORS
330
1FE
102
}
330
1FE
100
AcDbXrecord
  1

  0
XRECORD
  5
1FF
102
{ACAD_REACTORS
330
1FE
102
}
330
1FE
100
AcDbXrecord
 90
        1
  0
XRECORD
  5
200
102
{ACAD_REACTORS
330
1FE
102
}
330
1FE
100
AcDbXrecord
 90
       70
  0
XRECORD
  5
216
102
{ACAD_REACTORS
330
1FE
102
}
330
1FE
100
AcDbXrecord
340
0
  0
XRECORD
  5
21C
102
{ACAD_REACTORS
330
1FE
102
}
330
1FE
100
AcDbXrecord
 10
0.0
 20
0.0
 30
0.0
  0
XRECORD
  5
218
102
{ACAD_REACTORS
330
1FE
102
}
330
1FE
100
AcDbXrecord
 10
0.0
 20
0.0
 30
0.0
  0
XRECORD
  5
21B
102
{ACAD_REACTORS
330
1FE
102
}
330
1FE
100
AcDbXrecord
 10
0.0
 20
0.0
 30
0.0
  0
XRECORD
  5
219
102
{ACAD_REACTORS
330
1FE
102
}
330
1FE
100
AcDbXrecord
 10
0.0
 20
0.0
 30
0.0
  0
XRECORD
  5
21A
102
{ACAD_REACTORS
330
1FE
102
}
330
1FE
100
AcDbXrecord
 10
0.0
 20
0.0
 30
0.0
  0
XRECORD
  5
217
102
{ACAD_REACTORS
330
1FE
102
}
330
1FE
100
AcDbXrecord
 10
0.0
 20
0.0
 30
0.0
  0
XRECORD
  5
214
102
{ACAD_REACTORS
330
1FE
102
}
330
1FE
100
AcDbXrecord
340
0
  0
XRECORD
  5
215
102
{ACAD_REACTORS
330
1FE
102
}
330
1FE
100
AcDbXrecord
 70
     0
  0
XRECORD
  5
209
102
{ACAD_REACTORS
330
1FE
102
}
330
1FE
100
AcDbXrecord
  1
{FAEB1C32-E019-11D5-929B-00C0DF256EC4}
  0
DICTIONARYVAR
  5
221
102
{ACAD_REACTORS
330
21E
102
}
330
21E
100
DictionaryVariables
280
     0
  1
2
  0
DICTIONARYVAR
  5
222
102
{ACAD_REACTORS
330
21E
102
}
330
21E
100
DictionaryVariables
280
     0
  1
1
  0
DICTIONARY
  5
225
330
3D
100
AcDbDictionary
280
     1
  3
ACAD_XREC_ROUNDTRIP
360
226
  0
DICTIONARY
  5
223
330
3C
100
AcDbDictionary
280
     1
  3
ACAD_XREC_ROUNDTRIP
360
224
  0
DICTIONARY
  5
227
330
3E
100
AcDbDictionary
280
     1
  3
ACAD_XREC_ROUNDTRIP
360
228
  0
XRECORD
  5
226
102
{ACAD_REACTORS
330
225
102
}
330
225
100
AcDbXrecord
102
MATERIAL
148
0.0
149
0.0
149
0.0
 93
        0
 94
      127
282
     0
 72
     1
 77
     1
171
     1
175
     1
179
     1
273
     0
  0
XRECORD
  5
224
102
{ACAD_REACTORS
330
223
102
}
330
223
100
AcDbXrecord
102
MATERIAL
148
0.0
149
0.0
149
0.0
 93
        0
 94
      127
282
     0
 72
     1
 77
     1
171
     1
175
     1
179
     1
273
     0
  0
XRECORD
  5
228
102
{ACAD_REACTORS
330
227
102
}
330
227
100
AcDbXrecord
102
MATERIAL
148
0.0
149
0.0
149
0.0
 93
        0
 94
      127
282
     0
 72
     1
 77
     1
171
     1
175
     1
179
     1
273
     0
  0
ENDSEC
  0
EOF
