  0
SECTION
  2
HEADER
  9
$ACADVER
  1
AC1015
  9
$ACADMAINTVER
 70
     6
  9
$DWGCODEPAGE
  3
ANSI_1252
  9
$INSBASE
 10
0.0
 20
0.0
 30
0.0
  9
$EXTMIN
 10
-7.260660000000001
 20
-7.254899999999999
 30
0.0
  9
$EXTMAX
 10
152.47386
 20
152.3529
 30
0.0
  9
$LIMMIN
 10
-7.260660000000001
 20
-7.254899999999999
  9
$LIMMAX
 10
152.47386
 20
152.3529
  9
$ORTHOMODE
 70
     0
  9
$REGENMODE
 70
     1
  9
$FILLMODE
 70
     1
  9
$QTEXTMODE
 70
     0
  9
$MIRRTEXT
 70
     1
  9
$LTSCALE
 40
1.0
  9
$ATTMODE
 70
     1
  9
$TEXTSIZE
 40
0.2
  9
$TRACEWID
 40
0.05
  9
$TEXTSTYLE
  7
Standard
  9
$CLAYER
  8
0
  9
$CELTYPE
  6
ByLayer
  9
$CECOLOR
 62
   256
  9
$CELTSCALE
 40
1.0
  9
$DISPSILH
 70
     0
  9
$DIMSCALE
 40
1.0
  9
$DIMASZ
 40
0.18
  9
$DIMEXO
 40
0.0625
  9
$DIMDLI
 40
0.38
  9
$DIMRND
 40
0.0
  9
$DIMDLE
 40
0.0
  9
$DIMEXE
 40
0.18
  9
$DIMTP
 40
0.0
  9
$DIMTM
 40
0.0
  9
$DIMTXT
 40
0.18
  9
$DIMCEN
 40
0.09
  9
$DIMTSZ
 40
0.0
  9
$DIMTOL
 70
     0
  9
$DIMLIM
 70
     0
  9
$DIMTIH
 70
     1
  9
$DIMTOH
 70
     1
  9
$DIMSE1
 70
     0
  9
$DIMSE2
 70
     0
  9
$DIMTAD
 70
     0
  9
$DIMZIN
 70
     0
  9
$DIMBLK
  1

  9
$DIMASO
 70
     1
  9
$DIMSHO
 70
     1
  9
$DIMPOST
  1

  9
$DIMAPOST
  1

  9
$DIMALT
 70
     0
  9
$DIMALTD
 70
     2
  9
$DIMALTF
 40
25.4
  9
$DIMLFAC
 40
1.0
  9
$DIMTOFL
 70
     0
  9
$DIMTVP
 40
0.0
  9
$DIMTIX
 70
     0
  9
$DIMSOXD
 70
     0
  9
$DIMSAH
 70
     0
  9
$DIMBLK1
  1

  9
$DIMBLK2
  1

  9
$DIMSTYLE
  2
Standard
  9
$DIMCLRD
 70
     0
  9
$DIMCLRE
 70
     0
  9
$DIMCLRT
 70
     0
  9
$DIMTFAC
 40
1.0
  9
$DIMGAP
 40
0.09
  9
$DIMJUST
 70
     0
  9
$DIMSD1
 70
     0
  9
$DIMSD2
 70
     0
  9
$DIMTOLJ
 70
     1
  9
$DIMTZIN
 70
     0
  9
$DIMALTZ
 70
     0
  9
$DIMALTTZ
 70
     0
  9
$DIMUPT
 70
     0
  9
$DIMDEC
 70
     4
  9
$DIMTDEC
 70
     4
  9
$DIMALTU
 70
     2
  9
$DIMALTTD
 70
     2
  9
$DIMTXSTY
  7
Standard
  9
$DIMAUNIT
 70
     0
  9
$DIMADEC
 70
     0
  9
$DIMALTRND
 40
0.0
  9
$DIMAZIN
 70
     0
  9
$DIMDSEP
 70
    46
  9
$DIMATFIT
 70
     3
  9
$DIMFRAC
 70
     0
  9
$DIMLDRBLK
  1

  9
$DIMLUNIT
 70
     2
  9
$DIMLWD
 70
    -2
  9
$DIMLWE
 70
    -2
  9
$DIMTMOVE
 70
     0
  9
$LUNITS
 70
     2
  9
$LUPREC
 70
     4
  9
$SKETCHINC
 40
0.1
  9
$FILLETRAD
 40
0.5
  9
$AUNITS
 70
     0
  9
$AUPREC
 70
     0
  9
$MENU
  1
.
  9
$ELEVATION
 40
0.0
  9
$PELEVATION
 40
0.0
  9
$THICKNESS
 40
0.0
  9
$LIMCHECK
 70
     0
  9
$CHAMFERA
 40
0.5
  9
$CHAMFERB
 40
0.5
  9
$CHAMFERC
 40
1.0
  9
$CHAMFERD
 40
0.0
  9
$SKPOLY
 70
     0
  9
$TDCREATE
 40
2456153.379856597
  9
$TDUCREATE
 40
2456153.629856597
  9
$TDUPDATE
 40
2456153.379856609
  9
$TDUUPDATE
 40
2456153.629856609
  9
$TDINDWG
 40
0.0000000116
  9
$TDUSRTIMER
 40
0.0000000116
  9
$USRTIMER
 70
     1
  9
$ANGBASE
 50
0.0
  9
$ANGDIR
 70
     0
  9
$PDMODE
 70
     0
  9
$PDSIZE
 40
0.0
  9
$PLINEWID
 40
0.0
  9
$SPLFRAME
 70
     0
  9
$SPLINETYPE
 70
     6
  9
$SPLINESEGS
 70
     8
  9
$HANDSEED
  5
4D6
  9
$SURFTAB1
 70
     6
  9
$SURFTAB2
 70
     6
  9
$SURFTYPE
 70
     6
  9
$SURFU
 70
     6
  9
$SURFV
 70
     6
  9
$UCSBASE
  2

  9
$UCSNAME
  2

  9
$UCSORG
 10
0.0
 20
0.0
 30
0.0
  9
$UCSXDIR
 10
1.0
 20
0.0
 30
0.0
  9
$UCSYDIR
 10
0.0
 20
1.0
 30
0.0
  9
$UCSORTHOREF
  2

  9
$UCSORTHOVIEW
 70
     0
  9
$UCSORGTOP
 10
0.0
 20
0.0
 30
0.0
  9
$UCSORGBOTTOM
 10
0.0
 20
0.0
 30
0.0
  9
$UCSORGLEFT
 10
0.0
 20
0.0
 30
0.0
  9
$UCSORGRIGHT
 10
0.0
 20
0.0
 30
0.0
  9
$UCSORGFRONT
 10
0.0
 20
0.0
 30
0.0
  9
$UCSORGBACK
 10
0.0
 20
0.0
 30
0.0
  9
$PUCSBASE
  2

  9
$PUCSNAME
  2

  9
$PUCSORG
 10
0.0
 20
0.0
 30
0.0
  9
$PUCSXDIR
 10
1.0
 20
0.0
 30
0.0
  9
$PUCSYDIR
 10
0.0
 20
1.0
 30
0.0
  9
$PUCSORTHOREF
  2

  9
$PUCSORTHOVIEW
 70
     0
  9
$PUCSORGTOP
 10
0.0
 20
0.0
 30
0.0
  9
$PUCSORGBOTTOM
 10
0.0
 20
0.0
 30
0.0
  9
$PUCSORGLEFT
 10
0.0
 20
0.0
 30
0.0
  9
$PUCSORGRIGHT
 10
0.0
 20
0.0
 30
0.0
  9
$PUCSORGFRONT
 10
0.0
 20
0.0
 30
0.0
  9
$PUCSORGBACK
 10
0.0
 20
0.0
 30
0.0
  9
$USERI1
 70
     0
  9
$USERI2
 70
     0
  9
$USERI3
 70
     0
  9
$USERI4
 70
     0
  9
$USERI5
 70
     0
  9
$USERR1
 40
0.0
  9
$USERR2
 40
0.0
  9
$USERR3
 40
0.0
  9
$USERR4
 40
0.0
  9
$USERR5
 40
0.0
  9
$WORLDVIEW
 70
     1
  9
$SHADEDGE
 70
     3
  9
$SHADEDIF
 70
    70
  9
$TILEMODE
 70
     1
  9
$MAXACTVP
 70
    64
  9
$PINSBASE
 10
0.0
 20
0.0
 30
0.0
  9
$PLIMCHECK
 70
     0
  9
$PEXTMIN
 10
1.000000000000000E+20
 20
1.000000000000000E+20
 30
1.000000000000000E+20
  9
$PEXTMAX
 10
-1.000000000000000E+20
 20
-1.000000000000000E+20
 30
-1.000000000000000E+20
  9
$PLIMMIN
 10
0.0
 20
0.0
  9
$PLIMMAX
 10
12.0
 20
9.0
  9
$UNITMODE
 70
     0
  9
$VISRETAIN
 70
     1
  9
$PLINEGEN
 70
     0
  9
$PSLTSCALE
 70
     1
  9
$TREEDEPTH
 70
  3020
  9
$CMLSTYLE
  2
Standard
  9
$CMLJUST
 70
     0
  9
$CMLSCALE
 40
1.0
  9
$PROXYGRAPHICS
 70
     1
  9
$MEASUREMENT
 70
     0
  9
$CELWEIGHT
370
    -1
  9
$ENDCAPS
280
     0
  9
$JOINSTYLE
280
     0
  9
$LWDISPLAY
290
     0
  9
$INSUNITS
 70
     4
  9
$HYPERLINKBASE
  1

  9
$STYLESHEET
  1

  9
$XEDIT
290
     1
  9
$CEPSNTYPE
380
     0
  9
$PSTYLEMODE
290
     1
  9
$FINGERPRINTGUID
  2
{29072C65-14EE-4EBC-A89D-A638E2EF746A}
  9
$VERSIONGUID
  2
{FAEB1C32-E019-11D5-929B-00C0DF256EC4}
  9
$EXTNAMES
290
     1
  9
$PSVPSCALE
 40
0.0
  9
$OLESTARTUP
290
     0
  0
ENDSEC
  0
SECTION
  2
CLASSES
  0
CLASS
  1
ACDBDICTIONARYWDFLT
  2
AcDbDictionaryWithDefault
  3
ObjectDBX Classes
 90
        0
280
     0
281
     0
  0
CLASS
  1
VISUALSTYLE
  2
AcDbVisualStyle
  3
ObjectDBX Classes
 90
     4095
280
     0
281
     0
  0
CLASS
  1
MATERIAL
  2
AcDbMaterial
  3
ObjectDBX Classes
 90
     1153
280
     0
281
     0
  0
CLASS
  1
DICTIONARYVAR
  2
AcDbDictionaryVar
  3
ObjectDBX Classes
 90
        0
280
     0
281
     0
  0
CLASS
  1
ACDBPLACEHOLDER
  2
AcDbPlaceHolder
  3
ObjectDBX Classes
 90
        0
280
     0
281
     0
  0
CLASS
  1
LAYOUT
  2
AcDbLayout
  3
ObjectDBX Classes
 90
        0
280
     0
281
     0
  0
ENDSEC
  0
SECTION
  2
TABLES
  0
TABLE
  2
VPORT
  5
8
330
0
100
AcDbSymbolTable
 70
     1
  0
VPORT
  5
29
330
8
100
AcDbSymbolTableRecord
100
AcDbViewportTableRecord
  2
*Active
 70
     0
 10
0.0
 20
0.0
 11
1.0
 21
1.0
 12
-7.260660000000001
 22
72.54899999999999
 13
0.0
 23
0.0
 14
0.5
 24
0.5
 15
0.5
 25
0.5
 16
0.0
 26
0.0
 36
1.0
 17
0.0
 27
0.0
 37
0.0
 40
159.6078
 41
0.1112524372596638
 42
50.0
 43
0.0
 44
0.0
 50
0.0
 51
0.0
 71
     0
 72
   100
 73
     1
 74
     3
 75
     0
 76
     0
 77
     0
 78
     0
281
     0
 65
     1
110
0.0
120
0.0
130
0.0
111
1.0
121
0.0
131
0.0
112
0.0
122
1.0
132
0.0
 79
     0
146
0.0
  0
ENDTAB
  0
TABLE
  2
LTYPE
  5
5
330
0
100
AcDbSymbolTable
 70
    10
  0
LTYPE
  5
14
330
5
100
AcDbSymbolTableRecord
100
AcDbLinetypeTableRecord
  2
ByBlock
 70
     0
  3

 72
    65
 73
     0
 40
0.0
  0
LTYPE
  5
15
330
5
100
AcDbSymbolTableRecord
100
AcDbLinetypeTableRecord
  2
ByLayer
 70
     0
  3

 72
    65
 73
     0
 40
0.0
  0
LTYPE
  5
16
330
5
100
AcDbSymbolTableRecord
100
AcDbLinetypeTableRecord
  2
Continuous
 70
     0
  3
Solid line
 72
    65
 73
     0
 40
0.0
  0
LTYPE
  5
53
330
5
100
AcDbSymbolTableRecord
100
AcDbLinetypeTableRecord
  2
ZIGZAG
 70
     0
  3
/\/\/\/\/\/\/\/\
 72
    65
 73
     4
 40
20.32254
 49
0.00254
 74
     0
 49
-5.08
 74
     4
 75
   131
340
52
 46
5.08
 50
0.0
 44
-5.08
 45
0.0
 49
-10.16
 74
     4
 75
   131
340
52
 46
5.08
 50
180.0
 44
5.08
 45
0.0
 49
-5.08
 74
     0
  0
LTYPE
  5
54
330
5
100
AcDbSymbolTableRecord
100
AcDbLinetypeTableRecord
  2
BATTING
 70
     0
  3
 SSSSSSSSSSSSSSSSSSSSSS
 72
    65
 73
     4
 40
10.16254
 49
0.00254
 74
     0
 49
-2.54
 74
     4
 75
   134
340
52
 46
2.54
 50
0.0
 44
-2.54
 45
0.0
 49
-5.08
 74
     4
 75
   134
340
52
 46
2.54
 50
180.0
 44
2.54
 45
0.0
 49
-2.54
 74
     0
  0
LTYPE
  5
55
330
5
100
AcDbSymbolTableRecord
100
AcDbLinetypeTableRecord
  2
DASHDOT
 70
     0
  3
DASHDOT
 72
    65
 73
     4
 40
1.0
 49
0.5
 74
     0
 49
-0.25
 74
     0
 49
0.0001
 74
     0
 49
-0.25
 74
     0
  0
LTYPE
  5
56
330
5
100
AcDbSymbolTableRecord
100
AcDbLinetypeTableRecord
  2
DASHDOTX2
 70
     0
  3
DASHDOTX2
 72
    65
 73
     4
 40
1.0
 49
1.0
 74
     0
 49
-0.5
 74
     0
 49
0.0002
 74
     0
 49
-0.5
 74
     0
  0
LTYPE
  5
57
330
5
100
AcDbSymbolTableRecord
100
AcDbLinetypeTableRecord
  2
DASHED
 70
     0
  3
DASHED
 72
    65
 73
     2
 40
0.75
 49
0.5
 74
     0
 49
-0.25
 74
     0
  0
LTYPE
  5
58
330
5
100
AcDbSymbolTableRecord
100
AcDbLinetypeTableRecord
  2
TRACKS
 70
     0
  3
TRACKS
 72
    65
 73
     2
 40
7.62
 49
3.81
 74
     0
 49
3.81
 74
     0
  0
LTYPE
  5
59
330
5
100
AcDbSymbolTableRecord
100
AcDbLinetypeTableRecord
  2
DOT
 70
     0
  3
DOT
 72
    65
 73
     2
 40
0.25
 49
0.0001
 74
     0
 49
-0.25
 74
     0
  0
LTYPE
  5
5A
330
5
100
AcDbSymbolTableRecord
100
AcDbLinetypeTableRecord
  2
DIVIDE
 70
     0
  3
DIVIDE
 72
    65
 73
     6
 40
1.25
 49
0.5
 74
     0
 49
-0.25
 74
     0
 49
0.0001
 74
     0
 49
-0.25
 74
     0
 49
0.0001
 74
     0
 49
-0.25
 74
     0
  0
LTYPE
  5
5B
330
5
100
AcDbSymbolTableRecord
100
AcDbLinetypeTableRecord
  2
PHANTOM
 70
     0
  3
PHANTOM
 72
    65
 73
     6
 40
2.5
 49
1.25
 74
     0
 49
-0.25
 74
     0
 49
0.25
 74
     0
 49
-0.25
 74
     0
 49
0.25
 74
     0
 49
-0.25
 74
     0
  0
ENDTAB
  0
TABLE
  2
LAYER
  5
2
330
0
100
AcDbSymbolTable
 70
   249
  0
LAYER
  5
10
330
2
100
AcDbSymbolTableRecord
100
AcDbLayerTableRecord
  2
0
 70
     0
 62
     7
  6
Continuous
370
    35
390
F
  0
LAYER
  5
5C
330
2
100
AcDbSymbolTableRecord
100
AcDbLayerTableRecord
  2
DONT
 70
     0
 62
     7
  6
Continuous
370
    35
390
F
  0
LAYER
  5
5D
330
2
100
AcDbSymbolTableRecord
100
AcDbLayerTableRecord
  2
TEXT
 70
     0
 62
     7
  6
Continuous
370
    35
390
F
  0
LAYER
  5
5E
330
2
100
AcDbSymbolTableRecord
100
AcDbLayerTableRecord
  2
3 Texts
 70
     0
 62
     7
  6
Continuous
370
    35
390
F
  0
LAYER
  5
5F
330
2
100
AcDbSymbolTableRecord
100
AcDbLayerTableRecord
  2
4 Dimensions
 70
     0
 62
     7
  6
Continuous
370
    35
390
F
  0
LAYER
  5
60
330
2
100
AcDbSymbolTableRecord
100
AcDbLayerTableRecord
  2
5 Hatches
 70
     0
 62
     7
  6
Continuous
370
    35
390
F
  0
LAYER
  5
61
330
2
100
AcDbSymbolTableRecord
100
AcDbLayerTableRecord
  2
6 Drawing Origin Marker
 70
     0
 62
     7
  6
Continuous
370
    35
390
F
  0
LAYER
  5
62
330
2
100
AcDbSymbolTableRecord
100
AcDbLayerTableRecord
  2
7 Sheet
 70
     0
 62
     7
  6
Continuous
370
    35
390
F
  0
LAYER
  5
63
330
2
100
AcDbSymbolTableRecord
100
AcDbLayerTableRecord
  2
8 Other
 70
     0
 62
     7
  6
Continuous
370
    35
390
F
  0
LAYER
  5
64
330
2
100
AcDbSymbolTableRecord
100
AcDbLayerTableRecord
  2
9 Never-Hiding Lines
 70
     0
 62
     7
  6
Continuous
370
    35
390
F
  0
LAYER
  5
65
330
2
100
AcDbSymbolTableRecord
100
AcDbLayerTableRecord
  2
10 Raster Images
 70
     0
 62
     7
  6
Continuous
370
    35
390
F
  0
LAYER
  5
66
330
2
100
AcDbSymbolTableRecord
100
AcDbLayerTableRecord
  2
11 Wall Rough Frame
 70
     0
 62
     7
  6
Continuous
370
    35
390
F
  0
LAYER
  5
67
330
2
100
AcDbSymbolTableRecord
100
AcDbLayerTableRecord
  2
12 Wall Ext Surface
 70
     0
 62
     7
  6
Continuous
370
    35
390
F
  0
LAYER
  5
68
330
2
100
AcDbSymbolTableRecord
100
AcDbLayerTableRecord
  2
13 Wall Int Surface
 70
     0
 62
     7
  6
Continuous
370
    35
390
F
  0
LAYER
  5
69
330
2
100
AcDbSymbolTableRecord
100
AcDbLayerTableRecord
  2
14 Wall Other Lines
 70
     0
 62
     7
  6
Continuous
370
    35
390
F
  0
LAYER
  5
6A
330
2
100
AcDbSymbolTableRecord
100
AcDbLayerTableRecord
  2
16 Wall Insulation
 70
     0
 62
     7
  6
Continuous
370
    35
390
F
  0
LAYER
  5
6B
330
2
100
AcDbSymbolTableRecord
100
AcDbLayerTableRecord
  2
17 Wall Framing Lines
 70
     0
 62
     7
  6
Continuous
370
    35
390
F
  0
LAYER
  5
6C
330
2
100
AcDbSymbolTableRecord
100
AcDbLayerTableRecord
  2
18 Wall Bottom Plate
 70
     0
 62
     7
  6
Continuous
370
    35
390
F
  0
LAYER
  5
6D
330
2
100
AcDbSymbolTableRecord
100
AcDbLayerTableRecord
  2
19 Wall Hatch Patterns
 70
     0
 62
     7
  6
Continuous
370
    35
390
F
  0
LAYER
  5
6E
330
2
100
AcDbSymbolTableRecord
100
AcDbLayerTableRecord
  2
20 Wall_ Space Divider
 70
     0
 62
     7
  6
Continuous
370
    35
390
F
  0
LAYER
  5
6F
330
2
100
AcDbSymbolTableRecord
100
AcDbLayerTableRecord
  2
21 Foundation
 70
     0
 62
     7
  6
Continuous
370
    35
390
F
  0
LAYER
  5
70
330
2
100
AcDbSymbolTableRecord
100
AcDbLayerTableRecord
  2
22 Fill (Color)
 70
     0
 62
     7
  6
Continuous
370
    35
390
F
  0
LAYER
  5
71
330
2
100
AcDbSymbolTableRecord
100
AcDbLayerTableRecord
  2
23 Foundation Hatch
 70
     0
 62
     7
  6
Continuous
370
    35
390
F
  0
LAYER
  5
72
330
2
100
AcDbSymbolTableRecord
100
AcDbLayerTableRecord
  2
24 Module lines (grid)
 70
     0
 62
     7
  6
Continuous
370
    35
390
F
  0
LAYER
  5
73
330
2
100
AcDbSymbolTableRecord
100
AcDbLayerTableRecord
  2
25 Opening Labels
 70
     0
 62
     7
  6
Continuous
370
    35
390
F
  0
LAYER
  5
74
330
2
100
AcDbSymbolTableRecord
100
AcDbLayerTableRecord
  2
26 Openings Windows
 70
     0
 62
     7
  6
Continuous
370
    35
390
F
  0
LAYER
  5
75
330
2
100
AcDbSymbolTableRecord
100
AcDbLayerTableRecord
  2
27 Openings Doors
 70
     0
 62
     7
  6
Continuous
370
    35
390
F
  0
LAYER
  5
76
330
2
100
AcDbSymbolTableRecord
100
AcDbLayerTableRecord
  2
28 Openings Other
 70
     0
 62
     7
  6
Continuous
370
    35
390
F
  0
LAYER
  5
77
330
2
100
AcDbSymbolTableRecord
100
AcDbLayerTableRecord
  2
31 Wall Color Fill
 70
     0
 62
     7
  6
Continuous
370
    35
390
F
  0
LAYER
  5
78
330
2
100
AcDbSymbolTableRecord
100
AcDbLayerTableRecord
  2
32 Wall Center Line
 70
     0
 62
     7
  6
Continuous
370
    35
390
F
  0
LAYER
  5
79
330
2
100
AcDbSymbolTableRecord
100
AcDbLayerTableRecord
  2
33 Opening Sheet Labels
 70
     0
 62
    -7
  6
Continuous
370
    35
390
F
  0
LAYER
  5
7A
330
2
100
AcDbSymbolTableRecord
100
AcDbLayerTableRecord
  2
34 Outdoor Components
 70
     0
 62
     7
  6
Continuous
370
    35
390
F
  0
LAYER
  5
7B
330
2
100
AcDbSymbolTableRecord
100
AcDbLayerTableRecord
  2
35 Lawn Furniture
 70
     0
 62
     7
  6
Continuous
370
    35
390
F
  0
LAYER
  5
7C
330
2
100
AcDbSymbolTableRecord
100
AcDbLayerTableRecord
  2
36 Furniture
 70
     0
 62
     7
  6
Continuous
370
    35
390
F
  0
LAYER
  5
7D
330
2
100
AcDbSymbolTableRecord
100
AcDbLayerTableRecord
  2
37 Extra Materials
 70
     0
 62
     7
  6
Continuous
370
    35
390
F
  0
LAYER
  5
7E
330
2
100
AcDbSymbolTableRecord
100
AcDbLayerTableRecord
  2
38 Furniture markings
 70
     0
 62
     7
  6
Continuous
370
    35
390
F
  0
LAYER
  5
7F
330
2
100
AcDbSymbolTableRecord
100
AcDbLayerTableRecord
  2
39 Furniture labels
 70
     0
 62
     7
  6
Continuous
370
    35
390
F
  0
LAYER
  5
80
330
2
100
AcDbSymbolTableRecord
100
AcDbLayerTableRecord
  2
40 Floor Shape Lines
 70
     0
 62
     7
  6
Continuous
370
    35
390
F
  0
LAYER
  5
81
330
2
100
AcDbSymbolTableRecord
100
AcDbLayerTableRecord
  2
41 Surface Hatch
 70
     0
 62
     7
  6
Continuous
370
    35
390
F
  0
LAYER
  5
82
330
2
100
AcDbSymbolTableRecord
100
AcDbLayerTableRecord
  2
42 Framing Pieces
 70
     0
 62
     7
  6
Continuous
370
    35
390
F
  0
LAYER
  5
83
330
2
100
AcDbSymbolTableRecord
100
AcDbLayerTableRecord
  2
43 Piece Labels
 70
     0
 62
     7
  6
Continuous
370
    35
390
F
  0
LAYER
  5
84
330
2
100
AcDbSymbolTableRecord
100
AcDbLayerTableRecord
  2
44 Piece Schedules
 70
     0
 62
     7
  6
Continuous
370
    35
390
F
  0
LAYER
  5
85
330
2
100
AcDbSymbolTableRecord
100
AcDbLayerTableRecord
  2
45 Pan.Layout Center Lns
 70
     0
 62
     7
  6
Continuous
370
    35
390
F
  0
LAYER
  5
86
330
2
100
AcDbSymbolTableRecord
100
AcDbLayerTableRecord
  2
46 2nd Pan.CL
 70
     0
 62
     7
  6
Continuous
370
    35
390
F
  0
LAYER
  5
87
330
2
100
AcDbSymbolTableRecord
100
AcDbLayerTableRecord
  2
47 Outlines
 70
     0
 62
     7
  6
Continuous
370
    35
390
F
  0
LAYER
  5
88
330
2
100
AcDbSymbolTableRecord
100
AcDbLayerTableRecord
  2
48 Labels
 70
     0
 62
     7
  6
Continuous
370
    35
390
F
  0
LAYER
  5
89
330
2
100
AcDbSymbolTableRecord
100
AcDbLayerTableRecord
  2
49 Assembly
 70
     0
 62
     7
  6
Continuous
370
    35
390
F
  0
LAYER
  5
8A
330
2
100
AcDbSymbolTableRecord
100
AcDbLayerTableRecord
  2
50 Ceiling Shape Lines
 70
     0
 62
     7
  6
Continuous
370
    35
390
F
  0
LAYER
  5
8B
330
2
100
AcDbSymbolTableRecord
100
AcDbLayerTableRecord
  2
51 Surface Hatch
 70
     0
 62
     7
  6
Continuous
370
    35
390
F
  0
LAYER
  5
8C
330
2
100
AcDbSymbolTableRecord
100
AcDbLayerTableRecord
  2
52 Framing Pieces
 70
     0
 62
     7
  6
Continuous
370
    35
390
F
  0
LAYER
  5
8D
330
2
100
AcDbSymbolTableRecord
100
AcDbLayerTableRecord
  2
53 Piece Labels
 70
     0
 62
     7
  6
Continuous
370
    35
390
F
  0
LAYER
  5
8E
330
2
100
AcDbSymbolTableRecord
100
AcDbLayerTableRecord
  2
54 Structural Design Labels
 70
     0
 62
     7
  6
Continuous
370
    35
390
F
  0
LAYER
  5
8F
330
2
100
AcDbSymbolTableRecord
100
AcDbLayerTableRecord
  2
55 Room Labels
 70
     0
 62
     7
  6
Continuous
370
    35
390
F
  0
LAYER
  5
90
330
2
100
AcDbSymbolTableRecord
100
AcDbLayerTableRecord
  2
56 Room Hatch
 70
     0
 62
    -7
  6
Continuous
370
    35
390
F
  0
LAYER
  5
91
330
2
100
AcDbSymbolTableRecord
100
AcDbLayerTableRecord
  2
57 Floor Area
 70
     0
 62
     7
  6
Continuous
370
    35
390
F
  0
LAYER
  5
92
330
2
100
AcDbSymbolTableRecord
100
AcDbLayerTableRecord
  2
58 Total Floor Area
 70
     0
 62
     7
  6
Continuous
370
    35
390
F
  0
LAYER
  5
93
330
2
100
AcDbSymbolTableRecord
100
AcDbLayerTableRecord
  2
59 Component color fill
 70
     0
 62
     7
  6
Continuous
370
    35
390
F
  0
LAYER
  5
94
330
2
100
AcDbSymbolTableRecord
100
AcDbLayerTableRecord
  2
60 Electrical Symbols
 70
     0
 62
     7
  6
Continuous
370
    35
390
F
  0
LAYER
  5
95
330
2
100
AcDbSymbolTableRecord
100
AcDbLayerTableRecord
  2
61 Cables
 70
     0
 62
     7
  6
Continuous
370
    35
390
F
  0
LAYER
  5
96
330
2
100
AcDbSymbolTableRecord
100
AcDbLayerTableRecord
  2
62 Legend
 70
     0
 62
     7
  6
Continuous
370
    35
390
F
  0
LAYER
  5
97
330
2
100
AcDbSymbolTableRecord
100
AcDbLayerTableRecord
  2
63 Text & Dimensions
 70
     0
 62
     7
  6
Continuous
370
    35
390
F
  0
LAYER
  5
98
330
2
100
AcDbSymbolTableRecord
100
AcDbLayerTableRecord
  2
64 Ceiling Lights
 70
     0
 62
     7
  6
Continuous
370
    35
390
F
  0
LAYER
  5
99
330
2
100
AcDbSymbolTableRecord
100
AcDbLayerTableRecord
  2
65 HVAC Symbols
 70
     0
 62
     7
  6
Continuous
370
    35
390
F
  0
LAYER
  5
9A
330
2
100
AcDbSymbolTableRecord
100
AcDbLayerTableRecord
  2
66 Piping
 70
     0
 62
     7
  6
Continuous
370
    35
390
F
  0
LAYER
  5
9B
330
2
100
AcDbSymbolTableRecord
100
AcDbLayerTableRecord
  2
67 Legend
 70
     0
 62
     7
  6
Continuous
370
    35
390
F
  0
LAYER
  5
9C
330
2
100
AcDbSymbolTableRecord
100
AcDbLayerTableRecord
  2
68 Text & Dimensions
 70
     0
 62
     7
  6
Continuous
370
    35
390
F
  0
LAYER
  5
9D
330
2
100
AcDbSymbolTableRecord
100
AcDbLayerTableRecord
  2
69 HVAC fittings and furnitures
 70
     0
 62
     7
  6
Continuous
370
    35
390
F
  0
LAYER
  5
9E
330
2
100
AcDbSymbolTableRecord
100
AcDbLayerTableRecord
  2
70 Plumbing Symbols
 70
     0
 62
     7
  6
Continuous
370
    35
390
F
  0
LAYER
  5
9F
330
2
100
AcDbSymbolTableRecord
100
AcDbLayerTableRecord
  2
71 Piping
 70
     0
 62
     7
  6
Continuous
370
    35
390
F
  0
LAYER
  5
A0
330
2
100
AcDbSymbolTableRecord
100
AcDbLayerTableRecord
  2
72 Legend
 70
     0
 62
     7
  6
Continuous
370
    35
390
F
  0
LAYER
  5
A1
330
2
100
AcDbSymbolTableRecord
100
AcDbLayerTableRecord
  2
73 Text & Dimensions
 70
     0
 62
     7
  6
Continuous
370
    35
390
F
  0
LAYER
  5
A2
330
2
100
AcDbSymbolTableRecord
100
AcDbLayerTableRecord
  2
74 Texts of the Stairs
 70
     0
 62
     7
  6
Continuous
370
    35
390
F
  0
LAYER
  5
A3
330
2
100
AcDbSymbolTableRecord
100
AcDbLayerTableRecord
  2
75 Appliances
 70
     0
 62
     7
  6
Continuous
370
    35
390
F
  0
LAYER
  5
A4
330
2
100
AcDbSymbolTableRecord
100
AcDbLayerTableRecord
  2
76 Cabinets & Vanities
 70
     0
 62
     7
  6
Continuous
370
    35
390
F
  0
LAYER
  5
A5
330
2
100
AcDbSymbolTableRecord
100
AcDbLayerTableRecord
  2
77 Texts
 70
     0
 62
     7
  6
Continuous
370
    35
390
F
  0
LAYER
  5
A6
330
2
100
AcDbSymbolTableRecord
100
AcDbLayerTableRecord
  2
78 Dimensions
 70
     0
 62
     7
  6
Continuous
370
    35
390
F
  0
LAYER
  5
A7
330
2
100
AcDbSymbolTableRecord
100
AcDbLayerTableRecord
  2
79 Hardware
 70
     0
 62
     7
  6
Continuous
370
    35
390
F
  0
LAYER
  5
A8
330
2
100
AcDbSymbolTableRecord
100
AcDbLayerTableRecord
  2
80 Countertop
 70
     0
 62
     7
  6
Continuous
370
    35
390
F
  0
LAYER
  5
A9
330
2
100
AcDbSymbolTableRecord
100
AcDbLayerTableRecord
  2
81 Countertop Hatch
 70
     0
 62
    -7
  6
Continuous
370
    35
390
F
  0
LAYER
  5
AA
330
2
100
AcDbSymbolTableRecord
100
AcDbLayerTableRecord
  2
82 Stairs
 70
     0
 62
     7
  6
Continuous
370
    35
390
F
  0
LAYER
  5
AB
330
2
100
AcDbSymbolTableRecord
100
AcDbLayerTableRecord
  2
83 Railings
 70
     0
 62
     7
  6
Continuous
370
    35
390
F
  0
LAYER
  5
AC
330
2
100
AcDbSymbolTableRecord
100
AcDbLayerTableRecord
  2
84 Fireplaces
 70
     0
 62
     7
  6
Continuous
370
    35
390
F
  0
LAYER
  5
AD
330
2
100
AcDbSymbolTableRecord
100
AcDbLayerTableRecord
  2
85 Bulkheads
 70
     0
 62
     7
  6
Continuous
370
    35
390
F
  0
LAYER
  5
AE
330
2
100
AcDbSymbolTableRecord
100
AcDbLayerTableRecord
  2
86 Closet Shelving
 70
     0
 62
     7
  6
Continuous
370
    35
390
F
  0
LAYER
  5
AF
330
2
100
AcDbSymbolTableRecord
100
AcDbLayerTableRecord
  2
87 Chimneys
 70
     0
 62
     7
  6
Continuous
370
    35
390
F
  0
LAYER
  5
B0
330
2
100
AcDbSymbolTableRecord
100
AcDbLayerTableRecord
  2
88 Additional components_ decorations etc
 70
     0
 62
     7
  6
Continuous
370
    35
390
F
  0
LAYER
  5
B1
330
2
100
AcDbSymbolTableRecord
100
AcDbLayerTableRecord
  2
89 Constr.Det.Macros
 70
     0
 62
     7
  6
Continuous
370
    35
390
F
  0
LAYER
  5
B2
330
2
100
AcDbSymbolTableRecord
100
AcDbLayerTableRecord
  2
90 Section marks
 70
     0
 62
     7
  6
Continuous
370
    35
390
F
  0
LAYER
  5
B3
330
2
100
AcDbSymbolTableRecord
100
AcDbLayerTableRecord
  2
91 Profile Detailing
 70
     0
 62
     7
  6
Continuous
370
    35
390
F
  0
LAYER
  5
B4
330
2
100
AcDbSymbolTableRecord
100
AcDbLayerTableRecord
  2
92 Dimension Constraints
 70
     0
 62
     7
  6
Continuous
370
    35
390
F
  0
LAYER
  5
B5
330
2
100
AcDbSymbolTableRecord
100
AcDbLayerTableRecord
  2
93 Dashing Ground Line
 70
     0
 62
     7
  6
Continuous
370
    35
390
F
  0
LAYER
  5
B6
330
2
100
AcDbSymbolTableRecord
100
AcDbLayerTableRecord
  2
94 Clipping Ground Line
 70
     0
 62
     7
  6
Continuous
370
    35
390
F
  0
LAYER
  5
B7
330
2
100
AcDbSymbolTableRecord
100
AcDbLayerTableRecord
  2
95 Shadows
 70
     0
 62
     7
  6
Continuous
370
    35
390
F
  0
LAYER
  5
B8
330
2
100
AcDbSymbolTableRecord
100
AcDbLayerTableRecord
  2
96 Elev. Color Fill
 70
     0
 62
     7
  6
Continuous
370
    35
390
F
  0
LAYER
  5
B9
330
2
100
AcDbSymbolTableRecord
100
AcDbLayerTableRecord
  2
97 Simplifying lines
 70
     0
 62
     7
  6
Continuous
370
    35
390
F
  0
LAYER
  5
BA
330
2
100
AcDbSymbolTableRecord
100
AcDbLayerTableRecord
  2
98 Floor Area Text
 70
     0
 62
     7
  6
Continuous
370
    35
390
F
  0
LAYER
  5
BB
330
2
100
AcDbSymbolTableRecord
100
AcDbLayerTableRecord
  2
099
 70
     0
 62
    -7
  6
Continuous
370
    35
390
F
  0
LAYER
  5
BC
330
2
100
AcDbSymbolTableRecord
100
AcDbLayerTableRecord
  2
100
 70
     0
 62
    -7
  6
Continuous
370
    35
390
F
  0
LAYER
  5
BD
330
2
100
AcDbSymbolTableRecord
100
AcDbLayerTableRecord
  2
102
 70
     0
 62
    -7
  6
Continuous
370
    35
390
F
  0
LAYER
  5
BE
330
2
100
AcDbSymbolTableRecord
100
AcDbLayerTableRecord
  2
103 Roof Shape Lines
 70
     0
 62
     7
  6
Continuous
370
    35
390
F
  0
LAYER
  5
BF
330
2
100
AcDbSymbolTableRecord
100
AcDbLayerTableRecord
  2
104 Roof Hatch Patterns
 70
     0
 62
     7
  6
Continuous
370
    35
390
F
  0
LAYER
  5
C0
330
2
100
AcDbSymbolTableRecord
100
AcDbLayerTableRecord
  2
105 Framing Pieces
 70
     0
 62
     7
  6
Continuous
370
    35
390
F
  0
LAYER
  5
C1
330
2
100
AcDbSymbolTableRecord
100
AcDbLayerTableRecord
  2
106 Piece Labels
 70
     0
 62
     7
  6
Continuous
370
    35
390
F
  0
LAYER
  5
C2
330
2
100
AcDbSymbolTableRecord
100
AcDbLayerTableRecord
  2
107 Grilles
 70
     0
 62
     7
  6
Continuous
370
    35
390
F
  0
LAYER
  5
C3
330
2
100
AcDbSymbolTableRecord
100
AcDbLayerTableRecord
  2
108 Eave Lines
 70
     0
 62
     7
  6
Continuous
370
    35
390
F
  0
LAYER
  5
C4
330
2
100
AcDbSymbolTableRecord
100
AcDbLayerTableRecord
  2
109 Soffits
 70
     0
 62
     7
  6
Continuous
370
    35
390
F
  0
LAYER
  5
C5
330
2
100
AcDbSymbolTableRecord
100
AcDbLayerTableRecord
  2
110 Window_Door Trim
 70
     0
 62
     7
  6
Continuous
370
    35
390
F
  0
LAYER
  5
C6
330
2
100
AcDbSymbolTableRecord
100
AcDbLayerTableRecord
  2
111 Window Grilles
 70
     0
 62
     7
  6
Continuous
370
    35
390
F
  0
LAYER
  5
C7
330
2
100
AcDbSymbolTableRecord
100
AcDbLayerTableRecord
  2
112 Window Shutters
 70
     0
 62
     7
  6
Continuous
370
    35
390
F
  0
LAYER
  5
C8
330
2
100
AcDbSymbolTableRecord
100
AcDbLayerTableRecord
  2
113 Corner Trim
 70
     0
 62
     7
  6
Continuous
370
    35
390
F
  0
LAYER
  5
C9
330
2
100
AcDbSymbolTableRecord
100
AcDbLayerTableRecord
  2
114 Louver Vents
 70
     0
 62
     7
  6
Continuous
370
    35
390
F
  0
LAYER
  5
CA
330
2
100
AcDbSymbolTableRecord
100
AcDbLayerTableRecord
  2
115 Edge Line of 2D-Based Opening Trim
 70
     0
 62
     7
  6
Continuous
370
    35
390
F
  0
LAYER
  5
CB
330
2
100
AcDbSymbolTableRecord
100
AcDbLayerTableRecord
  2
116 Hole Line of 2D-Based Opening Trim
 70
     0
 62
     7
  6
Continuous
370
    35
390
F
  0
LAYER
  5
CC
330
2
100
AcDbSymbolTableRecord
100
AcDbLayerTableRecord
  2
117 Roof Accessories
 70
     0
 62
     7
  6
Continuous
370
    35
390
F
  0
LAYER
  5
CD
330
2
100
AcDbSymbolTableRecord
100
AcDbLayerTableRecord
  2
118
 70
     0
 62
    -7
  6
Continuous
370
    35
390
F
  0
LAYER
  5
CE
330
2
100
AcDbSymbolTableRecord
100
AcDbLayerTableRecord
  2
119
 70
     0
 62
    -7
  6
Continuous
370
    35
390
F
  0
LAYER
  5
CF
330
2
100
AcDbSymbolTableRecord
100
AcDbLayerTableRecord
  2
120
 70
     0
 62
    -7
  6
Continuous
370
    35
390
F
  0
LAYER
  5
D0
330
2
100
AcDbSymbolTableRecord
100
AcDbLayerTableRecord
  2
121 Beam Pocket Symbols
 70
     0
 62
     7
  6
Continuous
370
    35
390
F
  0
LAYER
  5
D1
330
2
100
AcDbSymbolTableRecord
100
AcDbLayerTableRecord
  2
122 Beam Lines & Labels
 70
     0
 62
     7
  6
Continuous
370
    35
390
F
  0
LAYER
  5
D2
330
2
100
AcDbSymbolTableRecord
100
AcDbLayerTableRecord
  2
123 Column Sym & Labels
 70
     0
 62
     7
  6
Continuous
370
    35
390
F
  0
LAYER
  5
D3
330
2
100
AcDbSymbolTableRecord
100
AcDbLayerTableRecord
  2
124 Beam Center Lines
 70
     0
 62
     7
  6
Continuous
370
    35
390
F
  0
LAYER
  5
D4
330
2
100
AcDbSymbolTableRecord
100
AcDbLayerTableRecord
  2
125 Form Text
 70
     0
 62
     7
  6
Continuous
370
    35
390
F
  0
LAYER
  5
D5
330
2
100
AcDbSymbolTableRecord
100
AcDbLayerTableRecord
  2
126 Form Outer
 70
     0
 62
     7
  6
Continuous
370
    35
390
F
  0
LAYER
  5
D6
330
2
100
AcDbSymbolTableRecord
100
AcDbLayerTableRecord
  2
127 Form Inner
 70
     0
 62
     7
  6
Continuous
370
    35
390
F
  0
LAYER
  5
D7
330
2
100
AcDbSymbolTableRecord
100
AcDbLayerTableRecord
  2
128 Form Name
 70
     0
 62
     7
  6
Continuous
370
    35
390
F
  0
LAYER
  5
D8
330
2
100
AcDbSymbolTableRecord
100
AcDbLayerTableRecord
  2
129
 70
     0
 62
    -7
  6
Continuous
370
    35
390
F
  0
LAYER
  5
D9
330
2
100
AcDbSymbolTableRecord
100
AcDbLayerTableRecord
  2
130
 70
     0
 62
    -7
  6
Continuous
370
    35
390
F
  0
LAYER
  5
DA
330
2
100
AcDbSymbolTableRecord
100
AcDbLayerTableRecord
  2
131 Translation Spanish
 70
     0
 62
    -7
  6
Continuous
370
    35
390
F
  0
LAYER
  5
DB
330
2
100
AcDbSymbolTableRecord
100
AcDbLayerTableRecord
  2
132 Translation French
 70
     0
 62
    -7
  6
Continuous
370
    35
390
F
  0
LAYER
  5
DC
330
2
100
AcDbSymbolTableRecord
100
AcDbLayerTableRecord
  2
133 Translation German
 70
     0
 62
    -7
  6
Continuous
370
    35
390
F
  0
LAYER
  5
DD
330
2
100
AcDbSymbolTableRecord
100
AcDbLayerTableRecord
  2
134 Translation Finnish
 70
     0
 62
    -7
  6
Continuous
370
    35
390
F
  0
LAYER
  5
DE
330
2
100
AcDbSymbolTableRecord
100
AcDbLayerTableRecord
  2
135
 70
     0
 62
    -7
  6
Continuous
370
    35
390
F
  0
LAYER
  5
DF
330
2
100
AcDbSymbolTableRecord
100
AcDbLayerTableRecord
  2
136
 70
     0
 62
    -7
  6
Continuous
370
    35
390
F
  0
LAYER
  5
E0
330
2
100
AcDbSymbolTableRecord
100
AcDbLayerTableRecord
  2
137
 70
     0
 62
    -7
  6
Continuous
370
    35
390
F
  0
LAYER
  5
E1
330
2
100
AcDbSymbolTableRecord
100
AcDbLayerTableRecord
  2
138
 70
     0
 62
    -7
  6
Continuous
370
    35
390
F
  0
LAYER
  5
E2
330
2
100
AcDbSymbolTableRecord
100
AcDbLayerTableRecord
  2
139
 70
     0
 62
    -7
  6
Continuous
370
    35
390
F
  0
LAYER
  5
E3
330
2
100
AcDbSymbolTableRecord
100
AcDbLayerTableRecord
  2
140 Sheet Area Line
 70
     0
 62
     7
  6
Continuous
370
    35
390
F
  0
LAYER
  5
E4
330
2
100
AcDbSymbolTableRecord
100
AcDbLayerTableRecord
  2
141 Sheet Label
 70
     0
 62
     7
  6
Continuous
370
    35
390
F
  0
LAYER
  5
E5
330
2
100
AcDbSymbolTableRecord
100
AcDbLayerTableRecord
  2
142 Sheet Schedule
 70
     0
 62
     7
  6
Continuous
370
    35
390
F
  0
LAYER
  5
E6
330
2
100
AcDbSymbolTableRecord
100
AcDbLayerTableRecord
  2
143
 70
     0
 62
    -7
  6
Continuous
370
    35
390
F
  0
LAYER
  5
E7
330
2
100
AcDbSymbolTableRecord
100
AcDbLayerTableRecord
  2
144
 70
     0
 62
    -7
  6
Continuous
370
    35
390
F
  0
LAYER
  5
E8
330
2
100
AcDbSymbolTableRecord
100
AcDbLayerTableRecord
  2
145
 70
     0
 62
    -7
  6
Continuous
370
    35
390
F
  0
LAYER
  5
E9
330
2
100
AcDbSymbolTableRecord
100
AcDbLayerTableRecord
  2
146
 70
     0
 62
    -7
  6
Continuous
370
    35
390
F
  0
LAYER
  5
EA
330
2
100
AcDbSymbolTableRecord
100
AcDbLayerTableRecord
  2
147
 70
     0
 62
    -7
  6
Continuous
370
    35
390
F
  0
LAYER
  5
EB
330
2
100
AcDbSymbolTableRecord
100
AcDbLayerTableRecord
  2
148
 70
     0
 62
    -7
  6
Continuous
370
    35
390
F
  0
LAYER
  5
EC
330
2
100
AcDbSymbolTableRecord
100
AcDbLayerTableRecord
  2
149
 70
     0
 62
    -7
  6
Continuous
370
    35
390
F
  0
LAYER
  5
ED
330
2
100
AcDbSymbolTableRecord
100
AcDbLayerTableRecord
  2
150 1st Stud Locations
 70
     0
 62
     7
  6
Continuous
370
    35
390
F
  0
LAYER
  5
EE
330
2
100
AcDbSymbolTableRecord
100
AcDbLayerTableRecord
  2
151 Wall Framing Pieces
 70
     0
 62
     7
  6
Continuous
370
    35
390
F
  0
LAYER
  5
EF
330
2
100
AcDbSymbolTableRecord
100
AcDbLayerTableRecord
  2
152 Wall Framing Pieces_Hidden
 70
     0
 62
     7
  6
Continuous
370
    35
390
F
  0
LAYER
  5
F0
330
2
100
AcDbSymbolTableRecord
100
AcDbLayerTableRecord
  2
153 Siding Boards
 70
     0
 62
     7
  6
Continuous
370
    35
390
F
  0
LAYER
  5
F1
330
2
100
AcDbSymbolTableRecord
100
AcDbLayerTableRecord
  2
154 Openings
 70
     0
 62
     7
  6
Continuous
370
    35
390
F
  0
LAYER
  5
F2
330
2
100
AcDbSymbolTableRecord
100
AcDbLayerTableRecord
  2
155 Internal Sheathing
 70
     0
 62
     7
  6
Continuous
370
    35
390
F
  0
LAYER
  5
F3
330
2
100
AcDbSymbolTableRecord
100
AcDbLayerTableRecord
  2
156 External Sheathing
 70
     0
 62
     7
  6
Continuous
370
    35
390
F
  0
LAYER
  5
F4
330
2
100
AcDbSymbolTableRecord
100
AcDbLayerTableRecord
  2
157 Internal Sec. Sheat.
 70
     0
 62
     7
  6
Continuous
370
    35
390
F
  0
LAYER
  5
F5
330
2
100
AcDbSymbolTableRecord
100
AcDbLayerTableRecord
  2
158 External Sec. Sheat.
 70
     0
 62
     7
  6
Continuous
370
    35
390
F
  0
LAYER
  5
F6
330
2
100
AcDbSymbolTableRecord
100
AcDbLayerTableRecord
  2
159 Insulation
 70
     0
 62
     7
  6
Continuous
370
    35
390
F
  0
LAYER
  5
F7
330
2
100
AcDbSymbolTableRecord
100
AcDbLayerTableRecord
  2
160 Loads
 70
     0
 62
     7
  6
Continuous
370
    35
390
F
  0
LAYER
  5
F8
330
2
100
AcDbSymbolTableRecord
100
AcDbLayerTableRecord
  2
161 Loads
 70
     0
 62
     7
  6
Continuous
370
    35
390
F
  0
LAYER
  5
F9
330
2
100
AcDbSymbolTableRecord
100
AcDbLayerTableRecord
  2
162 Dimensions
 70
     0
 62
     7
  6
Continuous
370
    35
390
F
  0
LAYER
  5
FA
330
2
100
AcDbSymbolTableRecord
100
AcDbLayerTableRecord
  2
163 Backer_
 70
     0
 62
     7
  6
Continuous
370
    35
390
F
  0
LAYER
  5
FB
330
2
100
AcDbSymbolTableRecord
100
AcDbLayerTableRecord
  2
164 Panel Elev._Electr.
 70
     0
 62
    -7
  6
Continuous
370
    35
390
F
  0
LAYER
  5
FC
330
2
100
AcDbSymbolTableRecord
100
AcDbLayerTableRecord
  2
165 Panel Elev._Electr.
 70
     0
 62
    -7
  6
Continuous
370
    35
390
F
  0
LAYER
  5
FD
330
2
100
AcDbSymbolTableRecord
100
AcDbLayerTableRecord
  2
166 Panel Elev._Plmbng
 70
     0
 62
    -7
  6
Continuous
370
    35
390
F
  0
LAYER
  5
FE
330
2
100
AcDbSymbolTableRecord
100
AcDbLayerTableRecord
  2
167 Panel Elev._Plmbng
 70
     0
 62
     7
  6
Continuous
370
    35
390
F
  0
LAYER
  5
FF
330
2
100
AcDbSymbolTableRecord
100
AcDbLayerTableRecord
  2
168 Panel Layout_Backer
 70
     0
 62
     7
  6
Continuous
370
    35
390
F
  0
LAYER
  5
100
330
2
100
AcDbSymbolTableRecord
100
AcDbLayerTableRecord
  2
169 Studs_ Bearing Walls
 70
     0
 62
     7
  6
Continuous
370
    35
390
F
  0
LAYER
  5
101
330
2
100
AcDbSymbolTableRecord
100
AcDbLayerTableRecord
  2
170 Elems in Floor Plan
 70
     0
 62
     7
  6
Continuous
370
    35
390
F
  0
LAYER
  5
102
330
2
100
AcDbSymbolTableRecord
100
AcDbLayerTableRecord
  2
171 Check elem geometry
 70
     0
 62
    -7
  6
Continuous
370
    35
390
F
  0
LAYER
  5
103
330
2
100
AcDbSymbolTableRecord
100
AcDbLayerTableRecord
  2
172 Studs_ Non-Brg Walls
 70
     0
 62
     7
  6
Continuous
370
    35
390
F
  0
LAYER
  5
104
330
2
100
AcDbSymbolTableRecord
100
AcDbLayerTableRecord
  2
173 Panel Pce Label in FP
 70
     0
 62
     7
  6
Continuous
370
    35
390
F
  0
LAYER
  5
105
330
2
100
AcDbSymbolTableRecord
100
AcDbLayerTableRecord
  2
174
 70
     0
 62
    -7
  6
Continuous
370
    35
390
F
  0
LAYER
  5
106
330
2
100
AcDbSymbolTableRecord
100
AcDbLayerTableRecord
  2
175 Profile Color Fills
 70
     0
 62
     7
  6
Continuous
370
    35
390
F
  0
LAYER
  5
107
330
2
100
AcDbSymbolTableRecord
100
AcDbLayerTableRecord
  2
176 Pipe Colorfills
 70
     0
 62
     7
  6
Continuous
370
    35
390
F
  0
LAYER
  5
108
330
2
100
AcDbSymbolTableRecord
100
AcDbLayerTableRecord
  2
177 Bottom Plate in Floor Plan
 70
     0
 62
     7
  6
Continuous
370
    35
390
F
  0
LAYER
  5
109
330
2
100
AcDbSymbolTableRecord
100
AcDbLayerTableRecord
  2
178 Top Plate in Floor Plan
 70
     0
 62
     7
  6
Continuous
370
    35
390
F
  0
LAYER
  5
10A
330
2
100
AcDbSymbolTableRecord
100
AcDbLayerTableRecord
  2
179
 70
     0
 62
    -7
  6
Continuous
370
    35
390
F
  0
LAYER
  5
10B
330
2
100
AcDbSymbolTableRecord
100
AcDbLayerTableRecord
  2
180 Int NB Brick Wall
 70
     0
 62
     7
  6
Continuous
370
    35
390
F
  0
LAYER
  5
10C
330
2
100
AcDbSymbolTableRecord
100
AcDbLayerTableRecord
  2
181 Int NB Brick Wall Hatch
 70
     0
 62
     7
  6
Continuous
370
    35
390
F
  0
LAYER
  5
10D
330
2
100
AcDbSymbolTableRecord
100
AcDbLayerTableRecord
  2
182 Int B Brick Wall
 70
     0
 62
     7
  6
Continuous
370
    35
390
F
  0
LAYER
  5
10E
330
2
100
AcDbSymbolTableRecord
100
AcDbLayerTableRecord
  2
183 Int B Brick Wall Hatch
 70
     0
 62
     7
  6
Continuous
370
    35
390
F
  0
LAYER
  5
10F
330
2
100
AcDbSymbolTableRecord
100
AcDbLayerTableRecord
  2
184
 70
     0
 62
    -7
  6
Continuous
370
    35
390
F
  0
LAYER
  5
110
330
2
100
AcDbSymbolTableRecord
100
AcDbLayerTableRecord
  2
185 Int B Wall Rough Frame
 70
     0
 62
     7
  6
Continuous
370
    35
390
F
  0
LAYER
  5
111
330
2
100
AcDbSymbolTableRecord
100
AcDbLayerTableRecord
  2
186 Int B Wall Surfaces
 70
     0
 62
     7
  6
Continuous
370
    35
390
F
  0
LAYER
  5
112
330
2
100
AcDbSymbolTableRecord
100
AcDbLayerTableRecord
  2
187 Int B Wall Other Lines
 70
     0
 62
     7
  6
Continuous
370
    35
390
F
  0
LAYER
  5
113
330
2
100
AcDbSymbolTableRecord
100
AcDbLayerTableRecord
  2
188 Int B Wall Insulation
 70
     0
 62
     7
  6
Continuous
370
    35
390
F
  0
LAYER
  5
114
330
2
100
AcDbSymbolTableRecord
100
AcDbLayerTableRecord
  2
189 Int B Wall Bottom Plat
 70
     0
 62
    -7
  6
Continuous
370
    35
390
F
  0
LAYER
  5
115
330
2
100
AcDbSymbolTableRecord
100
AcDbLayerTableRecord
  2
190 Int B Wall Hatch Patte
 70
     0
 62
     7
  6
Continuous
370
    35
390
F
  0
LAYER
  5
116
330
2
100
AcDbSymbolTableRecord
100
AcDbLayerTableRecord
  2
191 Hot Water Pipes
 70
     0
 62
     7
  6
Continuous
370
    35
390
F
  0
LAYER
  5
117
330
2
100
AcDbSymbolTableRecord
100
AcDbLayerTableRecord
  2
192 Cold Water Pipes
 70
     0
 62
     7
  6
Continuous
370
    35
390
F
  0
LAYER
  5
118
330
2
100
AcDbSymbolTableRecord
100
AcDbLayerTableRecord
  2
193 Waste Water Pipes
 70
     0
 62
     7
  6
Continuous
370
    35
390
F
  0
LAYER
  5
119
330
2
100
AcDbSymbolTableRecord
100
AcDbLayerTableRecord
  2
194 Gas Pipes
 70
     0
 62
     7
  6
Continuous
370
    35
390
F
  0
LAYER
  5
11A
330
2
100
AcDbSymbolTableRecord
100
AcDbLayerTableRecord
  2
195 Int NB Wall Rough Frame
 70
     0
 62
     7
  6
Continuous
370
    35
390
F
  0
LAYER
  5
11B
330
2
100
AcDbSymbolTableRecord
100
AcDbLayerTableRecord
  2
196 Int NB Wall Surfaces
 70
     0
 62
     7
  6
Continuous
370
    35
390
F
  0
LAYER
  5
11C
330
2
100
AcDbSymbolTableRecord
100
AcDbLayerTableRecord
  2
197 Int NB Wall Other Lines
 70
     0
 62
     7
  6
Continuous
370
    35
390
F
  0
LAYER
  5
11D
330
2
100
AcDbSymbolTableRecord
100
AcDbLayerTableRecord
  2
198 Int NB Wall Insulation
 70
     0
 62
     7
  6
Continuous
370
    35
390
F
  0
LAYER
  5
11E
330
2
100
AcDbSymbolTableRecord
100
AcDbLayerTableRecord
  2
199 Int NB Wall Bottom Plat
 70
     0
 62
    -7
  6
Continuous
370
    35
390
F
  0
LAYER
  5
11F
330
2
100
AcDbSymbolTableRecord
100
AcDbLayerTableRecord
  2
200 Int NB Wall Hatch Patte
 70
     0
 62
     7
  6
Continuous
370
    35
390
F
  0
LAYER
  5
120
330
2
100
AcDbSymbolTableRecord
100
AcDbLayerTableRecord
  2
201 Utility hole lines
 70
     0
 62
     7
  6
Continuous
370
    35
390
F
  0
LAYER
  5
121
330
2
100
AcDbSymbolTableRecord
100
AcDbLayerTableRecord
  2
202
 70
     0
 62
    -7
  6
Continuous
370
    35
390
F
  0
LAYER
  5
122
330
2
100
AcDbSymbolTableRecord
100
AcDbLayerTableRecord
  2
203
 70
     0
 62
    -7
  6
Continuous
370
    35
390
F
  0
LAYER
  5
123
330
2
100
AcDbSymbolTableRecord
100
AcDbLayerTableRecord
  2
205
 70
     0
 62
    -7
  6
Continuous
370
    35
390
F
  0
LAYER
  5
124
330
2
100
AcDbSymbolTableRecord
100
AcDbLayerTableRecord
  2
206
 70
     0
 62
    -7
  6
Continuous
370
    35
390
F
  0
LAYER
  5
125
330
2
100
AcDbSymbolTableRecord
100
AcDbLayerTableRecord
  2
207
 70
     0
 62
    -7
  6
Continuous
370
    35
390
F
  0
LAYER
  5
126
330
2
100
AcDbSymbolTableRecord
100
AcDbLayerTableRecord
  2
208
 70
     0
 62
    -7
  6
Continuous
370
    35
390
F
  0
LAYER
  5
127
330
2
100
AcDbSymbolTableRecord
100
AcDbLayerTableRecord
  2
210 Joist Hangers
 70
     0
 62
     7
  6
Continuous
370
    35
390
F
  0
LAYER
  5
128
330
2
100
AcDbSymbolTableRecord
100
AcDbLayerTableRecord
  2
211 Hangers_ Schedule and labels
 70
     0
 62
     7
  6
Continuous
370
    35
390
F
  0
LAYER
  5
129
330
2
100
AcDbSymbolTableRecord
100
AcDbLayerTableRecord
  2
212
 70
     0
 62
    -7
  6
Continuous
370
    35
390
F
  0
LAYER
  5
12A
330
2
100
AcDbSymbolTableRecord
100
AcDbLayerTableRecord
  2
213
 70
     0
 62
    -7
  6
Continuous
370
    35
390
F
  0
LAYER
  5
12B
330
2
100
AcDbSymbolTableRecord
100
AcDbLayerTableRecord
  2
214
 70
     0
 62
    -7
  6
Continuous
370
    35
390
F
  0
LAYER
  5
12C
330
2
100
AcDbSymbolTableRecord
100
AcDbLayerTableRecord
  2
215 Special Opening Detail Labels
 70
     0
 62
     7
  6
Continuous
370
    35
390
F
  0
LAYER
  5
12D
330
2
100
AcDbSymbolTableRecord
100
AcDbLayerTableRecord
  2
216
 70
     0
 62
    -7
  6
Continuous
370
    35
390
F
  0
LAYER
  5
12E
330
2
100
AcDbSymbolTableRecord
100
AcDbLayerTableRecord
  2
217
 70
     0
 62
    -7
  6
Continuous
370
    35
390
F
  0
LAYER
  5
12F
330
2
100
AcDbSymbolTableRecord
100
AcDbLayerTableRecord
  2
218 Construction Line
 70
     0
 62
    -7
  6
Continuous
370
    35
390
F
  0
LAYER
  5
130
330
2
100
AcDbSymbolTableRecord
100
AcDbLayerTableRecord
  2
219 Brochure Wall Fill
 70
     0
 62
    -7
  6
Continuous
370
    35
390
F
  0
LAYER
  5
131
330
2
100
AcDbSymbolTableRecord
100
AcDbLayerTableRecord
  2
220 Framing Detail Symbols
 70
     0
 62
     7
  6
Continuous
370
    35
390
F
  0
LAYER
  5
132
330
2
100
AcDbSymbolTableRecord
100
AcDbLayerTableRecord
  2
221 Hangers
 70
     0
 62
     7
  6
Continuous
370
    35
390
F
  0
LAYER
  5
133
330
2
100
AcDbSymbolTableRecord
100
AcDbLayerTableRecord
  2
222 Connectors
 70
     0
 62
     7
  6
Continuous
370
    35
390
F
  0
LAYER
  5
134
330
2
100
AcDbSymbolTableRecord
100
AcDbLayerTableRecord
  2
223 Fillers_ Stiffeners_ Backers and Blocks
 70
     0
 62
     7
  6
Continuous
370
    35
390
F
  0
LAYER
  5
135
330
2
100
AcDbSymbolTableRecord
100
AcDbLayerTableRecord
  2
224 Engineering Labels
 70
     0
 62
     7
  6
Continuous
370
    35
390
F
  0
LAYER
  5
136
330
2
100
AcDbSymbolTableRecord
100
AcDbLayerTableRecord
  2
225 Custom Layer
 70
     0
 62
    -7
  6
Continuous
370
    35
390
F
  0
LAYER
  5
137
330
2
100
AcDbSymbolTableRecord
100
AcDbLayerTableRecord
  2
226 Custom Layer
 70
     0
 62
    -7
  6
Continuous
370
    35
390
F
  0
LAYER
  5
138
330
2
100
AcDbSymbolTableRecord
100
AcDbLayerTableRecord
  2
227 Custom Layer
 70
     0
 62
    -7
  6
Continuous
370
    35
390
F
  0
LAYER
  5
139
330
2
100
AcDbSymbolTableRecord
100
AcDbLayerTableRecord
  2
228 Custom Layer
 70
     0
 62
    -7
  6
Continuous
370
    35
390
F
  0
LAYER
  5
13A
330
2
100
AcDbSymbolTableRecord
100
AcDbLayerTableRecord
  2
229 Custom Layer
 70
     0
 62
    -7
  6
Continuous
370
    35
390
F
  0
LAYER
  5
13B
330
2
100
AcDbSymbolTableRecord
100
AcDbLayerTableRecord
  2
230 Custom Layer
 70
     0
 62
    -7
  6
Continuous
370
    35
390
F
  0
LAYER
  5
13C
330
2
100
AcDbSymbolTableRecord
100
AcDbLayerTableRecord
  2
231 Custom Layer
 70
     0
 62
    -7
  6
Continuous
370
    35
390
F
  0
LAYER
  5
13D
330
2
100
AcDbSymbolTableRecord
100
AcDbLayerTableRecord
  2
232 Custom Layer
 70
     0
 62
    -7
  6
Continuous
370
    35
390
F
  0
LAYER
  5
13E
330
2
100
AcDbSymbolTableRecord
100
AcDbLayerTableRecord
  2
233 Custom Layer
 70
     0
 62
    -7
  6
Continuous
370
    35
390
F
  0
LAYER
  5
13F
330
2
100
AcDbSymbolTableRecord
100
AcDbLayerTableRecord
  2
234 Custom Layer
 70
     0
 62
    -7
  6
Continuous
370
    35
390
F
  0
LAYER
  5
140
330
2
100
AcDbSymbolTableRecord
100
AcDbLayerTableRecord
  2
235 Custom Layer
 70
     0
 62
    -7
  6
Continuous
370
    35
390
F
  0
LAYER
  5
141
330
2
100
AcDbSymbolTableRecord
100
AcDbLayerTableRecord
  2
236 Custom Layer
 70
     0
 62
    -7
  6
Continuous
370
    35
390
F
  0
LAYER
  5
142
330
2
100
AcDbSymbolTableRecord
100
AcDbLayerTableRecord
  2
237 Custom Layer
 70
     0
 62
    -7
  6
Continuous
370
    35
390
F
  0
LAYER
  5
143
330
2
100
AcDbSymbolTableRecord
100
AcDbLayerTableRecord
  2
238 Custom Layer
 70
     0
 62
    -7
  6
Continuous
370
    35
390
F
  0
LAYER
  5
144
330
2
100
AcDbSymbolTableRecord
100
AcDbLayerTableRecord
  2
239 Custom Layer
 70
     0
 62
    -7
  6
Continuous
370
    35
390
F
  0
LAYER
  5
145
330
2
100
AcDbSymbolTableRecord
100
AcDbLayerTableRecord
  2
240
 70
     0
 62
    -7
  6
Continuous
370
    35
390
F
  0
LAYER
  5
146
330
2
100
AcDbSymbolTableRecord
100
AcDbLayerTableRecord
  2
241
 70
     0
 62
    -7
  6
Continuous
370
    35
390
F
  0
LAYER
  5
147
330
2
100
AcDbSymbolTableRecord
100
AcDbLayerTableRecord
  2
242
 70
     0
 62
    -7
  6
Continuous
370
    35
390
F
  0
LAYER
  5
148
330
2
100
AcDbSymbolTableRecord
100
AcDbLayerTableRecord
  2
243
 70
     0
 62
    -7
  6
Continuous
370
    35
390
F
  0
LAYER
  5
149
330
2
100
AcDbSymbolTableRecord
100
AcDbLayerTableRecord
  2
244
 70
     0
 62
    -7
  6
Continuous
370
    35
390
F
  0
LAYER
  5
14A
330
2
100
AcDbSymbolTableRecord
100
AcDbLayerTableRecord
  2
245 Red Pen Markings
 70
     0
 62
     7
  6
Continuous
370
    35
390
F
  0
LAYER
  5
14B
330
2
100
AcDbSymbolTableRecord
100
AcDbLayerTableRecord
  2
246 Red Pen Markings
 70
     0
 62
     7
  6
Continuous
370
    35
390
F
  0
LAYER
  5
14C
330
2
100
AcDbSymbolTableRecord
100
AcDbLayerTableRecord
  2
247 Red Pen Markings
 70
     0
 62
     7
  6
Continuous
370
    35
390
F
  0
LAYER
  5
14D
330
2
100
AcDbSymbolTableRecord
100
AcDbLayerTableRecord
  2
248 Red Pen Markings
 70
     0
 62
     7
  6
Continuous
370
    35
390
F
  0
LAYER
  5
14E
330
2
100
AcDbSymbolTableRecord
100
AcDbLayerTableRecord
  2
249 Red Pen Markings
 70
     0
 62
     7
  6
Continuous
370
    35
390
F
  0
LAYER
  5
14F
330
2
100
AcDbSymbolTableRecord
100
AcDbLayerTableRecord
  2
250 Red Pen Markings
 70
     0
 62
     7
  6
Continuous
370
    35
390
F
  0
LAYER
  5
150
330
2
100
AcDbSymbolTableRecord
100
AcDbLayerTableRecord
  2
251 Red Pen Markings
 70
     0
 62
     7
  6
Continuous
370
    35
390
F
  0
LAYER
  5
151
330
2
100
AcDbSymbolTableRecord
100
AcDbLayerTableRecord
  2
252 Red Pen Markings
 70
     0
 62
     7
  6
Continuous
370
    35
390
F
  0
LAYER
  5
152
330
2
100
AcDbSymbolTableRecord
100
AcDbLayerTableRecord
  2
253 Red Pen Markings
 70
     0
 62
     7
  6
Continuous
370
    35
390
F
  0
LAYER
  5
153
330
2
100
AcDbSymbolTableRecord
100
AcDbLayerTableRecord
  2
254 Red Pen Markings
 70
     0
 62
     7
  6
Continuous
370
    35
390
F
  0
ENDTAB
  0
TABLE
  2
STYLE
  5
3
330
0
100
AcDbSymbolTable
 70
    11
  0
STYLE
  5
11
330
3
100
AcDbSymbolTableRecord
100
AcDbTextStyleTableRecord
  2
Standard
 70
     0
 40
0.0
 41
1.0
 50
0.0
 71
     0
 42
0.2
  3
txt
  4

  0
STYLE
  5
40
330
3
100
AcDbSymbolTableRecord
100
AcDbTextStyleTableRecord
  2
Arial
 70
     0
 40
0.0
 41
1.0
 50
0.0
 71
     0
 42
0.2
  3
ARIAL.TTF
  4

1001
ACAD
1000
Arial
1071
       34
  0
STYLE
  5
41
330
3
100
AcDbSymbolTableRecord
100
AcDbTextStyleTableRecord
  2
Courier New
 70
     0
 40
0.0
 41
1.0
 50
0.0
 71
     0
 42
0.2
  3
COUR.TTF
  4

1001
ACAD
1000
Courier New
1071
       34
  0
STYLE
  5
42
330
3
100
AcDbSymbolTableRecord
100
AcDbTextStyleTableRecord
  2
Arial Narrow
 70
     0
 40
0.0
 41
1.0
 50
0.0
 71
     0
 42
0.2
  3
ARIALN.TTF
  4

1001
ACAD
1000
Arial Narrow
1071
       34
  0
STYLE
  5
43
330
3
100
AcDbSymbolTableRecord
100
AcDbTextStyleTableRecord
  2
Times New Roman
 70
     0
 40
0.0
 41
1.0
 50
0.0
 71
     0
 42
0.2
  3
TIMES.TTF
  4

1001
ACAD
1000
Times New Roman
1071
       34
  0
STYLE
  5
44
330
3
100
AcDbSymbolTableRecord
100
AcDbTextStyleTableRecord
  2
Impact
 70
     0
 40
0.0
 41
1.0
 50
0.0
 71
     0
 42
0.2
  3
IMPACT.TTF
  4

1001
ACAD
1000
Impact
1071
       34
  0
STYLE
  5
45
330
3
100
AcDbSymbolTableRecord
100
AcDbTextStyleTableRecord
  2
Arial Black
 70
     0
 40
0.0
 41
1.0
 50
0.0
 71
     0
 42
0.2
  3
ARIBLK.TTF
  4

1001
ACAD
1000
Arial Black
1071
       34
  0
STYLE
  5
46
330
3
100
AcDbSymbolTableRecord
100
AcDbTextStyleTableRecord
  2
Symbol
 70
     0
 40
0.0
 41
1.0
 50
0.0
 71
     0
 42
0.2
  3
SYMBOL.TTF
  4

1001
ACAD
1000
Symbol
1071
       34
  0
STYLE
  5
47
330
3
100
AcDbSymbolTableRecord
100
AcDbTextStyleTableRecord
  2
Comic Sans MS
 70
     0
 40
0.0
 41
1.0
 50
0.0
 71
     0
 42
0.2
  3
COMIC.TTF
  4

1001
ACAD
1000
Comic Sans MS
1071
       34
  0
STYLE
  5
48
330
3
100
AcDbSymbolTableRecord
100
AcDbTextStyleTableRecord
  2
Trebuchet MS
 70
     0
 40
0.0
 41
1.0
 50
0.0
 71
     0
 42
0.2
  3
TREBUC.TTF
  4

1001
ACAD
1000
Trebuchet MS
1071
       34
  0
STYLE
  5
52
330
3
100
AcDbSymbolTableRecord
100
AcDbTextStyleTableRecord
  2

 70
     1
 40
0.0
 41
1.0
 50
0.0
 71
     0
 42
22.45
  3
ltypeshp.shx
  4

  0
ENDTAB
  0
TABLE
  2
VIEW
  5
6
330
0
100
AcDbSymbolTable
 70
     0
  0
ENDTAB
  0
TABLE
  2
UCS
  5
7
330
0
100
AcDbSymbolTable
 70
     0
  0
ENDTAB
  0
TABLE
  2
APPID
  5
9
330
0
100
AcDbSymbolTable
 70
     2
  0
APPID
  5
12
330
9
100
AcDbSymbolTableRecord
100
AcDbRegAppTableRecord
  2
ACAD
 70
     0
  0
APPID
  5
3F
330
9
100
AcDbSymbolTableRecord
100
AcDbRegAppTableRecord
  2
Vertex
 70
     0
  0
ENDTAB
  0
TABLE
  2
DIMSTYLE
  5
A
330
0
100
AcDbSymbolTable
 70
     3
100
AcDbDimStyleTable
  0
DIMSTYLE
105
27
330
A
100
AcDbSymbolTableRecord
100
AcDbDimStyleTableRecord
  2
Standard
 70
     0
178
     0
340
11
  0
DIMSTYLE
105
49
330
A
100
AcDbSymbolTableRecord
100
AcDbDimStyleTableRecord
  2
Vertex Style
 70
     0
 41
0.078740157480315
 44
0.0393700787401575
 46
0.0393700787401575
 73
     0
 74
     0
 77
     1
 78
     8
 79
     2
144
25.4
146
0.65
147
0.0669291338582677
172
     1
173
     1
176
   160
177
   160
178
     0
179
     1
271
     1
340
40
343
4A
344
4A
371
    25
372
    25
  0
DIMSTYLE
105
51
330
A
100
AcDbSymbolTableRecord
100
AcDbDimStyleTableRecord
  2
Vertex Style (Inches)
 70
     0
 41
0.078740157480315
 44
0.0393700787401575
 46
0.0393700787401575
 73
     0
 74
     0
 77
     1
 79
     2
146
0.65
147
0.0669291338582677
172
     1
173
     1
176
   160
177
   160
178
     0
179
     1
276
     2
277
     4
340
40
343
4A
344
4A
371
    25
372
    25
  0
ENDTAB
  0
TABLE
  2
BLOCK_RECORD
  5
1
330
0
100
AcDbSymbolTable
 70
     4
  0
BLOCK_RECORD
  5
1F
330
1
100
AcDbSymbolTableRecord
100
AcDbBlockTableRecord
  2
*Model_Space
340
22
  0
BLOCK_RECORD
  5
1B
330
1
100
AcDbSymbolTableRecord
100
AcDbBlockTableRecord
  2
*Paper_Space
340
1E
  0
BLOCK_RECORD
  5
23
330
1
100
AcDbSymbolTableRecord
100
AcDbBlockTableRecord
  2
*Paper_Space0
340
26
  0
BLOCK_RECORD
  5
4A
330
1
100
AcDbSymbolTableRecord
100
AcDbBlockTableRecord
  2
_CLOSED
340
0
  0
BLOCK_RECORD
  5
154
330
1
100
AcDbSymbolTableRecord
100
AcDbBlockTableRecord
  2
GROUP_0_ee4a373a-5853-44b6-b736-a4f6ccb98062
340
0
102
{BLKREFS
331
4AA
102
}
  0
BLOCK_RECORD
  5
157
330
1
100
AcDbSymbolTableRecord
100
AcDbBlockTableRecord
  2
HATCH_1_82417574-39c5-4cf4-8dc4-519e01ae4094
340
0
102
{BLKREFS
331
4A9
102
}
  0
ENDTAB
  0
ENDSEC
  0
SECTION
  2
BLOCKS
  0
BLOCK
  5
20
330
1F
100
AcDbEntity
  8
0
100
AcDbBlockBegin
  2
*Model_Space
 70
     0
 10
0.0
 20
0.0
 30
0.0
  3
*Model_Space
  1

  0
ENDBLK
  5
21
330
1F
100
AcDbEntity
  8
0
100
AcDbBlockEnd
  0
BLOCK
  5
1C
330
1B
100
AcDbEntity
 67
     1
  8
0
100
AcDbBlockBegin
  2
*Paper_Space
 70
     0
 10
0.0
 20
0.0
 30
0.0
  3
*Paper_Space
  1

  0
ENDBLK
  5
1D
330
1B
100
AcDbEntity
 67
     1
  8
0
100
AcDbBlockEnd
  0
BLOCK
  5
24
330
23
100
AcDbEntity
  8
0
100
AcDbBlockBegin
  2
*Paper_Space0
 70
     0
 10
0.0
 20
0.0
 30
0.0
  3
*Paper_Space0
  1

  0
ENDBLK
  5
25
330
23
100
AcDbEntity
  8
0
100
AcDbBlockEnd
  0
BLOCK
  5
4B
330
4A
100
AcDbEntity
  8
0
100
AcDbBlockBegin
  2
_CLOSED
 70
     0
 10
0.0
 20
0.0
 30
0.0
  3
_CLOSED
  1

  0
LINE
  5
4D
330
4A
100
AcDbEntity
  8
0
  6
ByBlock
 62
     0
370
    -2
100
AcDbLine
 10
-1.0
 20
0.166667
 30
0.0
 11
0.0
 21
0.0
 31
0.0
  0
LINE
  5
4E
330
4A
100
AcDbEntity
  8
0
  6
ByBlock
 62
     0
370
    -2
100
AcDbLine
 10
0.0
 20
0.0
 30
0.0
 11
-1.0
 21
-0.166667
 31
0.0
  0
LINE
  5
4F
330
4A
100
AcDbEntity
  8
0
  6
ByBlock
 62
     0
370
    -2
100
AcDbLine
 10
-1.0
 20
0.166667
 30
0.0
 11
-1.0
 21
-0.166667
 31
0.0
  0
LINE
  5
50
330
4A
100
AcDbEntity
  8
0
  6
ByBlock
 62
     0
370
    -2
100
AcDbLine
 10
0.0
 20
0.0
 30
0.0
 11
-1.0
 21
0.0
 31
0.0
  0
ENDBLK
  5
4C
330
4A
100
AcDbEntity
  8
0
100
AcDbBlockEnd
  0
BLOCK
  5
155
330
154
100
AcDbEntity
  8
0
100
AcDbBlockBegin
  2
GROUP_0_ee4a373a-5853-44b6-b736-a4f6ccb98062
 70
     0
 10
0.0
 20
0.0
 30
0.0
  3
GROUP_0_ee4a373a-5853-44b6-b736-a4f6ccb98062
  1

  0
CIRCLE
  5
4A1
330
154
100
AcDbEntity
  8
DONT
  6
Continuous
 62
     1
 48
12.0
370
    25
100
AcDbCircle
 10
72.93150595084427
 20
74.75018597292058
 30
0.0
 40
51.60996
  0
ARC
  5
4A2
330
154
100
AcDbEntity
  8
DONT
  6
Continuous
 62
     1
 48
12.0
370
    25
100
AcDbCircle
 10
71.49032550133802
 20
76.1938769162908
 30
0.0
 40
42.13944000000001
100
AcDbArc
 50
231.7806
 51
38.17420000000004
  0
LINE
  5
4A3
330
154
100
AcDbEntity
  8
DONT
  6
Continuous
 62
     1
 48
12.0
370
    25
100
AcDbLine
 10
99.00270595084427
 20
107.8575859729206
 30
0.0
 11
39.80466595084425
 21
48.70598597292058
 31
0.0
  0
LWPOLYLINE
  5
4A4
330
154
100
AcDbEntity
  8
DONT
  6
Continuous
 62
     1
 48
12.0
370
    25
100
AcDbPolyline
 90
        3
 70
     0
 43
0.0
 10
104.6176259508443
 20
102.2383459729206
 10
45.41986638693835
 20
43.08702618901665
 10
45.41958595084425
 20
43.08674597292057
  0
ARC
  5
4A5
330
154
100
AcDbEntity
  8
DONT
  6
Continuous
 62
     1
 48
12.0
370
    25
100
AcDbCircle
 10
72.93150595084427
 20
74.75018597292058
 30
0.0
 40
42.13944000000001
100
AcDbArc
 50
51.7806
 51
218.1742
  0
INSERT
  5
4A9
330
154
100
AcDbEntity
  8
5 Hatches
  6
ByBlock
 62
    42
100
AcDbBlockReference
  2
HATCH_1_82417574-39c5-4cf4-8dc4-519e01ae4094
 10
0.0
 20
0.0
 30
0.0
  0
ENDBLK
  5
156
330
154
100
AcDbEntity
  8
0
100
AcDbBlockEnd
  0
BLOCK
  5
158
330
157
100
AcDbEntity
  8
0
100
AcDbBlockBegin
  2
HATCH_1_82417574-39c5-4cf4-8dc4-519e01ae4094
 70
     0
 10
0.0
 20
0.0
 30
0.0
  3
HATCH_1_82417574-39c5-4cf4-8dc4-519e01ae4094
  1

  0
LINE
  5
15A
330
157
100
AcDbEntity
  8
5 Hatches
 62
     0
370
     9
100
AcDbLine
 10
59.77197349391996
 20
25.04697955127786
 30
0.0
 11
59.57200395488867
 21
25.0434890699904
 31
0.0
  0
LINE
  5
15B
330
157
100
AcDbEntity
  8
5 Hatches
 62
     0
370
     9
100
AcDbLine
 10
51.70338230691969
 20
28.90675108040515
 30
0.0
 11
51.50341276788841
 21
28.9032605991177
 31
0.0
  0
LINE
  5
15C
330
157
100
AcDbEntity
  8
5 Hatches
 62
     0
370
     9
100
AcDbLine
 10
43.63479111991943
 20
32.76652260953245
 30
0.0
 11
43.43482158088815
 21
32.76303212824499
 31
0.0
  0
LINE
  5
15D
330
157
100
AcDbEntity
  8
5 Hatches
 62
     0
370
     9
100
AcDbLine
 10
39.56559071354472
 20
36.69610376440888
 30
0.0
 11
39.36562117451344
 21
36.69261328312142
 31
0.0
  0
LINE
  5
15E
330
157
100
AcDbEntity
  8
5 Hatches
 62
     0
370
     9
100
AcDbLine
 10
35.49639030717002
 20
40.62568491928531
 30
0.0
 11
35.29642076813874
 21
40.62219443799785
 31
0.0
  0
LINE
  5
15F
330
157
100
AcDbEntity
  8
5 Hatches
 62
     0
370
     9
100
AcDbLine
 10
31.42718990079533
 20
44.55526607416174
 30
0.0
 11
31.22722036176405
 21
44.55177559287428
 31
0.0
  0
LINE
  5
160
330
157
100
AcDbEntity
  8
5 Hatches
 62
     0
370
     9
100
AcDbLine
 10
31.35738027504619
 20
48.5546568547873
 30
0.0
 11
31.15741073601491
 21
48.55116637349985
 31
0.0
  0
LINE
  5
161
330
157
100
AcDbEntity
  8
5 Hatches
 62
     0
370
     9
100
AcDbLine
 10
27.28817986867149
 20
52.48423800966373
 30
0.0
 11
27.08821032964021
 21
52.48074752837628
 31
0.0
  0
LINE
  5
162
330
157
100
AcDbEntity
  8
5 Hatches
 62
     0
370
     9
100
AcDbLine
 10
27.21837024292235
 20
56.4836287902893
 30
0.0
 11
27.01840070389108
 21
56.48013830900184
 31
0.0
  0
LINE
  5
163
330
157
100
AcDbEntity
  8
5 Hatches
 62
     0
370
     9
100
AcDbLine
 10
27.14856061717322
 20
60.48301957091486
 30
0.0
 11
26.94859107814194
 21
60.47952908962741
 31
0.0
  0
LINE
  5
164
330
157
100
AcDbEntity
  8
5 Hatches
 62
     0
370
     9
100
AcDbLine
 10
23.07936021079852
 20
64.4126007257913
 30
0.0
 11
22.87939067176725
 21
64.40911024450384
 31
0.0
  0
LINE
  5
165
330
157
100
AcDbEntity
  8
5 Hatches
 62
     0
370
     9
100
AcDbLine
 10
23.00955058504939
 20
68.41199150641685
 30
0.0
 11
22.80958104601811
 21
68.4085010251294
 31
0.0
  0
LINE
  5
166
330
157
100
AcDbEntity
  8
5 Hatches
 62
     0
370
     9
100
AcDbLine
 10
22.93974095930026
 20
72.41138228704243
 30
0.0
 11
22.73977142026898
 21
72.40789180575497
 31
0.0
  0
LINE
  5
167
330
157
100
AcDbEntity
  8
5 Hatches
 62
     0
370
     9
100
AcDbLine
 10
62.02612363081717
 20
125.1015586926661
 30
0.0
 11
61.82615409178589
 21
125.0980682113786
 31
0.0
  0
LINE
  5
168
330
157
100
AcDbEntity
  8
5 Hatches
 62
     0
370
     9
100
AcDbLine
 10
50.0977609146896
 20
120.8927390347931
 30
0.0
 11
49.89779137565832
 21
120.8892485535057
 31
0.0
  0
LINE
  5
169
330
157
100
AcDbEntity
  8
5 Hatches
 62
     0
370
     9
100
AcDbLine
 10
46.16817975981318
 20
116.8235386284184
 30
0.0
 11
45.9682102207819
 21
116.820048147131
 31
0.0
  0
LINE
  5
16A
330
157
100
AcDbEntity
  8
5 Hatches
 62
     0
370
     9
100
AcDbLine
 10
38.23920782431117
 20
112.6845285962946
 30
0.0
 11
38.03923828527989
 21
112.6810381150072
 31
0.0
  0
LINE
  5
16B
330
157
100
AcDbEntity
  8
5 Hatches
 62
     0
370
     9
100
AcDbLine
 10
34.30962666943475
 20
108.6153281899199
 30
0.0
 11
34.10965713040347
 21
108.6118377086325
 31
0.0
  0
LINE
  5
16C
330
157
100
AcDbEntity
  8
5 Hatches
 62
     0
370
     9
100
AcDbLine
 10
34.37943629518388
 20
104.6159374092943
 30
0.0
 11
34.17946675615261
 21
104.6124469280069
 31
0.0
  0
LINE
  5
16D
330
157
100
AcDbEntity
  8
5 Hatches
 62
     0
370
     9
100
AcDbLine
 10
30.44985514030745
 20
100.5467370029196
 30
0.0
 11
30.24988560127617
 21
100.5432465216322
 31
0.0
  0
LINE
  5
16E
330
157
100
AcDbEntity
  8
5 Hatches
 62
     0
370
     9
100
AcDbLine
 10
26.52027398543101
 20
96.47753659654495
 30
0.0
 11
26.32030444639974
 21
96.4740461152575
 31
0.0
  0
LINE
  5
16F
330
157
100
AcDbEntity
  8
5 Hatches
 62
     0
370
     9
100
AcDbLine
 10
26.59008361118015
 20
92.47814581591938
 30
0.0
 11
26.39011407214887
 21
92.47465533463192
 31
0.0
  0
LINE
  5
170
330
157
100
AcDbEntity
  8
5 Hatches
 62
     0
370
     9
100
AcDbLine
 10
26.65989323692929
 20
88.47875503529382
 30
0.0
 11
26.45992369789801
 21
88.47526455400636
 31
0.0
  0
LINE
  5
171
330
157
100
AcDbEntity
  8
5 Hatches
 62
     0
370
     9
100
AcDbLine
 10
22.73031208205285
 20
84.40955462891912
 30
0.0
 11
22.53034254302158
 21
84.40606414763167
 31
0.0
  0
LINE
  5
172
330
157
100
AcDbEntity
  8
5 Hatches
 62
     0
370
     9
100
AcDbLine
 10
22.80012170780199
 20
80.41016384829355
 30
0.0
 11
22.60015216877071
 21
80.40667336700609
 31
0.0
  0
LINE
  5
173
330
157
100
AcDbEntity
  8
5 Hatches
 62
     0
370
     9
100
AcDbLine
 10
22.86993133355112
 20
76.41077306766799
 30
0.0
 11
22.66996179451985
 21
76.40728258638053
 31
0.0
  0
LINE
  5
174
330
157
100
AcDbEntity
  8
5 Hatches
 62
     0
370
     9
100
AcDbLine
 10
42.23859860493674
 20
112.7543382220437
 30
0.0
 11
42.03862906590546
 21
112.7508477407563
 31
0.0
  0
LINE
  5
175
330
157
100
AcDbEntity
  8
5 Hatches
 62
     0
370
     9
100
AcDbLine
 10
38.30901745006031
 20
108.685137815669
 30
0.0
 11
38.10904791102903
 21
108.6816473343816
 31
0.0
  0
LINE
  5
176
330
157
100
AcDbEntity
  8
5 Hatches
 62
     0
370
     9
100
AcDbLine
 10
38.37882707580944
 20
104.6857470350435
 30
0.0
 11
38.17885753677817
 21
104.682256553756
 31
0.0
  0
LINE
  5
177
330
157
100
AcDbEntity
  8
5 Hatches
 62
     0
370
     9
100
AcDbLine
 10
34.44924592093302
 20
100.6165466286688
 30
0.0
 11
34.24927638190174
 21
100.6130561473813
 31
0.0
  0
LINE
  5
178
330
157
100
AcDbEntity
  8
5 Hatches
 62
     0
370
     9
100
AcDbLine
 10
30.51966476605658
 20
96.54734622229408
 30
0.0
 11
30.3196952270253
 21
96.54385574100662
 31
0.0
  0
LINE
  5
179
330
157
100
AcDbEntity
  8
5 Hatches
 62
     0
370
     9
100
AcDbLine
 10
30.58947439180572
 20
92.5479554416685
 30
0.0
 11
30.38950485277444
 21
92.54446496038105
 31
0.0
  0
LINE
  5
17A
330
157
100
AcDbEntity
  8
5 Hatches
 62
     0
370
     9
100
AcDbLine
 10
30.65928401755485
 20
88.54856466104295
 30
0.0
 11
30.45931447852357
 21
88.54507417975549
 31
0.0
  0
LINE
  5
17B
330
157
100
AcDbEntity
  8
5 Hatches
 62
     0
370
     9
100
AcDbLine
 10
26.72970286267842
 20
84.47936425466825
 30
0.0
 11
26.52973332364714
 21
84.4758737733808
 31
0.0
  0
LINE
  5
17C
330
157
100
AcDbEntity
  8
5 Hatches
 62
     0
370
     9
100
AcDbLine
 10
26.79951248842755
 20
80.47997347404268
 30
0.0
 11
26.59954294939628
 21
80.47648299275522
 31
0.0
  0
LINE
  5
17D
330
157
100
AcDbEntity
  8
5 Hatches
 62
     0
370
     9
100
AcDbLine
 10
26.86932211417669
 20
76.48058269341712
 30
0.0
 11
26.66935257514541
 21
76.47709221212966
 31
0.0
  0
LINE
  5
17E
330
157
100
AcDbEntity
  8
5 Hatches
 62
     0
370
     9
100
AcDbLine
 10
26.93913173992582
 20
72.48119191279156
 30
0.0
 11
26.73916220089454
 21
72.4777014315041
 31
0.0
  0
LINE
  5
17F
330
157
100
AcDbEntity
  8
5 Hatches
 62
     0
370
     9
100
AcDbLine
 10
27.00894136567495
 20
68.48180113216598
 30
0.0
 11
26.80897182664368
 21
68.47831065087853
 31
0.0
  0
LINE
  5
180
330
157
100
AcDbEntity
  8
5 Hatches
 62
     0
370
     9
100
AcDbLine
 10
27.07875099142409
 20
64.48241035154042
 30
0.0
 11
26.87878145239281
 21
64.47891987025297
 31
0.0
  0
LINE
  5
181
330
157
100
AcDbEntity
  8
5 Hatches
 62
     0
370
     9
100
AcDbLine
 10
31.14795139779879
 20
60.55282919666399
 30
0.0
 11
30.94798185876751
 21
60.54933871537654
 31
0.0
  0
LINE
  5
182
330
157
100
AcDbEntity
  8
5 Hatches
 62
     0
370
     9
100
AcDbLine
 10
31.21776102354792
 20
56.55343841603843
 30
0.0
 11
31.01779148451664
 21
56.54994793475097
 31
0.0
  0
LINE
  5
183
330
157
100
AcDbEntity
  8
5 Hatches
 62
     0
370
     9
100
AcDbLine
 10
31.28757064929706
 20
52.55404763541286
 30
0.0
 11
31.08760111026578
 21
52.55055715412541
 31
0.0
  0
LINE
  5
184
330
157
100
AcDbEntity
  8
5 Hatches
 62
     0
370
     9
100
AcDbLine
 10
42.37821785643501
 20
104.7555566607926
 30
0.0
 11
42.17824831740373
 21
104.7520661795051
 31
0.0
  0
LINE
  5
185
330
157
100
AcDbEntity
  8
5 Hatches
 62
     0
370
     9
100
AcDbLine
 10
38.44863670155858
 20
100.6863562544179
 30
0.0
 11
38.2486671625273
 21
100.6828657731305
 31
0.0
  0
LINE
  5
186
330
157
100
AcDbEntity
  8
5 Hatches
 62
     0
370
     9
100
AcDbLine
 10
34.51905554668215
 20
96.61715584804321
 30
0.0
 11
34.31908600765087
 21
96.61366536675577
 31
0.0
  0
LINE
  5
187
330
157
100
AcDbEntity
  8
5 Hatches
 62
     0
370
     9
100
AcDbLine
 10
34.58886517243128
 20
92.61776506741764
 30
0.0
 11
34.3888956334
 21
92.6142745861302
 31
0.0
  0
LINE
  5
188
330
157
100
AcDbEntity
  8
5 Hatches
 62
     0
370
     9
100
AcDbLine
 10
82.6513641656872
 20
89.4560897957817
 30
0.0
 11
82.45139462665593
 21
89.45259931449424
 31
0.0
  0
LINE
  5
189
330
157
100
AcDbEntity
  8
5 Hatches
 62
     0
370
     9
100
AcDbLine
 10
30.72909364330399
 20
84.54917388041738
 30
0.0
 11
30.52912410427271
 21
84.54568339912993
 31
0.0
  0
LINE
  5
18A
330
157
100
AcDbEntity
  8
5 Hatches
 62
     0
370
     9
100
AcDbLine
 10
30.79890326905312
 20
80.54978309979181
 30
0.0
 11
30.59893373002184
 21
80.54629261850435
 31
0.0
  0
LINE
  5
18B
330
157
100
AcDbEntity
  8
5 Hatches
 62
     0
370
     9
100
AcDbLine
 10
30.83130708286953
 20
76.54973939829027
 30
0.0
 11
30.66874335577097
 21
76.54690183787879
 31
0.0
  0
LINE
  5
18C
330
157
100
AcDbEntity
  8
5 Hatches
 62
     0
370
     9
100
AcDbLine
 10
30.85001458946317
 20
72.54945662685688
 30
0.0
 11
30.73855298152011
 21
72.54751105725323
 31
0.0
  0
LINE
  5
18D
330
157
100
AcDbEntity
  8
5 Hatches
 62
     0
370
     9
100
AcDbLine
 10
31.00833214630052
 20
68.55161075791511
 30
0.0
 11
30.80836260726924
 21
68.54812027662766
 31
0.0
  0
LINE
  5
18E
330
157
100
AcDbEntity
  8
5 Hatches
 62
     0
370
     9
100
AcDbLine
 10
31.07814177204965
 20
64.55221997728957
 30
0.0
 11
30.87817223301838
 21
64.54872949600211
 31
0.0
  0
LINE
  5
18F
330
157
100
AcDbEntity
  8
5 Hatches
 62
     0
370
     9
100
AcDbLine
 10
55.14429608155218
 20
60.9716869511588
 30
0.0
 11
54.9443265425209
 21
60.96819646987134
 31
0.0
  0
LINE
  5
190
330
157
100
AcDbEntity
  8
5 Hatches
 62
     0
370
     9
100
AcDbLine
 10
51.21471492667575
 20
56.9024865447841
 30
0.0
 11
51.01474538764447
 21
56.89899606349665
 31
0.0
  0
LINE
  5
191
330
157
100
AcDbEntity
  8
5 Hatches
 62
     0
370
     9
100
AcDbLine
 10
35.28696142992263
 20
52.623857261162
 30
0.0
 11
35.08699189089135
 21
52.62036677987454
 31
0.0
  0
LINE
  5
192
330
157
100
AcDbEntity
  8
5 Hatches
 62
     0
370
     9
100
AcDbLine
 10
43.56498149417029
 20
36.76591339015801
 30
0.0
 11
43.36501195513901
 21
36.76242290887055
 31
0.0
  0
LINE
  5
193
330
157
100
AcDbEntity
  8
5 Hatches
 62
     0
370
     9
100
AcDbLine
 10
39.49578108779559
 20
40.69549454503444
 30
0.0
 11
39.29581154876431
 21
40.69200406374699
 31
0.0
  0
LINE
  5
194
330
157
100
AcDbEntity
  8
5 Hatches
 62
     0
370
     9
100
AcDbLine
 10
35.42658068142089
 20
44.62507569991087
 30
0.0
 11
35.22661114238961
 21
44.62158521862342
 31
0.0
  0
LINE
  5
195
330
157
100
AcDbEntity
  8
5 Hatches
 62
     0
370
     9
100
AcDbLine
 10
35.35677105567176
 20
48.62446648053644
 30
0.0
 11
35.15680151664048
 21
48.62097599924898
 31
0.0
  0
LINE
  5
196
330
157
100
AcDbEntity
  8
5 Hatches
 62
     0
370
     9
100
AcDbLine
 10
47.28513377179932
 20
52.83328613840941
 30
0.0
 11
47.08516423276804
 21
52.82979565712195
 31
0.0
  0
LINE
  5
197
330
157
100
AcDbEntity
  8
5 Hatches
 62
     0
370
     9
100
AcDbLine
 10
55.21410570730131
 20
56.97229617053324
 30
0.0
 11
55.01413616827003
 21
56.96880568924578
 31
0.0
  0
LINE
  5
198
330
157
100
AcDbEntity
  8
5 Hatches
 62
     0
370
     9
100
AcDbLine
 10
59.14368686217775
 20
61.04149657690793
 30
0.0
 11
58.94371732314647
 21
61.03800609562047
 31
0.0
  0
LINE
  5
199
330
157
100
AcDbEntity
  8
5 Hatches
 62
     0
370
     9
100
AcDbLine
 10
59.07387723642861
 20
65.0408873575335
 30
0.0
 11
58.87390769739733
 21
65.03739687624605
 31
0.0
  0
LINE
  5
19A
330
157
100
AcDbEntity
  8
5 Hatches
 62
     0
370
     9
100
AcDbLine
 10
63.00345839130505
 20
69.11008776390818
 30
0.0
 11
62.80348885227377
 21
69.10659728262073
 31
0.0
  0
LINE
  5
19B
330
157
100
AcDbEntity
  8
5 Hatches
 62
     0
370
     9
100
AcDbLine
 10
66.93303954618148
 20
73.1792881702829
 30
0.0
 11
66.73307000715019
 21
73.17579768899544
 31
0.0
  0
LINE
  5
19C
330
157
100
AcDbEntity
  8
5 Hatches
 62
     0
370
     9
100
AcDbLine
 10
70.8626207010579
 20
77.24848857665759
 30
0.0
 11
70.66265116202663
 21
77.24499809537014
 31
0.0
  0
LINE
  5
19D
330
157
100
AcDbEntity
  8
5 Hatches
 62
     0
370
     9
100
AcDbLine
 10
74.79220185593434
 20
81.31768898303228
 30
0.0
 11
74.59223231690305
 21
81.31419850174483
 31
0.0
  0
LINE
  5
19E
330
157
100
AcDbEntity
  8
5 Hatches
 62
     0
370
     9
100
AcDbLine
 10
78.72178301081077
 20
85.386889389407
 30
0.0
 11
78.52181347177948
 21
85.38339890811955
 31
0.0
  0
LINE
  5
19F
330
157
100
AcDbEntity
  8
5 Hatches
 62
     0
370
     9
100
AcDbLine
 10
86.65075494631276
 20
89.52589942153082
 30
0.0
 11
86.45078540728149
 21
89.52240894024337
 31
0.0
  0
LINE
  5
1A0
330
157
100
AcDbEntity
  8
5 Hatches
 62
     0
370
     9
100
AcDbLine
 10
86.58094532056363
 20
93.52529020215638
 30
0.0
 11
86.38097578153236
 21
93.52179972086893
 31
0.0
  0
LINE
  5
1A1
330
157
100
AcDbEntity
  8
5 Hatches
 62
     0
370
     9
100
AcDbLine
 10
90.51052647544006
 20
97.59449060853109
 30
0.0
 11
90.31055693640877
 21
97.59100012724363
 31
0.0
  0
LINE
  5
1A2
330
157
100
AcDbEntity
  8
5 Hatches
 62
     0
370
     9
100
AcDbLine
 10
94.44010763031649
 20
101.6636910149058
 30
0.0
 11
94.24013809128522
 21
101.6602005336183
 31
0.0
  0
LINE
  5
1A3
330
157
100
AcDbEntity
  8
5 Hatches
 62
     0
370
     9
100
AcDbLine
 10
63.77136427454553
 20
25.11678917702699
 30
0.0
 11
63.57139473551424
 21
25.11329869573953
 31
0.0
  0
LINE
  5
1A4
330
157
100
AcDbEntity
  8
5 Hatches
 62
     0
370
     9
100
AcDbLine
 10
67.77075505517108
 20
25.18659880277612
 30
0.0
 11
67.5707855161398
 21
25.18310832148867
 31
0.0
  0
LINE
  5
1A5
330
157
100
AcDbEntity
  8
5 Hatches
 62
     0
370
     9
100
AcDbLine
 10
71.77014583579664
 20
25.25640842852526
 30
0.0
 11
71.57017629676537
 21
25.2529179472378
 31
0.0
  0
LINE
  5
1A6
330
157
100
AcDbEntity
  8
5 Hatches
 62
     0
370
     9
100
AcDbLine
 10
75.76953661642222
 20
25.32621805427439
 30
0.0
 11
75.56956707739093
 21
25.32272757298693
 31
0.0
  0
LINE
  5
1A7
330
157
100
AcDbEntity
  8
5 Hatches
 62
     0
370
     9
100
AcDbLine
 10
79.76892739704778
 20
25.39602768002353
 30
0.0
 11
79.56895785801649
 21
25.39253719873607
 31
0.0
  0
LINE
  5
1A8
330
157
100
AcDbEntity
  8
5 Hatches
 62
     0
370
     9
100
AcDbLine
 10
83.76831817767334
 20
25.46583730577266
 30
0.0
 11
83.56834863864206
 21
25.4623468244852
 31
0.0
  0
LINE
  5
1A9
330
157
100
AcDbEntity
  8
5 Hatches
 62
     0
370
     9
100
AcDbLine
 10
87.7677089582989
 20
25.53564693152179
 30
0.0
 11
87.56773941926762
 21
25.53215645023434
 31
0.0
  0
LINE
  5
1AA
330
157
100
AcDbEntity
  8
5 Hatches
 62
     0
370
     9
100
AcDbLine
 10
55.70277308754525
 20
28.97656070615429
 30
0.0
 11
55.50280354851397
 21
28.97307022486683
 31
0.0
  0
LINE
  5
1AB
330
157
100
AcDbEntity
  8
5 Hatches
 62
     0
370
     9
100
AcDbLine
 10
59.70216386817082
 20
29.04637033190342
 30
0.0
 11
59.50219432913953
 21
29.04287985061596
 31
0.0
  0
LINE
  5
1AC
330
157
100
AcDbEntity
  8
5 Hatches
 62
     0
370
     9
100
AcDbLine
 10
63.70155464879639
 20
29.11617995765256
 30
0.0
 11
63.5015851097651
 21
29.1126894763651
 31
0.0
  0
LINE
  5
1AD
330
157
100
AcDbEntity
  8
5 Hatches
 62
     0
370
     9
100
AcDbLine
 10
67.70094542942195
 20
29.18598958340169
 30
0.0
 11
67.50097589039066
 21
29.18249910211423
 31
0.0
  0
LINE
  5
1AE
330
157
100
AcDbEntity
  8
5 Hatches
 62
     0
370
     9
100
AcDbLine
 10
71.70033621004751
 20
29.25579920915082
 30
0.0
 11
71.50036667101624
 21
29.25230872786337
 31
0.0
  0
LINE
  5
1AF
330
157
100
AcDbEntity
  8
5 Hatches
 62
     0
370
     9
100
AcDbLine
 10
75.69972699067308
 20
29.32560883489996
 30
0.0
 11
75.4997574516418
 21
29.3221183536125
 31
0.0
  0
LINE
  5
1B0
330
157
100
AcDbEntity
  8
5 Hatches
 62
     0
370
     9
100
AcDbLine
 10
79.69911777129865
 20
29.39541846064909
 30
0.0
 11
79.49914823226736
 21
29.39192797936163
 31
0.0
  0
LINE
  5
1B1
330
157
100
AcDbEntity
  8
5 Hatches
 62
     0
370
     9
100
AcDbLine
 10
83.6985085519242
 20
29.46522808639822
 30
0.0
 11
83.49853901289293
 21
29.46173760511077
 31
0.0
  0
LINE
  5
1B2
330
157
100
AcDbEntity
  8
5 Hatches
 62
     0
370
     9
100
AcDbLine
 10
87.69789933254977
 20
29.53503771214736
 30
0.0
 11
87.4979297935185
 21
29.5315472308599
 31
0.0
  0
LINE
  5
1B3
330
157
100
AcDbEntity
  8
5 Hatches
 62
     0
370
     9
100
AcDbLine
 10
91.69729011317534
 20
29.60484733789649
 30
0.0
 11
91.49732057414406
 21
29.60135685660904
 31
0.0
  0
LINE
  5
1B4
330
157
100
AcDbEntity
  8
5 Hatches
 62
     0
370
     9
100
AcDbLine
 10
95.6966808938009
 20
29.67465696364563
 30
0.0
 11
95.49671135476963
 21
29.67116648235817
 31
0.0
  0
LINE
  5
1B5
330
157
100
AcDbEntity
  8
5 Hatches
 62
     0
370
     9
100
AcDbLine
 10
47.63418190054499
 20
32.83633223528158
 30
0.0
 11
47.43421236151372
 21
32.83284175399412
 31
0.0
  0
LINE
  5
1B6
330
157
100
AcDbEntity
  8
5 Hatches
 62
     0
370
     9
100
AcDbLine
 10
51.63357268117056
 20
32.90614186103072
 30
0.0
 11
51.43360314213928
 21
32.90265137974326
 31
0.0
  0
LINE
  5
1B7
330
157
100
AcDbEntity
  8
5 Hatches
 62
     0
370
     9
100
AcDbLine
 10
55.63296346179612
 20
32.97595148677985
 30
0.0
 11
55.43299392276484
 21
32.97246100549239
 31
0.0
  0
LINE
  5
1B8
330
157
100
AcDbEntity
  8
5 Hatches
 62
     0
370
     9
100
AcDbLine
 10
59.63235424242169
 20
33.04576111252899
 30
0.0
 11
59.4323847033904
 21
33.04227063124153
 31
0.0
  0
LINE
  5
1B9
330
157
100
AcDbEntity
  8
5 Hatches
 62
     0
370
     9
100
AcDbLine
 10
63.63174502304726
 20
33.11557073827812
 30
0.0
 11
63.43177548401597
 21
33.11208025699066
 31
0.0
  0
LINE
  5
1BA
330
157
100
AcDbEntity
  8
5 Hatches
 62
     0
370
     9
100
AcDbLine
 10
67.63113580367282
 20
33.18538036402725
 30
0.0
 11
67.43116626464153
 21
33.1818898827398
 31
0.0
  0
LINE
  5
1BB
330
157
100
AcDbEntity
  8
5 Hatches
 62
     0
370
     9
100
AcDbLine
 10
71.63052658429838
 20
33.25518998977638
 30
0.0
 11
71.43055704526711
 21
33.25169950848893
 31
0.0
  0
LINE
  5
1BC
330
157
100
AcDbEntity
  8
5 Hatches
 62
     0
370
     9
100
AcDbLine
 10
75.62991736492395
 20
33.32499961552552
 30
0.0
 11
75.42994782589267
 21
33.32150913423806
 31
0.0
  0
LINE
  5
1BD
330
157
100
AcDbEntity
  8
5 Hatches
 62
     0
370
     9
100
AcDbLine
 10
79.62930814554952
 20
33.39480924127466
 30
0.0
 11
79.42933860651823
 21
33.3913187599872
 31
0.0
  0
LINE
  5
1BE
330
157
100
AcDbEntity
  8
5 Hatches
 62
     0
370
     9
100
AcDbLine
 10
83.62869892617508
 20
33.46461886702379
 30
0.0
 11
83.4287293871438
 21
33.46112838573633
 31
0.0
  0
LINE
  5
1BF
330
157
100
AcDbEntity
  8
5 Hatches
 62
     0
370
     9
100
AcDbLine
 10
87.62808970680064
 20
33.53442849277292
 30
0.0
 11
87.42812016776936
 21
33.53093801148547
 31
0.0
  0
LINE
  5
1C0
330
157
100
AcDbEntity
  8
5 Hatches
 62
     0
370
     9
100
AcDbLine
 10
91.62748048742621
 20
33.60423811852205
 30
0.0
 11
91.42751094839493
 21
33.6007476372346
 31
0.0
  0
LINE
  5
1C1
330
157
100
AcDbEntity
  8
5 Hatches
 62
     0
370
     9
100
AcDbLine
 10
95.62687126805177
 20
33.67404774427119
 30
0.0
 11
95.4269017290205
 21
33.67055726298373
 31
0.0
  0
LINE
  5
1C2
330
157
100
AcDbEntity
  8
5 Hatches
 62
     0
370
     9
100
AcDbLine
 10
99.62626204867733
 20
33.74385737002032
 30
0.0
 11
99.42629250964606
 21
33.74036688873286
 31
0.0
  0
LINE
  5
1C3
330
157
100
AcDbEntity
  8
5 Hatches
 62
     0
370
     9
100
AcDbLine
 10
103.6256528293029
 20
33.81366699576946
 30
0.0
 11
103.4256832902716
 21
33.810176514482
 31
0.0
  0
LINE
  5
1C4
330
157
100
AcDbEntity
  8
5 Hatches
 62
     0
370
     9
100
AcDbLine
 10
47.56437227479586
 20
36.83572301590715
 30
0.0
 11
47.36440273576458
 21
36.83223253461969
 31
0.0
  0
LINE
  5
1C5
330
157
100
AcDbEntity
  8
5 Hatches
 62
     0
370
     9
100
AcDbLine
 10
51.56376305542142
 20
36.90553264165628
 30
0.0
 11
51.36379351639014
 21
36.90204216036882
 31
0.0
  0
LINE
  5
1C6
330
157
100
AcDbEntity
  8
5 Hatches
 62
     0
370
     9
100
AcDbLine
 10
55.56315383604699
 20
36.97534226740542
 30
0.0
 11
55.36318429701571
 21
36.97185178611796
 31
0.0
  0
LINE
  5
1C7
330
157
100
AcDbEntity
  8
5 Hatches
 62
     0
370
     9
100
AcDbLine
 10
91.55767086167707
 20
37.60362889914762
 30
0.0
 11
91.35770132264578
 21
37.60013841786017
 31
0.0
  0
LINE
  5
1C8
330
157
100
AcDbEntity
  8
5 Hatches
 62
     0
370
     9
100
AcDbLine
 10
95.55706164230263
 20
37.67343852489675
 30
0.0
 11
95.35709210327136
 21
37.6699480436093
 31
0.0
  0
LINE
  5
1C9
330
157
100
AcDbEntity
  8
5 Hatches
 62
     0
370
     9
100
AcDbLine
 10
99.55645242292819
 20
37.74324815064589
 30
0.0
 11
99.35648288389692
 21
37.73975766935843
 31
0.0
  0
LINE
  5
1CA
330
157
100
AcDbEntity
  8
5 Hatches
 62
     0
370
     9
100
AcDbLine
 10
103.5558432035538
 20
37.81305777639502
 30
0.0
 11
103.3558736645225
 21
37.80956729510757
 31
0.0
  0
LINE
  5
1CB
330
157
100
AcDbEntity
  8
5 Hatches
 62
     0
370
     9
100
AcDbLine
 10
107.5552339841793
 20
37.88286740214416
 30
0.0
 11
107.355264445148
 21
37.8793769208567
 31
0.0
  0
LINE
  5
1CC
330
157
100
AcDbEntity
  8
5 Hatches
 62
     0
370
     9
100
AcDbLine
 10
43.49517186842115
 20
40.76530417078357
 30
0.0
 11
43.29520232938987
 21
40.76181368949612
 31
0.0
  0
LINE
  5
1CD
330
157
100
AcDbEntity
  8
5 Hatches
 62
     0
370
     9
100
AcDbLine
 10
47.49456264904672
 20
40.83511379653271
 30
0.0
 11
47.29459311001544
 21
40.83162331524525
 31
0.0
  0
LINE
  5
1CE
330
157
100
AcDbEntity
  8
5 Hatches
 62
     0
370
     9
100
AcDbLine
 10
99.48664279717906
 20
41.74263893127145
 30
0.0
 11
99.28667325814779
 21
41.73914844998399
 31
0.0
  0
LINE
  5
1CF
330
157
100
AcDbEntity
  8
5 Hatches
 62
     0
370
     9
100
AcDbLine
 10
103.4860335778046
 20
41.81244855702058
 30
0.0
 11
103.2860640387733
 21
41.80895807573313
 31
0.0
  0
LINE
  5
1D0
330
157
100
AcDbEntity
  8
5 Hatches
 62
     0
370
     9
100
AcDbLine
 10
107.4854243584302
 20
41.88225818276972
 30
0.0
 11
107.2854548193989
 21
41.87876770148226
 31
0.0
  0
LINE
  5
1D1
330
157
100
AcDbEntity
  8
5 Hatches
 62
     0
370
     9
100
AcDbLine
 10
111.4848151390558
 20
41.95206780851885
 30
0.0
 11
111.2848456000245
 21
41.9485773272314
 31
0.0
  0
LINE
  5
1D2
330
157
100
AcDbEntity
  8
5 Hatches
 62
     0
370
     9
100
AcDbLine
 10
39.42597146204645
 20
44.69488532566001
 30
0.0
 11
39.22600192301518
 21
44.69139484437255
 31
0.0
  0
LINE
  5
1D3
330
157
100
AcDbEntity
  8
5 Hatches
 62
     0
370
     9
100
AcDbLine
 10
43.42536224267202
 20
44.76469495140914
 30
0.0
 11
43.22539270364074
 21
44.76120447012168
 31
0.0
  0
LINE
  5
1D4
330
157
100
AcDbEntity
  8
5 Hatches
 62
     0
370
     9
100
AcDbLine
 10
103.4162239520555
 20
45.81183933764615
 30
0.0
 11
103.2162544130242
 21
45.8083488563587
 31
0.0
  0
LINE
  5
1D5
330
157
100
AcDbEntity
  8
5 Hatches
 62
     0
370
     9
100
AcDbLine
 10
107.4156147326811
 20
45.88164896339529
 30
0.0
 11
107.2156451936498
 21
45.87815848210783
 31
0.0
  0
LINE
  5
1D6
330
157
100
AcDbEntity
  8
5 Hatches
 62
     0
370
     9
100
AcDbLine
 10
111.4150055133066
 20
45.95145858914442
 30
0.0
 11
111.2150359742754
 21
45.94796810785697
 31
0.0
  0
LINE
  5
1D7
330
157
100
AcDbEntity
  8
5 Hatches
 62
     0
370
     9
100
AcDbLine
 10
115.4143962939322
 20
46.02126821489355
 30
0.0
 11
115.2144267549009
 21
46.0177777336061
 31
0.0
  0
LINE
  5
1D8
330
157
100
AcDbEntity
  8
5 Hatches
 62
     0
370
     9
100
AcDbLine
 10
39.35616183629732
 20
48.69427610628558
 30
0.0
 11
39.15619229726604
 21
48.69078562499812
 31
0.0
  0
LINE
  5
1D9
330
157
100
AcDbEntity
  8
5 Hatches
 62
     0
370
     9
100
AcDbLine
 10
43.35555261692289
 20
48.76408573203471
 30
0.0
 11
43.15558307789161
 21
48.76059525074725
 31
0.0
  0
LINE
  5
1DA
330
157
100
AcDbEntity
  8
5 Hatches
 62
     0
370
     9
100
AcDbLine
 10
47.35494339754845
 20
48.83389535778385
 30
0.0
 11
47.15497385851717
 21
48.83040487649639
 31
0.0
  0
LINE
  5
1DB
330
157
100
AcDbEntity
  8
5 Hatches
 62
     0
370
     9
100
AcDbLine
 10
51.23909884430997
 20
48.90169354329836
 30
0.0
 11
51.15436463914273
 21
48.90021450224552
 31
0.0
  0
LINE
  5
1DC
330
157
100
AcDbEntity
  8
5 Hatches
 62
     0
370
     9
100
AcDbLine
 10
107.3458051069319
 20
49.88103974402085
 30
0.0
 11
107.1458355679006
 21
49.8775492627334
 31
0.0
  0
LINE
  5
1DD
330
157
100
AcDbEntity
  8
5 Hatches
 62
     0
370
     9
100
AcDbLine
 10
111.3451958875575
 20
49.95084936976999
 30
0.0
 11
111.1452263485262
 21
49.94735888848253
 31
0.0
  0
LINE
  5
1DE
330
157
100
AcDbEntity
  8
5 Hatches
 62
     0
370
     9
100
AcDbLine
 10
115.3445866681831
 20
50.02065899551912
 30
0.0
 11
115.1446171291518
 21
50.01716851423166
 31
0.0
  0
LINE
  5
1DF
330
157
100
AcDbEntity
  8
5 Hatches
 62
     0
370
     9
100
AcDbLine
 10
51.28452455242488
 20
52.90309576415854
 30
0.0
 11
51.0845550133936
 21
52.89960528287108
 31
0.0
  0
LINE
  5
1E0
330
157
100
AcDbEntity
  8
5 Hatches
 62
     0
370
     9
100
AcDbLine
 10
55.28391533305045
 20
52.97290538990767
 30
0.0
 11
55.08394579401917
 21
52.96941490862022
 31
0.0
  0
LINE
  5
1E1
330
157
100
AcDbEntity
  8
5 Hatches
 62
     0
370
     9
100
AcDbLine
 10
107.2759954811828
 20
53.88043052464641
 30
0.0
 11
107.2358632983487
 21
53.87973001478933
 31
0.0
  0
LINE
  5
1E2
330
157
100
AcDbEntity
  8
5 Hatches
 62
     0
370
     9
100
AcDbLine
 10
111.2753862618084
 20
53.95024015039555
 30
0.0
 11
111.0754167227771
 21
53.94674966910809
 31
0.0
  0
LINE
  5
1E3
330
157
100
AcDbEntity
  8
5 Hatches
 62
     0
370
     9
100
AcDbLine
 10
115.2747770424339
 20
54.02004977614468
 30
0.0
 11
115.0748075034026
 21
54.01655929485722
 31
0.0
  0
LINE
  5
1E4
330
157
100
AcDbEntity
  8
5 Hatches
 62
     0
370
     9
100
AcDbLine
 10
119.2741678230595
 20
54.08985940189382
 30
0.0
 11
119.0741982840282
 21
54.08636892060636
 31
0.0
  0
LINE
  5
1E5
330
157
100
AcDbEntity
  8
5 Hatches
 62
     0
370
     9
100
AcDbLine
 10
59.21349648792688
 20
57.04210579628237
 30
0.0
 11
59.0135269488956
 21
57.03861531499491
 31
0.0
  0
LINE
  5
1E6
330
157
100
AcDbEntity
  8
5 Hatches
 62
     0
370
     9
100
AcDbLine
 10
111.2055766360592
 20
57.94963093102112
 30
0.0
 11
111.0056070970279
 21
57.94614044973366
 31
0.0
  0
LINE
  5
1E7
330
157
100
AcDbEntity
  8
5 Hatches
 62
     0
370
     9
100
AcDbLine
 10
115.2049674166848
 20
58.01944055677025
 30
0.0
 11
115.0049978776535
 21
58.01595007548279
 31
0.0
  0
LINE
  5
1E8
330
157
100
AcDbEntity
  8
5 Hatches
 62
     0
370
     9
100
AcDbLine
 10
119.2043581973104
 20
58.08925018251939
 30
0.0
 11
119.0043886582791
 21
58.08575970123193
 31
0.0
  0
LINE
  5
1E9
330
157
100
AcDbEntity
  8
5 Hatches
 62
     0
370
     9
100
AcDbLine
 10
63.14307764280332
 20
61.11130620265707
 30
0.0
 11
62.94310810377203
 21
61.10781572136961
 31
0.0
  0
LINE
  5
1EA
330
157
100
AcDbEntity
  8
5 Hatches
 62
     0
370
     9
100
AcDbLine
 10
115.1351577909357
 20
62.01883133739581
 30
0.0
 11
114.9351882519044
 21
62.01534085610835
 31
0.0
  0
LINE
  5
1EB
330
157
100
AcDbEntity
  8
5 Hatches
 62
     0
370
     9
100
AcDbLine
 10
119.1345485715612
 20
62.08864096314495
 30
0.0
 11
118.9345790325299
 21
62.08515048185749
 31
0.0
  0
LINE
  5
1EC
330
157
100
AcDbEntity
  8
5 Hatches
 62
     0
370
     9
100
AcDbLine
 10
122.9801748480617
 20
62.15576661949092
 30
0.0
 11
122.9339698131555
 21
62.15496010760662
 31
0.0
  0
LINE
  5
1ED
330
157
100
AcDbEntity
  8
5 Hatches
 62
     0
370
     9
100
AcDbLine
 10
63.07326801705418
 20
65.11069698328264
 30
0.0
 11
62.8732984780229
 21
65.10720650199518
 31
0.0
  0
LINE
  5
1EE
330
157
100
AcDbEntity
  8
5 Hatches
 62
     0
370
     9
100
AcDbLine
 10
67.07265879767975
 20
65.18050660903177
 30
0.0
 11
66.87268925864846
 21
65.17701612774431
 31
0.0
  0
LINE
  5
1EF
330
157
100
AcDbEntity
  8
5 Hatches
 62
     0
370
     9
100
AcDbLine
 10
115.0653481651865
 20
66.01822211802138
 30
0.0
 11
114.8653786261552
 21
66.01473163673393
 31
0.0
  0
LINE
  5
1F0
330
157
100
AcDbEntity
  8
5 Hatches
 62
     0
370
     9
100
AcDbLine
 10
119.0647389458121
 20
66.08803174377051
 30
0.0
 11
118.8647694067808
 21
66.08454126248306
 31
0.0
  0
LINE
  5
1F1
330
157
100
AcDbEntity
  8
5 Hatches
 62
     0
370
     9
100
AcDbLine
 10
123.0641297264377
 20
66.15784136951964
 30
0.0
 11
122.8641601874064
 21
66.15435088823219
 31
0.0
  0
LINE
  5
1F2
330
157
100
AcDbEntity
  8
5 Hatches
 62
     0
370
     9
100
AcDbLine
 10
67.0028491719306
 20
69.17989738965733
 30
0.0
 11
66.80287963289932
 21
69.17640690836987
 31
0.0
  0
LINE
  5
1F3
330
157
100
AcDbEntity
  8
5 Hatches
 62
     0
370
     9
100
AcDbLine
 10
71.00223995255617
 20
69.24970701540646
 30
0.0
 11
70.8022704135249
 21
69.246216534119
 31
0.0
  0
LINE
  5
1F4
330
157
100
AcDbEntity
  8
5 Hatches
 62
     0
370
     9
100
AcDbLine
 10
114.9955385394374
 20
70.01761289864693
 30
0.0
 11
114.7955690004061
 21
70.01412241735947
 31
0.0
  0
LINE
  5
1F5
330
157
100
AcDbEntity
  8
5 Hatches
 62
     0
370
     9
100
AcDbLine
 10
118.994929320063
 20
70.08742252439606
 30
0.0
 11
118.7949597810317
 21
70.0839320431086
 31
0.0
  0
LINE
  5
1F6
330
157
100
AcDbEntity
  8
5 Hatches
 62
     0
370
     9
100
AcDbLine
 10
122.9943201006885
 20
70.1572321501452
 30
0.0
 11
122.7943505616572
 21
70.15374166885775
 31
0.0
  0
LINE
  5
1F7
330
157
100
AcDbEntity
  8
5 Hatches
 62
     0
370
     9
100
AcDbLine
 10
70.93243032680704
 20
73.24909779603203
 30
0.0
 11
70.73246078777576
 21
73.24560731474457
 31
0.0
  0
LINE
  5
1F8
330
157
100
AcDbEntity
  8
5 Hatches
 62
     0
370
     9
100
AcDbLine
 10
74.93182110743261
 20
73.31890742178116
 30
0.0
 11
74.73185156840132
 21
73.3154169404937
 31
0.0
  0
LINE
  5
1F9
330
157
100
AcDbEntity
  8
5 Hatches
 62
     0
370
     9
100
AcDbLine
 10
114.9257289136883
 20
74.0170036792725
 30
0.0
 11
114.725759374657
 21
74.01351319798505
 31
0.0
  0
LINE
  5
1FA
330
157
100
AcDbEntity
  8
5 Hatches
 62
     0
370
     9
100
AcDbLine
 10
118.9251196943138
 20
74.08681330502164
 30
0.0
 11
118.7251501552825
 21
74.08332282373418
 31
0.0
  0
LINE
  5
1FB
330
157
100
AcDbEntity
  8
5 Hatches
 62
     0
370
     9
100
AcDbLine
 10
122.9245104749394
 20
74.15662293077078
 30
0.0
 11
122.7245409359081
 21
74.15313244948332
 31
0.0
  0
LINE
  5
1FC
330
157
100
AcDbEntity
  8
5 Hatches
 62
     0
370
     9
100
AcDbLine
 10
74.86201148168348
 20
77.31829820240672
 30
0.0
 11
74.6620419426522
 21
77.31480772111927
 31
0.0
  0
LINE
  5
1FD
330
157
100
AcDbEntity
  8
5 Hatches
 62
     0
370
     9
100
AcDbLine
 10
78.86140226230904
 20
77.38810782815587
 30
0.0
 11
78.66143272327776
 21
77.38461734686841
 31
0.0
  0
LINE
  5
1FE
330
157
100
AcDbEntity
  8
5 Hatches
 62
     0
370
     9
100
AcDbLine
 10
114.8559192879391
 20
78.01639445989807
 30
0.0
 11
114.6559497489078
 21
78.01290397861061
 31
0.0
  0
LINE
  5
1FF
330
157
100
AcDbEntity
  8
5 Hatches
 62
     0
370
     9
100
AcDbLine
 10
118.8553100685647
 20
78.0862040856472
 30
0.0
 11
118.6553405295334
 21
78.08271360435974
 31
0.0
  0
LINE
  5
200
330
157
100
AcDbEntity
  8
5 Hatches
 62
     0
370
     9
100
AcDbLine
 10
122.8547008491903
 20
78.15601371139634
 30
0.0
 11
122.654731310159
 21
78.15252323010888
 31
0.0
  0
LINE
  5
201
330
157
100
AcDbEntity
  8
5 Hatches
 62
     0
370
     9
100
AcDbLine
 10
78.7915926365599
 20
81.38749860878143
 30
0.0
 11
78.59162309752861
 21
81.38400812749397
 31
0.0
  0
LINE
  5
202
330
157
100
AcDbEntity
  8
5 Hatches
 62
     0
370
     9
100
AcDbLine
 10
82.79098341718546
 20
81.45730823453056
 30
0.0
 11
82.59101387815419
 21
81.4538177532431
 31
0.0
  0
LINE
  5
203
330
157
100
AcDbEntity
  8
5 Hatches
 62
     0
370
     9
100
AcDbLine
 10
114.78610966219
 20
82.01578524052363
 30
0.0
 11
114.5861401231587
 21
82.01229475923617
 31
0.0
  0
LINE
  5
204
330
157
100
AcDbEntity
  8
5 Hatches
 62
     0
370
     9
100
AcDbLine
 10
118.7855004428155
 20
82.08559486627276
 30
0.0
 11
118.5855309037843
 21
82.0821043849853
 31
0.0
  0
LINE
  5
205
330
157
100
AcDbEntity
  8
5 Hatches
 62
     0
370
     9
100
AcDbLine
 10
122.7848912234411
 20
82.1554044920219
 30
0.0
 11
122.5849216844098
 21
82.15191401073444
 31
0.0
  0
LINE
  5
206
330
157
100
AcDbEntity
  8
5 Hatches
 62
     0
370
     9
100
AcDbLine
 10
82.72117379143633
 20
85.45669901515613
 30
0.0
 11
82.52120425240506
 21
85.45320853386868
 31
0.0
  0
LINE
  5
207
330
157
100
AcDbEntity
  8
5 Hatches
 62
     0
370
     9
100
AcDbLine
 10
86.72056457206189
 20
85.52650864090526
 30
0.0
 11
86.52059503303062
 21
85.5230181596178
 31
0.0
  0
LINE
  5
208
330
157
100
AcDbEntity
  8
5 Hatches
 62
     0
370
     9
100
AcDbLine
 10
114.7163000364409
 20
86.0151760211492
 30
0.0
 11
114.5163304974096
 21
86.01168553986174
 31
0.0
  0
LINE
  5
209
330
157
100
AcDbEntity
  8
5 Hatches
 62
     0
370
     9
100
AcDbLine
 10
118.7156908170664
 20
86.08498564689833
 30
0.0
 11
118.5157212780351
 21
86.08149516561087
 31
0.0
  0
LINE
  5
20A
330
157
100
AcDbEntity
  8
5 Hatches
 62
     0
370
     9
100
AcDbLine
 10
122.715081597692
 20
86.15479527264748
 30
0.0
 11
122.5151120586607
 21
86.15130479136002
 31
0.0
  0
LINE
  5
20B
330
157
100
AcDbEntity
  8
5 Hatches
 62
     0
370
     9
100
AcDbLine
 10
90.65014572693833
 20
89.59570904727995
 30
0.0
 11
90.45017618790705
 21
89.5922185659925
 31
0.0
  0
LINE
  5
20C
330
157
100
AcDbEntity
  8
5 Hatches
 62
     0
370
     9
100
AcDbLine
 10
114.6464904106917
 20
90.01456680177476
 30
0.0
 11
114.4465208716604
 21
90.0110763204873
 31
0.0
  0
LINE
  5
20D
330
157
100
AcDbEntity
  8
5 Hatches
 62
     0
370
     9
100
AcDbLine
 10
118.6458811913173
 20
90.08437642752389
 30
0.0
 11
118.445911652286
 21
90.08088594623644
 31
0.0
  0
LINE
  5
20E
330
157
100
AcDbEntity
  8
5 Hatches
 62
     0
370
     9
100
AcDbLine
 10
90.5803361011892
 20
93.59509982790551
 30
0.0
 11
90.38036656215792
 21
93.59160934661806
 31
0.0
  0
LINE
  5
20F
330
157
100
AcDbEntity
  8
5 Hatches
 62
     0
370
     9
100
AcDbLine
 10
94.57972688181476
 20
93.66490945365466
 30
0.0
 11
94.37975734278349
 21
93.6614189723672
 31
0.0
  0
LINE
  5
210
330
157
100
AcDbEntity
  8
5 Hatches
 62
     0
370
     9
100
AcDbLine
 10
110.577290004317
 20
93.9441479566512
 30
0.0
 11
110.3773204652857
 21
93.94065747536374
 31
0.0
  0
LINE
  5
211
330
157
100
AcDbEntity
  8
5 Hatches
 62
     0
370
     9
100
AcDbLine
 10
114.5766807849426
 20
94.01395758240032
 30
0.0
 11
114.3767112459113
 21
94.01046710111287
 31
0.0
  0
LINE
  5
212
330
157
100
AcDbEntity
  8
5 Hatches
 62
     0
370
     9
100
AcDbLine
 10
118.5760715655682
 20
94.08376720814945
 30
0.0
 11
118.3761020265369
 21
94.080276726862
 31
0.0
  0
LINE
  5
213
330
157
100
AcDbEntity
  8
5 Hatches
 62
     0
370
     9
100
AcDbLine
 10
94.50991725606562
 20
97.66430023428023
 30
0.0
 11
94.30994771703435
 21
97.66080975299278
 31
0.0
  0
LINE
  5
214
330
157
100
AcDbEntity
  8
5 Hatches
 62
     0
370
     9
100
AcDbLine
 10
98.50930803669118
 20
97.73410986002936
 30
0.0
 11
98.30933849765991
 21
97.7306193787419
 31
0.0
  0
LINE
  5
215
330
157
100
AcDbEntity
  8
5 Hatches
 62
     0
370
     9
100
AcDbLine
 10
110.5074803785679
 20
97.94353873727677
 30
0.0
 11
110.3075108395366
 21
97.94004825598931
 31
0.0
  0
LINE
  5
216
330
157
100
AcDbEntity
  8
5 Hatches
 62
     0
370
     9
100
AcDbLine
 10
114.5068711591935
 20
98.0133483630259
 30
0.0
 11
114.3069016201622
 21
98.00985788173844
 31
0.0
  0
LINE
  5
217
330
157
100
AcDbEntity
  8
5 Hatches
 62
     0
370
     9
100
AcDbLine
 10
118.506261939819
 20
98.08315798877503
 30
0.0
 11
118.3062924007877
 21
98.07966750748757
 31
0.0
  0
LINE
  5
218
330
157
100
AcDbEntity
  8
5 Hatches
 62
     0
370
     9
100
AcDbLine
 10
98.43949841094205
 20
101.7335006406549
 30
0.0
 11
98.23952887191078
 21
101.7300101593675
 31
0.0
  0
LINE
  5
219
330
157
100
AcDbEntity
  8
5 Hatches
 62
     0
370
     9
100
AcDbLine
 10
102.4388891915676
 20
101.8033102664041
 30
0.0
 11
102.2389196525363
 21
101.7998197851166
 31
0.0
  0
LINE
  5
21A
330
157
100
AcDbEntity
  8
5 Hatches
 62
     0
370
     9
100
AcDbLine
 10
106.4382799721932
 20
101.8731198921532
 30
0.0
 11
106.2383104331619
 21
101.8696294108657
 31
0.0
  0
LINE
  5
21B
330
157
100
AcDbEntity
  8
5 Hatches
 62
     0
370
     9
100
AcDbLine
 10
110.4376707528187
 20
101.9429295179023
 30
0.0
 11
110.2377012137875
 21
101.9394390366149
 31
0.0
  0
LINE
  5
21C
330
157
100
AcDbEntity
  8
5 Hatches
 62
     0
370
     9
100
AcDbLine
 10
114.4370615334443
 20
102.0127391436515
 30
0.0
 11
114.237091994413
 21
102.009248662364
 31
0.0
  0
LINE
  5
21D
330
157
100
AcDbEntity
  8
5 Hatches
 62
     0
370
     9
100
AcDbLine
 10
98.36968878519292
 20
105.7328914212805
 30
0.0
 11
98.16971924616165
 21
105.729400939993
 31
0.0
  0
LINE
  5
21E
330
157
100
AcDbEntity
  8
5 Hatches
 62
     0
370
     9
100
AcDbLine
 10
102.3690795658185
 20
105.8027010470296
 30
0.0
 11
102.1691100267872
 21
105.7992105657422
 31
0.0
  0
LINE
  5
21F
330
157
100
AcDbEntity
  8
5 Hatches
 62
     0
370
     9
100
AcDbLine
 10
106.3684703464441
 20
105.8725106727788
 30
0.0
 11
106.1685008074128
 21
105.8690201914913
 31
0.0
  0
LINE
  5
220
330
157
100
AcDbEntity
  8
5 Hatches
 62
     0
370
     9
100
AcDbLine
 10
110.3678611270696
 20
105.9423202985279
 30
0.0
 11
110.1678915880383
 21
105.9388298172404
 31
0.0
  0
LINE
  5
221
330
157
100
AcDbEntity
  8
5 Hatches
 62
     0
370
     9
100
AcDbLine
 10
42.30840823068588
 20
108.7549474414182
 30
0.0
 11
42.1084386916546
 21
108.7514569601307
 31
0.0
  0
LINE
  5
222
330
157
100
AcDbEntity
  8
5 Hatches
 62
     0
370
     9
100
AcDbLine
 10
46.30779901131145
 20
108.8247570671673
 30
0.0
 11
46.10782947228017
 21
108.8212665858798
 31
0.0
  0
LINE
  5
223
330
157
100
AcDbEntity
  8
5 Hatches
 62
     0
370
     9
100
AcDbLine
 10
98.29987915944378
 20
109.732282201906
 30
0.0
 11
98.0999096204125
 21
109.7287917206186
 31
0.0
  0
LINE
  5
224
330
157
100
AcDbEntity
  8
5 Hatches
 62
     0
370
     9
100
AcDbLine
 10
102.2992699400694
 20
109.8020918276552
 30
0.0
 11
102.0993004010381
 21
109.7986013463677
 31
0.0
  0
LINE
  5
225
330
157
100
AcDbEntity
  8
5 Hatches
 62
     0
370
     9
100
AcDbLine
 10
106.2986607206949
 20
109.8719014534043
 30
0.0
 11
106.0986911816636
 21
109.8684109721169
 31
0.0
  0
LINE
  5
226
330
157
100
AcDbEntity
  8
5 Hatches
 62
     0
370
     9
100
AcDbLine
 10
110.2980515013205
 20
109.9417110791534
 30
0.0
 11
110.0980819622892
 21
109.938220597866
 31
0.0
  0
LINE
  5
227
330
157
100
AcDbEntity
  8
5 Hatches
 62
     0
370
     9
100
AcDbLine
 10
46.23798938556231
 20
112.8241478477929
 30
0.0
 11
46.03801984653103
 21
112.8206573665054
 31
0.0
  0
LINE
  5
228
330
157
100
AcDbEntity
  8
5 Hatches
 62
     0
370
     9
100
AcDbLine
 10
50.23738016618787
 20
112.893957473542
 30
0.0
 11
50.03741062715659
 21
112.8904669922546
 31
0.0
  0
LINE
  5
229
330
157
100
AcDbEntity
  8
5 Hatches
 62
     0
370
     9
100
AcDbLine
 10
54.23677094681344
 20
112.9637670992911
 30
0.0
 11
54.03680140778216
 21
112.9602766180037
 31
0.0
  0
LINE
  5
22A
330
157
100
AcDbEntity
  8
5 Hatches
 62
     0
370
     9
100
AcDbLine
 10
90.23128797244352
 20
113.5920537310333
 30
0.0
 11
90.03131843341224
 21
113.5885632497459
 31
0.0
  0
LINE
  5
22B
330
157
100
AcDbEntity
  8
5 Hatches
 62
     0
370
     9
100
AcDbLine
 10
94.23067875306909
 20
113.6618633567825
 30
0.0
 11
94.03070921403781
 21
113.658372875495
 31
0.0
  0
LINE
  5
22C
330
157
100
AcDbEntity
  8
5 Hatches
 62
     0
370
     9
100
AcDbLine
 10
98.23006953369465
 20
113.7316729825316
 30
0.0
 11
98.03009999466337
 21
113.7281825012442
 31
0.0
  0
LINE
  5
22D
330
157
100
AcDbEntity
  8
5 Hatches
 62
     0
370
     9
100
AcDbLine
 10
102.2294603143202
 20
113.8014826082808
 30
0.0
 11
102.0294907752889
 21
113.7979921269933
 31
0.0
  0
LINE
  5
22E
330
157
100
AcDbEntity
  8
5 Hatches
 62
     0
370
     9
100
AcDbLine
 10
106.2288510949458
 20
113.8712922340299
 30
0.0
 11
106.0288815559145
 21
113.8678017527424
 31
0.0
  0
LINE
  5
22F
330
157
100
AcDbEntity
  8
5 Hatches
 62
     0
370
     9
100
AcDbLine
 10
50.16757054043874
 20
116.8933482541676
 30
0.0
 11
49.96760100140746
 21
116.8898577728801
 31
0.0
  0
LINE
  5
230
330
157
100
AcDbEntity
  8
5 Hatches
 62
     0
370
     9
100
AcDbLine
 10
54.16696132106431
 20
116.9631578799167
 30
0.0
 11
53.96699178203303
 21
116.9596673986293
 31
0.0
  0
LINE
  5
231
330
157
100
AcDbEntity
  8
5 Hatches
 62
     0
370
     9
100
AcDbLine
 10
58.16635210168987
 20
117.0329675056658
 30
0.0
 11
57.96638256265859
 21
117.0294770243784
 31
0.0
  0
LINE
  5
232
330
157
100
AcDbEntity
  8
5 Hatches
 62
     0
370
     9
100
AcDbLine
 10
62.16574288231544
 20
117.102777131415
 30
0.0
 11
61.96577334328416
 21
117.0992866501275
 31
0.0
  0
LINE
  5
233
330
157
100
AcDbEntity
  8
5 Hatches
 62
     0
370
     9
100
AcDbLine
 10
66.165133662941
 20
117.1725867571641
 30
0.0
 11
65.96516412390972
 21
117.1690962758767
 31
0.0
  0
LINE
  5
234
330
157
100
AcDbEntity
  8
5 Hatches
 62
     0
370
     9
100
AcDbLine
 10
70.16452444356656
 20
117.2423963829132
 30
0.0
 11
69.96455490453529
 21
117.2389059016258
 31
0.0
  0
LINE
  5
235
330
157
100
AcDbEntity
  8
5 Hatches
 62
     0
370
     9
100
AcDbLine
 10
74.16391522419214
 20
117.3122060086624
 30
0.0
 11
73.96394568516085
 21
117.3087155273749
 31
0.0
  0
LINE
  5
236
330
157
100
AcDbEntity
  8
5 Hatches
 62
     0
370
     9
100
AcDbLine
 10
78.1633060048177
 20
117.3820156344115
 30
0.0
 11
77.96333646578641
 21
117.3785251531241
 31
0.0
  0
LINE
  5
237
330
157
100
AcDbEntity
  8
5 Hatches
 62
     0
370
     9
100
AcDbLine
 10
82.16269678544326
 20
117.4518252601606
 30
0.0
 11
81.96272724641199
 21
117.4483347788732
 31
0.0
  0
LINE
  5
238
330
157
100
AcDbEntity
  8
5 Hatches
 62
     0
370
     9
100
AcDbLine
 10
86.16208756606882
 20
117.5216348859098
 30
0.0
 11
85.96211802703755
 21
117.5181444046223
 31
0.0
  0
LINE
  5
239
330
157
100
AcDbEntity
  8
5 Hatches
 62
     0
370
     9
100
AcDbLine
 10
90.1614783466944
 20
117.5914445116589
 30
0.0
 11
89.96150880766311
 21
117.5879540303714
 31
0.0
  0
LINE
  5
23A
330
157
100
AcDbEntity
  8
5 Hatches
 62
     0
370
     9
100
AcDbLine
 10
94.16086912731996
 20
117.6612541374081
 30
0.0
 11
93.96089958828868
 21
117.6577636561206
 31
0.0
  0
LINE
  5
23B
330
157
100
AcDbEntity
  8
5 Hatches
 62
     0
370
     9
100
AcDbLine
 10
98.16025990794552
 20
117.7310637631572
 30
0.0
 11
97.96029036891424
 21
117.7275732818697
 31
0.0
  0
LINE
  5
23C
330
157
100
AcDbEntity
  8
5 Hatches
 62
     0
370
     9
100
AcDbLine
 10
54.09715169531517
 20
120.9625486605423
 30
0.0
 11
53.89718215628389
 21
120.9590581792548
 31
0.0
  0
LINE
  5
23D
330
157
100
AcDbEntity
  8
5 Hatches
 62
     0
370
     9
100
AcDbLine
 10
58.09654247594074
 20
121.0323582862914
 30
0.0
 11
57.89657293690945
 21
121.0288678050039
 31
0.0
  0
LINE
  5
23E
330
157
100
AcDbEntity
  8
5 Hatches
 62
     0
370
     9
100
AcDbLine
 10
62.0959332565663
 20
121.1021679120405
 30
0.0
 11
61.89596371753502
 21
121.0986774307531
 31
0.0
  0
LINE
  5
23F
330
157
100
AcDbEntity
  8
5 Hatches
 62
     0
370
     9
100
AcDbLine
 10
66.09532403719187
 20
121.1719775377897
 30
0.0
 11
65.89535449816059
 21
121.1684870565022
 31
0.0
  0
LINE
  5
240
330
157
100
AcDbEntity
  8
5 Hatches
 62
     0
370
     9
100
AcDbLine
 10
70.09471481781743
 20
121.2417871635388
 30
0.0
 11
69.89474527878616
 21
121.2382966822513
 31
0.0
  0
LINE
  5
241
330
157
100
AcDbEntity
  8
5 Hatches
 62
     0
370
     9
100
AcDbLine
 10
74.09410559844301
 20
121.3115967892879
 30
0.0
 11
73.89413605941172
 21
121.3081063080005
 31
0.0
  0
LINE
  5
242
330
157
100
AcDbEntity
  8
5 Hatches
 62
     0
370
     9
100
AcDbLine
 10
78.09349637906857
 20
121.3814064150371
 30
0.0
 11
77.89352684003728
 21
121.3779159337496
 31
0.0
  0
LINE
  5
243
330
157
100
AcDbEntity
  8
5 Hatches
 62
     0
370
     9
100
AcDbLine
 10
82.09288715969413
 20
121.4512160407862
 30
0.0
 11
81.89291762066286
 21
121.4477255594987
 31
0.0
  0
LINE
  5
244
330
157
100
AcDbEntity
  8
5 Hatches
 62
     0
370
     9
100
AcDbLine
 10
86.09227794031969
 20
121.5210256665353
 30
0.0
 11
85.89230840128842
 21
121.5175351852479
 31
0.0
  0
LINE
  5
245
330
157
100
AcDbEntity
  8
5 Hatches
 62
     0
370
     9
100
AcDbLine
 10
90.09166872094526
 20
121.5908352922845
 30
0.0
 11
89.89169918191398
 21
121.587344810997
 31
0.0
  0
LINE
  5
246
330
157
100
AcDbEntity
  8
5 Hatches
 62
     0
370
     9
100
AcDbLine
 10
94.09105950157083
 20
121.6606449180336
 30
0.0
 11
93.89108996253955
 21
121.6571544367462
 31
0.0
  0
LINE
  5
247
330
157
100
AcDbEntity
  8
5 Hatches
 62
     0
370
     9
100
AcDbLine
 10
66.02551441144273
 20
125.1713683184152
 30
0.0
 11
65.82554487241144
 21
125.1678778371278
 31
0.0
  0
LINE
  5
248
330
157
100
AcDbEntity
  8
5 Hatches
 62
     0
370
     9
100
AcDbLine
 10
70.02490519206829
 20
125.2411779441644
 30
0.0
 11
69.82493565303702
 21
125.2376874628769
 31
0.0
  0
LINE
  5
249
330
157
100
AcDbEntity
  8
5 Hatches
 62
     0
370
     9
100
AcDbLine
 10
74.02429597269386
 20
125.3109875699135
 30
0.0
 11
73.82432643366258
 21
125.3074970886261
 31
0.0
  0
LINE
  5
24A
330
157
100
AcDbEntity
  8
5 Hatches
 62
     0
370
     9
100
AcDbLine
 10
78.02368675331942
 20
125.3807971956627
 30
0.0
 11
77.82371721428814
 21
125.3773067143752
 31
0.0
  0
LINE
  5
24B
330
157
100
AcDbEntity
  8
5 Hatches
 62
     0
370
     9
100
AcDbLine
 10
82.02307753394498
 20
125.4506068214118
 30
0.0
 11
81.82310799491371
 21
125.4471163401243
 31
0.0
  0
ENDBLK
  5
159
330
157
100
AcDbEntity
  8
0
100
AcDbBlockEnd
  0
ENDSEC
  0
SECTION
  2
ENTITIES
  0
LWPOLYLINE
  5
24C
330
1F
100
AcDbEntity
  8
0
  6
Continuous
 62
     7
 48
12.0
370
    25
100
AcDbPolyline
 90
        4
 70
     1
 43
0.0
 10
0.0
 20
133.6872
 10
0.0
 20
145.098
 10
13.10279999999999
 20
145.098
 10
13.10279999999999
 20
133.6872
  0
LWPOLYLINE
  5
24D
330
1F
100
AcDbEntity
  8
0
  6
Continuous
 62
     7
 48
12.0
370
    25
100
AcDbPolyline
 90
        4
 70
     1
 43
0.0
 10
0.0
 20
0.0
 10
0.0
 20
145.098
 10
145.2132
 20
145.098
 10
145.2132
 20
0.0
  0
LINE
  5
24E
330
1F
100
AcDbEntity
  8
0
  6
Continuous
 62
     7
 48
12.0
370
    25
100
AcDbLine
 10
59.82961
 20
116.97508
 30
0.0
 11
59.63629000000001
 21
116.86924
 31
0.0
  0
LINE
  5
24F
330
1F
100
AcDbEntity
  8
0
  6
Continuous
 62
     7
 48
12.0
370
    25
100
AcDbLine
 10
59.65789000000001
 20
117.08848
 30
0.0
 11
59.63629000000001
 21
116.86924
 31
0.0
  0
LINE
  5
250
330
1F
100
AcDbEntity
  8
0
  6
Continuous
 62
     7
 48
12.0
370
    25
100
AcDbLine
 10
60.00025000000002
 20
116.86168
 30
0.0
 11
59.80692999999999
 21
116.75584
 31
0.0
  0
LINE
  5
251
330
1F
100
AcDbEntity
  8
0
  6
Continuous
 62
     7
 48
12.0
370
    25
100
AcDbLine
 10
59.82961
 20
116.97508
 30
0.0
 11
59.80692999999999
 21
116.75584
 31
0.0
  0
LINE
  5
252
330
1F
100
AcDbEntity
  8
0
  6
Continuous
 62
     7
 48
12.0
370
    25
100
AcDbLine
 10
60.17197000000002
 20
116.74828
 30
0.0
 11
59.97865
 21
116.64244
 31
0.0
  0
LINE
  5
253
330
1F
100
AcDbEntity
  8
0
  6
Continuous
 62
     7
 48
12.0
370
    25
100
AcDbLine
 10
60.00025000000002
 20
116.86168
 30
0.0
 11
59.97865
 21
116.64244
 31
0.0
  0
LINE
  5
254
330
1F
100
AcDbEntity
  8
0
  6
Continuous
 62
     7
 48
12.0
370
    25
100
AcDbLine
 10
60.34261
 20
116.63488
 30
0.0
 11
60.14929
 21
116.52904
 31
0.0
  0
LINE
  5
255
330
1F
100
AcDbEntity
  8
0
  6
Continuous
 62
     7
 48
12.0
370
    25
100
AcDbLine
 10
60.17197000000002
 20
116.74828
 30
0.0
 11
60.14929
 21
116.52904
 31
0.0
  0
LINE
  5
256
330
1F
100
AcDbEntity
  8
0
  6
Continuous
 62
     7
 48
12.0
370
    25
100
AcDbLine
 10
60.51432999999999
 20
116.52148
 30
0.0
 11
60.32101000000001
 21
116.41564
 31
0.0
  0
LINE
  5
257
330
1F
100
AcDbEntity
  8
0
  6
Continuous
 62
     7
 48
12.0
370
    25
100
AcDbLine
 10
60.34261
 20
116.63488
 30
0.0
 11
60.32101000000001
 21
116.41564
 31
0.0
  0
LINE
  5
258
330
1F
100
AcDbEntity
  8
0
  6
Continuous
 62
     7
 48
12.0
370
    25
100
AcDbLine
 10
60.68497000000001
 20
116.40808
 30
0.0
 11
60.49165
 21
116.30224
 31
0.0
  0
LINE
  5
259
330
1F
100
AcDbEntity
  8
0
  6
Continuous
 62
     7
 48
12.0
370
    25
100
AcDbLine
 10
60.51432999999999
 20
116.52148
 30
0.0
 11
60.49165
 21
116.30224
 31
0.0
  0
LINE
  5
25A
330
1F
100
AcDbEntity
  8
0
  6
Continuous
 62
     7
 48
12.0
370
    25
100
AcDbLine
 10
60.85669
 20
116.29468
 30
0.0
 11
60.66337000000001
 21
116.18884
 31
0.0
  0
LINE
  5
25B
330
1F
100
AcDbEntity
  8
0
  6
Continuous
 62
     7
 48
12.0
370
    25
100
AcDbLine
 10
60.68497000000001
 20
116.40808
 30
0.0
 11
60.66337000000001
 21
116.18884
 31
0.0
  0
LINE
  5
25C
330
1F
100
AcDbEntity
  8
0
  6
Continuous
 62
     7
 48
12.0
370
    25
100
AcDbLine
 10
61.02733000000001
 20
116.18128
 30
0.0
 11
60.83401000000001
 21
116.07544
 31
0.0
  0
LINE
  5
25D
330
1F
100
AcDbEntity
  8
0
  6
Continuous
 62
     7
 48
12.0
370
    25
100
AcDbLine
 10
60.85669
 20
116.29468
 30
0.0
 11
60.83401000000001
 21
116.07544
 31
0.0
  0
LINE
  5
25E
330
1F
100
AcDbEntity
  8
0
  6
Continuous
 62
     7
 48
12.0
370
    25
100
AcDbLine
 10
61.19905
 20
116.06788
 30
0.0
 11
61.00573000000001
 21
115.96204
 31
0.0
  0
LINE
  5
25F
330
1F
100
AcDbEntity
  8
0
  6
Continuous
 62
     7
 48
12.0
370
    25
100
AcDbLine
 10
61.02733000000001
 20
116.18128
 30
0.0
 11
61.00573000000001
 21
115.96204
 31
0.0
  0
LINE
  5
260
330
1F
100
AcDbEntity
  8
0
  6
Continuous
 62
     7
 48
12.0
370
    25
100
AcDbLine
 10
61.37077000000001
 20
115.95448
 30
0.0
 11
61.17745000000001
 21
115.84864
 31
0.0
  0
LINE
  5
261
330
1F
100
AcDbEntity
  8
0
  6
Continuous
 62
     7
 48
12.0
370
    25
100
AcDbLine
 10
61.19905
 20
116.06788
 30
0.0
 11
61.17745000000001
 21
115.84864
 31
0.0
  0
LINE
  5
262
330
1F
100
AcDbEntity
  8
0
  6
Continuous
 62
     7
 48
12.0
370
    25
100
AcDbLine
 10
61.54141000000001
 20
115.84108
 30
0.0
 11
61.34809
 21
115.73524
 31
0.0
  0
LINE
  5
263
330
1F
100
AcDbEntity
  8
0
  6
Continuous
 62
     7
 48
12.0
370
    25
100
AcDbLine
 10
61.37077000000001
 20
115.95448
 30
0.0
 11
61.34809
 21
115.73524
 31
0.0
  0
LINE
  5
264
330
1F
100
AcDbEntity
  8
0
  6
Continuous
 62
     7
 48
12.0
370
    25
100
AcDbLine
 10
61.71313000000001
 20
115.72768
 30
0.0
 11
61.51980999999999
 21
115.62184
 31
0.0
  0
LINE
  5
265
330
1F
100
AcDbEntity
  8
0
  6
Continuous
 62
     7
 48
12.0
370
    25
100
AcDbLine
 10
61.54141000000001
 20
115.84108
 30
0.0
 11
61.51980999999999
 21
115.62184
 31
0.0
  0
LINE
  5
266
330
1F
100
AcDbEntity
  8
0
  6
Continuous
 62
     7
 48
12.0
370
    25
100
AcDbLine
 10
61.88377000000001
 20
115.61428
 30
0.0
 11
61.69045000000001
 21
115.50844
 31
0.0
  0
LINE
  5
267
330
1F
100
AcDbEntity
  8
0
  6
Continuous
 62
     7
 48
12.0
370
    25
100
AcDbLine
 10
61.71313000000001
 20
115.72768
 30
0.0
 11
61.69045000000001
 21
115.50844
 31
0.0
  0
LINE
  5
268
330
1F
100
AcDbEntity
  8
0
  6
Continuous
 62
     7
 48
12.0
370
    25
100
AcDbLine
 10
62.05549
 20
115.50088
 30
0.0
 11
61.86217
 21
115.39504
 31
0.0
  0
LINE
  5
269
330
1F
100
AcDbEntity
  8
0
  6
Continuous
 62
     7
 48
12.0
370
    25
100
AcDbLine
 10
61.88377000000001
 20
115.61428
 30
0.0
 11
61.86217
 21
115.39504
 31
0.0
  0
LINE
  5
26A
330
1F
100
AcDbEntity
  8
0
  6
Continuous
 62
     7
 48
12.0
370
    25
100
AcDbLine
 10
62.22613000000001
 20
115.38748
 30
0.0
 11
62.03281000000001
 21
115.28164
 31
0.0
  0
LINE
  5
26B
330
1F
100
AcDbEntity
  8
0
  6
Continuous
 62
     7
 48
12.0
370
    25
100
AcDbLine
 10
62.05549
 20
115.50088
 30
0.0
 11
62.03281000000001
 21
115.28164
 31
0.0
  0
LINE
  5
26C
330
1F
100
AcDbEntity
  8
0
  6
Continuous
 62
     7
 48
12.0
370
    25
100
AcDbLine
 10
62.39785000000001
 20
115.27408
 30
0.0
 11
62.20453000000001
 21
115.16824
 31
0.0
  0
LINE
  5
26D
330
1F
100
AcDbEntity
  8
0
  6
Continuous
 62
     7
 48
12.0
370
    25
100
AcDbLine
 10
62.22613000000001
 20
115.38748
 30
0.0
 11
62.20453000000001
 21
115.16824
 31
0.0
  0
LINE
  5
26E
330
1F
100
AcDbEntity
  8
0
  6
Continuous
 62
     7
 48
12.0
370
    25
100
AcDbLine
 10
62.56849000000002
 20
115.16068
 30
0.0
 11
62.37517
 21
115.05484
 31
0.0
  0
LINE
  5
26F
330
1F
100
AcDbEntity
  8
0
  6
Continuous
 62
     7
 48
12.0
370
    25
100
AcDbLine
 10
62.39785000000001
 20
115.27408
 30
0.0
 11
62.37517
 21
115.05484
 31
0.0
  0
LINE
  5
270
330
1F
100
AcDbEntity
  8
0
  6
Continuous
 62
     7
 48
12.0
370
    25
100
AcDbLine
 10
62.74021000000001
 20
115.04728
 30
0.0
 11
62.54689
 21
114.94144
 31
0.0
  0
LINE
  5
271
330
1F
100
AcDbEntity
  8
0
  6
Continuous
 62
     7
 48
12.0
370
    25
100
AcDbLine
 10
62.56849000000002
 20
115.16068
 30
0.0
 11
62.54689
 21
114.94144
 31
0.0
  0
LINE
  5
272
330
1F
100
AcDbEntity
  8
0
  6
Continuous
 62
     7
 48
12.0
370
    25
100
AcDbLine
 10
62.91085
 20
114.93388
 30
0.0
 11
62.71753
 21
114.82804
 31
0.0
  0
LINE
  5
273
330
1F
100
AcDbEntity
  8
0
  6
Continuous
 62
     7
 48
12.0
370
    25
100
AcDbLine
 10
62.74021000000001
 20
115.04728
 30
0.0
 11
62.71753
 21
114.82804
 31
0.0
  0
LINE
  5
274
330
1F
100
AcDbEntity
  8
0
  6
Continuous
 62
     7
 48
12.0
370
    25
100
AcDbLine
 10
63.08257
 20
114.82048
 30
0.0
 11
62.88925000000001
 21
114.71464
 31
0.0
  0
LINE
  5
275
330
1F
100
AcDbEntity
  8
0
  6
Continuous
 62
     7
 48
12.0
370
    25
100
AcDbLine
 10
62.91085
 20
114.93388
 30
0.0
 11
62.88925000000001
 21
114.71464
 31
0.0
  0
LINE
  5
276
330
1F
100
AcDbEntity
  8
0
  6
Continuous
 62
     7
 48
12.0
370
    25
100
AcDbLine
 10
63.25429
 20
114.70708
 30
0.0
 11
63.06097000000002
 21
114.60124
 31
0.0
  0
LINE
  5
277
330
1F
100
AcDbEntity
  8
0
  6
Continuous
 62
     7
 48
12.0
370
    25
100
AcDbLine
 10
63.08257
 20
114.82048
 30
0.0
 11
63.06097000000002
 21
114.60124
 31
0.0
  0
LINE
  5
278
330
1F
100
AcDbEntity
  8
0
  6
Continuous
 62
     7
 48
12.0
370
    25
100
AcDbLine
 10
63.42493
 20
114.59368
 30
0.0
 11
63.23161
 21
114.48784
 31
0.0
  0
LINE
  5
279
330
1F
100
AcDbEntity
  8
0
  6
Continuous
 62
     7
 48
12.0
370
    25
100
AcDbLine
 10
63.25429
 20
114.70708
 30
0.0
 11
63.23161
 21
114.48784
 31
0.0
  0
LINE
  5
27A
330
1F
100
AcDbEntity
  8
0
  6
Continuous
 62
     7
 48
12.0
370
    25
100
AcDbLine
 10
63.59665000000001
 20
114.48028
 30
0.0
 11
63.40333
 21
114.37444
 31
0.0
  0
LINE
  5
27B
330
1F
100
AcDbEntity
  8
0
  6
Continuous
 62
     7
 48
12.0
370
    25
100
AcDbLine
 10
63.42493
 20
114.59368
 30
0.0
 11
63.40333
 21
114.37444
 31
0.0
  0
LINE
  5
27C
330
1F
100
AcDbEntity
  8
0
  6
Continuous
 62
     7
 48
12.0
370
    25
100
AcDbLine
 10
63.76729
 20
114.36688
 30
0.0
 11
63.57397000000002
 21
114.26104
 31
0.0
  0
LINE
  5
27D
330
1F
100
AcDbEntity
  8
0
  6
Continuous
 62
     7
 48
12.0
370
    25
100
AcDbLine
 10
63.59665000000001
 20
114.48028
 30
0.0
 11
63.57397000000002
 21
114.26104
 31
0.0
  0
LINE
  5
27E
330
1F
100
AcDbEntity
  8
0
  6
Continuous
 62
     7
 48
12.0
370
    25
100
AcDbLine
 10
63.93901000000001
 20
114.25348
 30
0.0
 11
63.74569000000001
 21
114.14764
 31
0.0
  0
LINE
  5
27F
330
1F
100
AcDbEntity
  8
0
  6
Continuous
 62
     7
 48
12.0
370
    25
100
AcDbLine
 10
63.76729
 20
114.36688
 30
0.0
 11
63.74569000000001
 21
114.14764
 31
0.0
  0
LINE
  5
280
330
1F
100
AcDbEntity
  8
0
  6
Continuous
 62
     7
 48
12.0
370
    25
100
AcDbLine
 10
64.10965000000002
 20
114.14008
 30
0.0
 11
63.91632999999999
 21
114.03424
 31
0.0
  0
LINE
  5
281
330
1F
100
AcDbEntity
  8
0
  6
Continuous
 62
     7
 48
12.0
370
    25
100
AcDbLine
 10
63.93901000000001
 20
114.25348
 30
0.0
 11
63.91632999999999
 21
114.03424
 31
0.0
  0
LINE
  5
282
330
1F
100
AcDbEntity
  8
0
  6
Continuous
 62
     7
 48
12.0
370
    25
100
AcDbLine
 10
64.28137000000001
 20
114.02668
 30
0.0
 11
64.08805
 21
113.92084
 31
0.0
  0
LINE
  5
283
330
1F
100
AcDbEntity
  8
0
  6
Continuous
 62
     7
 48
12.0
370
    25
100
AcDbLine
 10
64.10965000000002
 20
114.14008
 30
0.0
 11
64.08805
 21
113.92084
 31
0.0
  0
LINE
  5
284
330
1F
100
AcDbEntity
  8
0
  6
Continuous
 62
     7
 48
12.0
370
    25
100
AcDbLine
 10
64.45201000000002
 20
113.91328
 30
0.0
 11
64.25869
 21
113.80744
 31
0.0
  0
LINE
  5
285
330
1F
100
AcDbEntity
  8
0
  6
Continuous
 62
     7
 48
12.0
370
    25
100
AcDbLine
 10
64.28137000000001
 20
114.02668
 30
0.0
 11
64.25869
 21
113.80744
 31
0.0
  0
LINE
  5
286
330
1F
100
AcDbEntity
  8
0
  6
Continuous
 62
     7
 48
12.0
370
    25
100
AcDbLine
 10
64.62373
 20
113.79988
 30
0.0
 11
64.43041
 21
113.69404
 31
0.0
  0
LINE
  5
287
330
1F
100
AcDbEntity
  8
0
  6
Continuous
 62
     7
 48
12.0
370
    25
100
AcDbLine
 10
64.45201000000002
 20
113.91328
 30
0.0
 11
64.43041
 21
113.69404
 31
0.0
  0
LINE
  5
288
330
1F
100
AcDbEntity
  8
0
  6
Continuous
 62
     7
 48
12.0
370
    25
100
AcDbLine
 10
64.79437000000001
 20
113.68648
 30
0.0
 11
64.60105000000001
 21
113.58064
 31
0.0
  0
LINE
  5
289
330
1F
100
AcDbEntity
  8
0
  6
Continuous
 62
     7
 48
12.0
370
    25
100
AcDbLine
 10
64.62373
 20
113.79988
 30
0.0
 11
64.60105000000001
 21
113.58064
 31
0.0
  0
LINE
  5
28A
330
1F
100
AcDbEntity
  8
0
  6
Continuous
 62
     7
 48
12.0
370
    25
100
AcDbLine
 10
64.96609000000001
 20
113.57308
 30
0.0
 11
64.77277000000001
 21
113.46724
 31
0.0
  0
LINE
  5
28B
330
1F
100
AcDbEntity
  8
0
  6
Continuous
 62
     7
 48
12.0
370
    25
100
AcDbLine
 10
64.79437000000001
 20
113.68648
 30
0.0
 11
64.77277000000001
 21
113.46724
 31
0.0
  0
LINE
  5
28C
330
1F
100
AcDbEntity
  8
0
  6
Continuous
 62
     7
 48
12.0
370
    25
100
AcDbLine
 10
65.13781
 20
113.45968
 30
0.0
 11
64.94449
 21
113.35384
 31
0.0
  0
LINE
  5
28D
330
1F
100
AcDbEntity
  8
0
  6
Continuous
 62
     7
 48
12.0
370
    25
100
AcDbLine
 10
64.96609000000001
 20
113.57308
 30
0.0
 11
64.94449
 21
113.35384
 31
0.0
  0
LINE
  5
28E
330
1F
100
AcDbEntity
  8
0
  6
Continuous
 62
     7
 48
12.0
370
    25
100
AcDbLine
 10
65.30845000000002
 20
113.34628
 30
0.0
 11
65.11513
 21
113.24044
 31
0.0
  0
LINE
  5
28F
330
1F
100
AcDbEntity
  8
0
  6
Continuous
 62
     7
 48
12.0
370
    25
100
AcDbLine
 10
65.13781
 20
113.45968
 30
0.0
 11
65.11513
 21
113.24044
 31
0.0
  0
LINE
  5
290
330
1F
100
AcDbEntity
  8
0
  6
Continuous
 62
     7
 48
12.0
370
    25
100
AcDbLine
 10
65.48016999999999
 20
113.23288
 30
0.0
 11
65.28685000000002
 21
113.12704
 31
0.0
  0
LINE
  5
291
330
1F
100
AcDbEntity
  8
0
  6
Continuous
 62
     7
 48
12.0
370
    25
100
AcDbLine
 10
65.30845000000002
 20
113.34628
 30
0.0
 11
65.28685000000002
 21
113.12704
 31
0.0
  0
LINE
  5
292
330
1F
100
AcDbEntity
  8
0
  6
Continuous
 62
     7
 48
12.0
370
    25
100
AcDbLine
 10
65.65080999999999
 20
113.11948
 30
0.0
 11
65.45749
 21
113.01364
 31
0.0
  0
LINE
  5
293
330
1F
100
AcDbEntity
  8
0
  6
Continuous
 62
     7
 48
12.0
370
    25
100
AcDbLine
 10
65.48016999999999
 20
113.23288
 30
0.0
 11
65.45749
 21
113.01364
 31
0.0
  0
LINE
  5
294
330
1F
100
AcDbEntity
  8
0
  6
Continuous
 62
     7
 48
12.0
370
    25
100
AcDbLine
 10
65.82253
 20
113.00608
 30
0.0
 11
65.62921000000003
 21
112.90024
 31
0.0
  0
LINE
  5
295
330
1F
100
AcDbEntity
  8
0
  6
Continuous
 62
     7
 48
12.0
370
    25
100
AcDbLine
 10
65.65080999999999
 20
113.11948
 30
0.0
 11
65.62921000000003
 21
112.90024
 31
0.0
  0
LINE
  5
296
330
1F
100
AcDbEntity
  8
0
  6
Continuous
 62
     7
 48
12.0
370
    25
100
AcDbLine
 10
65.99317
 20
112.89376
 30
0.0
 11
65.79985
 21
112.78684
 31
0.0
  0
LINE
  5
297
330
1F
100
AcDbEntity
  8
0
  6
Continuous
 62
     7
 48
12.0
370
    25
100
AcDbLine
 10
65.82253
 20
113.00608
 30
0.0
 11
65.79985
 21
112.78684
 31
0.0
  0
LINE
  5
298
330
1F
100
AcDbEntity
  8
0
  6
Continuous
 62
     7
 48
12.0
370
    25
100
AcDbLine
 10
66.16489000000001
 20
112.78036
 30
0.0
 11
65.97157
 21
112.67344
 31
0.0
  0
LINE
  5
299
330
1F
100
AcDbEntity
  8
0
  6
Continuous
 62
     7
 48
12.0
370
    25
100
AcDbLine
 10
65.99317
 20
112.89376
 30
0.0
 11
65.97157
 21
112.67344
 31
0.0
  0
LINE
  5
29A
330
1F
100
AcDbEntity
  8
0
  6
Continuous
 62
     7
 48
12.0
370
    25
100
AcDbLine
 10
66.33553
 20
112.66696
 30
0.0
 11
66.14221
 21
112.56004
 31
0.0
  0
LINE
  5
29B
330
1F
100
AcDbEntity
  8
0
  6
Continuous
 62
     7
 48
12.0
370
    25
100
AcDbLine
 10
66.16489000000001
 20
112.78036
 30
0.0
 11
66.14221
 21
112.56004
 31
0.0
  0
LINE
  5
29C
330
1F
100
AcDbEntity
  8
0
  6
Continuous
 62
     7
 48
12.0
370
    25
100
AcDbLine
 10
66.50725
 20
112.55356
 30
0.0
 11
66.31393000000001
 21
112.44664
 31
0.0
  0
LINE
  5
29D
330
1F
100
AcDbEntity
  8
0
  6
Continuous
 62
     7
 48
12.0
370
    25
100
AcDbLine
 10
66.33553
 20
112.66696
 30
0.0
 11
66.31393000000001
 21
112.44664
 31
0.0
  0
LINE
  5
29E
330
1F
100
AcDbEntity
  8
0
  6
Continuous
 62
     7
 48
12.0
370
    25
100
AcDbLine
 10
66.67789
 20
112.44016
 30
0.0
 11
66.48456999999999
 21
112.33324
 31
0.0
  0
LINE
  5
29F
330
1F
100
AcDbEntity
  8
0
  6
Continuous
 62
     7
 48
12.0
370
    25
100
AcDbLine
 10
66.50725
 20
112.55356
 30
0.0
 11
66.48456999999999
 21
112.33324
 31
0.0
  0
LINE
  5
2A0
330
1F
100
AcDbEntity
  8
0
  6
Continuous
 62
     7
 48
12.0
370
    25
100
AcDbLine
 10
66.84961000000001
 20
112.32676
 30
0.0
 11
66.65628999999998
 21
112.21984
 31
0.0
  0
LINE
  5
2A1
330
1F
100
AcDbEntity
  8
0
  6
Continuous
 62
     7
 48
12.0
370
    25
100
AcDbLine
 10
66.67789
 20
112.44016
 30
0.0
 11
66.65628999999998
 21
112.21984
 31
0.0
  0
LINE
  5
2A2
330
1F
100
AcDbEntity
  8
0
  6
Continuous
 62
     7
 48
12.0
370
    25
100
AcDbLine
 10
67.02133
 20
112.21336
 30
0.0
 11
66.82801
 21
112.10752
 31
0.0
  0
LINE
  5
2A3
330
1F
100
AcDbEntity
  8
0
  6
Continuous
 62
     7
 48
12.0
370
    25
100
AcDbLine
 10
66.84961000000001
 20
112.32676
 30
0.0
 11
66.82801
 21
112.10752
 31
0.0
  0
LINE
  5
2A4
330
1F
100
AcDbEntity
  8
0
  6
Continuous
 62
     7
 48
12.0
370
    25
100
AcDbLine
 10
67.19197
 20
112.09996
 30
0.0
 11
66.99865
 21
111.99412
 31
0.0
  0
LINE
  5
2A5
330
1F
100
AcDbEntity
  8
0
  6
Continuous
 62
     7
 48
12.0
370
    25
100
AcDbLine
 10
67.02133
 20
112.21336
 30
0.0
 11
66.99865
 21
111.99412
 31
0.0
  0
LINE
  5
2A6
330
1F
100
AcDbEntity
  8
0
  6
Continuous
 62
     7
 48
12.0
370
    25
100
AcDbLine
 10
67.36368999999999
 20
111.98656
 30
0.0
 11
67.17037000000002
 21
111.88072
 31
0.0
  0
LINE
  5
2A7
330
1F
100
AcDbEntity
  8
0
  6
Continuous
 62
     7
 48
12.0
370
    25
100
AcDbLine
 10
67.19197
 20
112.09996
 30
0.0
 11
67.17037000000002
 21
111.88072
 31
0.0
  0
LINE
  5
2A8
330
1F
100
AcDbEntity
  8
0
  6
Continuous
 62
     7
 48
12.0
370
    25
100
AcDbLine
 10
67.53433000000001
 20
111.87316
 30
0.0
 11
67.34101000000001
 21
111.76732
 31
0.0
  0
LINE
  5
2A9
330
1F
100
AcDbEntity
  8
0
  6
Continuous
 62
     7
 48
12.0
370
    25
100
AcDbLine
 10
67.36368999999999
 20
111.98656
 30
0.0
 11
67.34101000000001
 21
111.76732
 31
0.0
  0
LINE
  5
2AA
330
1F
100
AcDbEntity
  8
0
  6
Continuous
 62
     7
 48
12.0
370
    25
100
AcDbLine
 10
67.70605
 20
111.75976
 30
0.0
 11
67.51273
 21
111.65392
 31
0.0
  0
LINE
  5
2AB
330
1F
100
AcDbEntity
  8
0
  6
Continuous
 62
     7
 48
12.0
370
    25
100
AcDbLine
 10
67.53433000000001
 20
111.87316
 30
0.0
 11
67.51273
 21
111.65392
 31
0.0
  0
LINE
  5
2AC
330
1F
100
AcDbEntity
  8
0
  6
Continuous
 62
     7
 48
12.0
370
    25
100
AcDbLine
 10
67.87669000000001
 20
111.64636
 30
0.0
 11
67.68337
 21
111.54052
 31
0.0
  0
LINE
  5
2AD
330
1F
100
AcDbEntity
  8
0
  6
Continuous
 62
     7
 48
12.0
370
    25
100
AcDbLine
 10
67.70605
 20
111.75976
 30
0.0
 11
67.68337
 21
111.54052
 31
0.0
  0
LINE
  5
2AE
330
1F
100
AcDbEntity
  8
0
  6
Continuous
 62
     7
 48
12.0
370
    25
100
AcDbLine
 10
68.04840999999999
 20
111.53296
 30
0.0
 11
67.85509000000002
 21
111.42712
 31
0.0
  0
LINE
  5
2AF
330
1F
100
AcDbEntity
  8
0
  6
Continuous
 62
     7
 48
12.0
370
    25
100
AcDbLine
 10
67.87669000000001
 20
111.64636
 30
0.0
 11
67.85509000000002
 21
111.42712
 31
0.0
  0
LINE
  5
2B0
330
1F
100
AcDbEntity
  8
0
  6
Continuous
 62
     7
 48
12.0
370
    25
100
AcDbLine
 10
68.21905
 20
111.41956
 30
0.0
 11
68.02573000000001
 21
111.31372
 31
0.0
  0
LINE
  5
2B1
330
1F
100
AcDbEntity
  8
0
  6
Continuous
 62
     7
 48
12.0
370
    25
100
AcDbLine
 10
68.04840999999999
 20
111.53296
 30
0.0
 11
68.02573000000001
 21
111.31372
 31
0.0
  0
LINE
  5
2B2
330
1F
100
AcDbEntity
  8
0
  6
Continuous
 62
     7
 48
12.0
370
    25
100
AcDbLine
 10
68.39077
 20
111.30616
 30
0.0
 11
68.19745000000002
 21
111.20032
 31
0.0
  0
LINE
  5
2B3
330
1F
100
AcDbEntity
  8
0
  6
Continuous
 62
     7
 48
12.0
370
    25
100
AcDbLine
 10
68.21905
 20
111.41956
 30
0.0
 11
68.19745000000002
 21
111.20032
 31
0.0
  0
LINE
  5
2B4
330
1F
100
AcDbEntity
  8
0
  6
Continuous
 62
     7
 48
12.0
370
    25
100
AcDbLine
 10
68.56141
 20
111.19276
 30
0.0
 11
68.36809000000001
 21
111.08692
 31
0.0
  0
LINE
  5
2B5
330
1F
100
AcDbEntity
  8
0
  6
Continuous
 62
     7
 48
12.0
370
    25
100
AcDbLine
 10
68.39077
 20
111.30616
 30
0.0
 11
68.36809000000001
 21
111.08692
 31
0.0
  0
LINE
  5
2B6
330
1F
100
AcDbEntity
  8
0
  6
Continuous
 62
     7
 48
12.0
370
    25
100
AcDbLine
 10
68.73313000000002
 20
111.07936
 30
0.0
 11
68.53981
 21
110.97352
 31
0.0
  0
LINE
  5
2B7
330
1F
100
AcDbEntity
  8
0
  6
Continuous
 62
     7
 48
12.0
370
    25
100
AcDbLine
 10
68.56141
 20
111.19276
 30
0.0
 11
68.53981
 21
110.97352
 31
0.0
  0
LINE
  5
2B8
330
1F
100
AcDbEntity
  8
0
  6
Continuous
 62
     7
 48
12.0
370
    25
100
AcDbLine
 10
68.90485
 20
110.96596
 30
0.0
 11
68.71153
 21
110.86012
 31
0.0
  0
LINE
  5
2B9
330
1F
100
AcDbEntity
  8
0
  6
Continuous
 62
     7
 48
12.0
370
    25
100
AcDbLine
 10
68.73313000000002
 20
111.07936
 30
0.0
 11
68.71153
 21
110.86012
 31
0.0
  0
LINE
  5
2BA
330
1F
100
AcDbEntity
  8
0
  6
Continuous
 62
     7
 48
12.0
370
    25
100
AcDbLine
 10
69.07549
 20
110.85256
 30
0.0
 11
68.88217
 21
110.74672
 31
0.0
  0
LINE
  5
2BB
330
1F
100
AcDbEntity
  8
0
  6
Continuous
 62
     7
 48
12.0
370
    25
100
AcDbLine
 10
68.90485
 20
110.96596
 30
0.0
 11
68.88217
 21
110.74672
 31
0.0
  0
LINE
  5
2BC
330
1F
100
AcDbEntity
  8
0
  6
Continuous
 62
     7
 48
12.0
370
    25
100
AcDbLine
 10
69.24721
 20
110.73916
 30
0.0
 11
69.05389000000001
 21
110.63332
 31
0.0
  0
LINE
  5
2BD
330
1F
100
AcDbEntity
  8
0
  6
Continuous
 62
     7
 48
12.0
370
    25
100
AcDbLine
 10
69.07549
 20
110.85256
 30
0.0
 11
69.05389000000001
 21
110.63332
 31
0.0
  0
LINE
  5
2BE
330
1F
100
AcDbEntity
  8
0
  6
Continuous
 62
     7
 48
12.0
370
    25
100
AcDbLine
 10
69.41785000000002
 20
110.62576
 30
0.0
 11
69.22452999999999
 21
110.51992
 31
0.0
  0
LINE
  5
2BF
330
1F
100
AcDbEntity
  8
0
  6
Continuous
 62
     7
 48
12.0
370
    25
100
AcDbLine
 10
69.24721
 20
110.73916
 30
0.0
 11
69.22452999999999
 21
110.51992
 31
0.0
  0
LINE
  5
2C0
330
1F
100
AcDbEntity
  8
0
  6
Continuous
 62
     7
 48
12.0
370
    25
100
AcDbLine
 10
69.58957000000001
 20
110.51236
 30
0.0
 11
69.39625000000001
 21
110.40652
 31
0.0
  0
LINE
  5
2C1
330
1F
100
AcDbEntity
  8
0
  6
Continuous
 62
     7
 48
12.0
370
    25
100
AcDbLine
 10
69.41785000000002
 20
110.62576
 30
0.0
 11
69.39625000000001
 21
110.40652
 31
0.0
  0
LINE
  5
2C2
330
1F
100
AcDbEntity
  8
0
  6
Continuous
 62
     7
 48
12.0
370
    25
100
AcDbLine
 10
69.76021
 20
110.39896
 30
0.0
 11
69.56689
 21
110.29312
 31
0.0
  0
LINE
  5
2C3
330
1F
100
AcDbEntity
  8
0
  6
Continuous
 62
     7
 48
12.0
370
    25
100
AcDbLine
 10
69.58957000000001
 20
110.51236
 30
0.0
 11
69.56689
 21
110.29312
 31
0.0
  0
LINE
  5
2C4
330
1F
100
AcDbEntity
  8
0
  6
Continuous
 62
     7
 48
12.0
370
    25
100
AcDbLine
 10
69.93193
 20
110.28556
 30
0.0
 11
69.73861000000001
 21
110.17972
 31
0.0
  0
LINE
  5
2C5
330
1F
100
AcDbEntity
  8
0
  6
Continuous
 62
     7
 48
12.0
370
    25
100
AcDbLine
 10
69.76021
 20
110.39896
 30
0.0
 11
69.73861000000001
 21
110.17972
 31
0.0
  0
LINE
  5
2C6
330
1F
100
AcDbEntity
  8
0
  6
Continuous
 62
     7
 48
12.0
370
    25
100
AcDbLine
 10
70.10257000000001
 20
110.17216
 30
0.0
 11
69.90925000000001
 21
110.06632
 31
0.0
  0
LINE
  5
2C7
330
1F
100
AcDbEntity
  8
0
  6
Continuous
 62
     7
 48
12.0
370
    25
100
AcDbLine
 10
69.93193
 20
110.28556
 30
0.0
 11
69.90925000000001
 21
110.06632
 31
0.0
  0
LINE
  5
2C8
330
1F
100
AcDbEntity
  8
0
  6
Continuous
 62
     7
 48
12.0
370
    25
100
AcDbLine
 10
70.27429000000001
 20
110.05876
 30
0.0
 11
70.08097000000001
 21
109.95292
 31
0.0
  0
LINE
  5
2C9
330
1F
100
AcDbEntity
  8
0
  6
Continuous
 62
     7
 48
12.0
370
    25
100
AcDbLine
 10
70.10257000000001
 20
110.17216
 30
0.0
 11
70.08097000000001
 21
109.95292
 31
0.0
  0
LINE
  5
2CA
330
1F
100
AcDbEntity
  8
0
  6
Continuous
 62
     7
 48
12.0
370
    25
100
AcDbLine
 10
70.44493000000001
 20
109.94536
 30
0.0
 11
70.25161
 21
109.83952
 31
0.0
  0
LINE
  5
2CB
330
1F
100
AcDbEntity
  8
0
  6
Continuous
 62
     7
 48
12.0
370
    25
100
AcDbLine
 10
70.27429000000001
 20
110.05876
 30
0.0
 11
70.25161
 21
109.83952
 31
0.0
  0
LINE
  5
2CC
330
1F
100
AcDbEntity
  8
0
  6
Continuous
 62
     7
 48
12.0
370
    25
100
AcDbLine
 10
70.61664999999999
 20
109.83196
 30
0.0
 11
70.42333000000002
 21
109.72612
 31
0.0
  0
LINE
  5
2CD
330
1F
100
AcDbEntity
  8
0
  6
Continuous
 62
     7
 48
12.0
370
    25
100
AcDbLine
 10
70.44493000000001
 20
109.94536
 30
0.0
 11
70.42333000000002
 21
109.72612
 31
0.0
  0
LINE
  5
2CE
330
1F
100
AcDbEntity
  8
0
  6
Continuous
 62
     7
 48
12.0
370
    25
100
AcDbLine
 10
70.78837000000001
 20
109.71856
 30
0.0
 11
70.59505000000001
 21
109.61272
 31
0.0
  0
LINE
  5
2CF
330
1F
100
AcDbEntity
  8
0
  6
Continuous
 62
     7
 48
12.0
370
    25
100
AcDbLine
 10
70.61664999999999
 20
109.83196
 30
0.0
 11
70.59505000000001
 21
109.61272
 31
0.0
  0
LINE
  5
2D0
330
1F
100
AcDbEntity
  8
0
  6
Continuous
 62
     7
 48
12.0
370
    25
100
AcDbLine
 10
70.95901
 20
109.60516
 30
0.0
 11
70.76569000000002
 21
109.49932
 31
0.0
  0
LINE
  5
2D1
330
1F
100
AcDbEntity
  8
0
  6
Continuous
 62
     7
 48
12.0
370
    25
100
AcDbLine
 10
70.78837000000001
 20
109.71856
 30
0.0
 11
70.76569000000002
 21
109.49932
 31
0.0
  0
LINE
  5
2D2
330
1F
100
AcDbEntity
  8
0
  6
Continuous
 62
     7
 48
12.0
370
    25
100
AcDbLine
 10
71.13073000000001
 20
109.49176
 30
0.0
 11
70.93741
 21
109.38592
 31
0.0
  0
LINE
  5
2D3
330
1F
100
AcDbEntity
  8
0
  6
Continuous
 62
     7
 48
12.0
370
    25
100
AcDbLine
 10
70.95901
 20
109.60516
 30
0.0
 11
70.93741
 21
109.38592
 31
0.0
  0
LINE
  5
2D4
330
1F
100
AcDbEntity
  8
0
  6
Continuous
 62
     7
 48
12.0
370
    25
100
AcDbLine
 10
71.30137000000002
 20
109.37836
 30
0.0
 11
71.10805
 21
109.27252
 31
0.0
  0
LINE
  5
2D5
330
1F
100
AcDbEntity
  8
0
  6
Continuous
 62
     7
 48
12.0
370
    25
100
AcDbLine
 10
71.13073000000001
 20
109.49176
 30
0.0
 11
71.10805
 21
109.27252
 31
0.0
  0
LINE
  5
2D6
330
1F
100
AcDbEntity
  8
0
  6
Continuous
 62
     7
 48
12.0
370
    25
100
AcDbLine
 10
71.47309
 20
109.26496
 30
0.0
 11
71.27977
 21
109.15912
 31
0.0
  0
LINE
  5
2D7
330
1F
100
AcDbEntity
  8
0
  6
Continuous
 62
     7
 48
12.0
370
    25
100
AcDbLine
 10
71.30137000000002
 20
109.37836
 30
0.0
 11
71.27977
 21
109.15912
 31
0.0
  0
LINE
  5
2D8
330
1F
100
AcDbEntity
  8
0
  6
Continuous
 62
     7
 48
12.0
370
    25
100
AcDbLine
 10
71.64373
 20
109.15156
 30
0.0
 11
71.45041
 21
109.04572
 31
0.0
  0
LINE
  5
2D9
330
1F
100
AcDbEntity
  8
0
  6
Continuous
 62
     7
 48
12.0
370
    25
100
AcDbLine
 10
71.47309
 20
109.26496
 30
0.0
 11
71.45041
 21
109.04572
 31
0.0
  0
LINE
  5
2DA
330
1F
100
AcDbEntity
  8
0
  6
Continuous
 62
     7
 48
12.0
370
    25
100
AcDbLine
 10
71.81545
 20
109.03816
 30
0.0
 11
71.62213000000001
 21
108.93232
 31
0.0
  0
LINE
  5
2DB
330
1F
100
AcDbEntity
  8
0
  6
Continuous
 62
     7
 48
12.0
370
    25
100
AcDbLine
 10
71.64373
 20
109.15156
 30
0.0
 11
71.62213000000001
 21
108.93232
 31
0.0
  0
LINE
  5
2DC
330
1F
100
AcDbEntity
  8
0
  6
Continuous
 62
     7
 48
12.0
370
    25
100
AcDbLine
 10
71.98609000000002
 20
108.92476
 30
0.0
 11
71.79276999999999
 21
108.81892
 31
0.0
  0
LINE
  5
2DD
330
1F
100
AcDbEntity
  8
0
  6
Continuous
 62
     7
 48
12.0
370
    25
100
AcDbLine
 10
71.81545
 20
109.03816
 30
0.0
 11
71.79276999999999
 21
108.81892
 31
0.0
  0
LINE
  5
2DE
330
1F
100
AcDbEntity
  8
0
  6
Continuous
 62
     7
 48
12.0
370
    25
100
AcDbLine
 10
72.15781000000001
 20
108.81136
 30
0.0
 11
71.96449
 21
108.70552
 31
0.0
  0
LINE
  5
2DF
330
1F
100
AcDbEntity
  8
0
  6
Continuous
 62
     7
 48
12.0
370
    25
100
AcDbLine
 10
71.98609000000002
 20
108.92476
 30
0.0
 11
71.96449
 21
108.70552
 31
0.0
  0
LINE
  5
2E0
330
1F
100
AcDbEntity
  8
0
  6
Continuous
 62
     7
 48
12.0
370
    25
100
AcDbLine
 10
72.32845
 20
108.69796
 30
0.0
 11
72.13513
 21
108.59212
 31
0.0
  0
LINE
  5
2E1
330
1F
100
AcDbEntity
  8
0
  6
Continuous
 62
     7
 48
12.0
370
    25
100
AcDbLine
 10
72.15781000000001
 20
108.81136
 30
0.0
 11
72.13513
 21
108.59212
 31
0.0
  0
LINE
  5
2E2
330
1F
100
AcDbEntity
  8
0
  6
Continuous
 62
     7
 48
12.0
370
    25
100
AcDbLine
 10
72.50017
 20
108.58456
 30
0.0
 11
72.30685000000001
 21
108.47872
 31
0.0
  0
LINE
  5
2E3
330
1F
100
AcDbEntity
  8
0
  6
Continuous
 62
     7
 48
12.0
370
    25
100
AcDbLine
 10
72.32845
 20
108.69796
 30
0.0
 11
72.30685000000001
 21
108.47872
 31
0.0
  0
LINE
  5
2E4
330
1F
100
AcDbEntity
  8
0
  6
Continuous
 62
     7
 48
12.0
370
    25
100
AcDbLine
 10
72.67189
 20
108.47116
 30
0.0
 11
72.47857000000002
 21
108.36532
 31
0.0
  0
LINE
  5
2E5
330
1F
100
AcDbEntity
  8
0
  6
Continuous
 62
     7
 48
12.0
370
    25
100
AcDbLine
 10
72.50017
 20
108.58456
 30
0.0
 11
72.47857000000002
 21
108.36532
 31
0.0
  0
LINE
  5
2E6
330
1F
100
AcDbEntity
  8
0
  6
Continuous
 62
     7
 48
12.0
370
    25
100
AcDbLine
 10
72.84253
 20
108.35776
 30
0.0
 11
72.64921000000001
 21
108.25192
 31
0.0
  0
LINE
  5
2E7
330
1F
100
AcDbEntity
  8
0
  6
Continuous
 62
     7
 48
12.0
370
    25
100
AcDbLine
 10
72.67189
 20
108.47116
 30
0.0
 11
72.64921000000001
 21
108.25192
 31
0.0
  0
LINE
  5
2E8
330
1F
100
AcDbEntity
  8
0
  6
Continuous
 62
     7
 48
12.0
370
    25
100
AcDbLine
 10
73.01425000000002
 20
108.24436
 30
0.0
 11
72.82093
 21
108.13852
 31
0.0
  0
LINE
  5
2E9
330
1F
100
AcDbEntity
  8
0
  6
Continuous
 62
     7
 48
12.0
370
    25
100
AcDbLine
 10
72.84253
 20
108.35776
 30
0.0
 11
72.82093
 21
108.13852
 31
0.0
  0
LINE
  5
2EA
330
1F
100
AcDbEntity
  8
0
  6
Continuous
 62
     7
 48
12.0
370
    25
100
AcDbLine
 10
73.18489
 20
108.13096
 30
0.0
 11
72.99157000000001
 21
108.02512
 31
0.0
  0
LINE
  5
2EB
330
1F
100
AcDbEntity
  8
0
  6
Continuous
 62
     7
 48
12.0
370
    25
100
AcDbLine
 10
73.01425000000002
 20
108.24436
 30
0.0
 11
72.99157000000001
 21
108.02512
 31
0.0
  0
LINE
  5
2EC
330
1F
100
AcDbEntity
  8
0
  6
Continuous
 62
     7
 48
12.0
370
    25
100
AcDbLine
 10
73.35661
 20
108.01756
 30
0.0
 11
73.16329
 21
107.91172
 31
0.0
  0
LINE
  5
2ED
330
1F
100
AcDbEntity
  8
0
  6
Continuous
 62
     7
 48
12.0
370
    25
100
AcDbLine
 10
73.18489
 20
108.13096
 30
0.0
 11
73.16329
 21
107.91172
 31
0.0
  0
LINE
  5
2EE
330
1F
100
AcDbEntity
  8
0
  6
Continuous
 62
     7
 48
12.0
370
    25
100
AcDbLine
 10
73.52725000000001
 20
107.90416
 30
0.0
 11
73.33393000000002
 21
107.79832
 31
0.0
  0
LINE
  5
2EF
330
1F
100
AcDbEntity
  8
0
  6
Continuous
 62
     7
 48
12.0
370
    25
100
AcDbLine
 10
73.35661
 20
108.01756
 30
0.0
 11
73.33393000000002
 21
107.79832
 31
0.0
  0
LINE
  5
2F0
330
1F
100
AcDbEntity
  8
0
  6
Continuous
 62
     7
 48
12.0
370
    25
100
AcDbLine
 10
73.69897000000002
 20
107.79076
 30
0.0
 11
73.50564999999999
 21
107.68492
 31
0.0
  0
LINE
  5
2F1
330
1F
100
AcDbEntity
  8
0
  6
Continuous
 62
     7
 48
12.0
370
    25
100
AcDbLine
 10
73.52725000000001
 20
107.90416
 30
0.0
 11
73.50564999999999
 21
107.68492
 31
0.0
  0
LINE
  5
2F2
330
1F
100
AcDbEntity
  8
0
  6
Continuous
 62
     7
 48
12.0
370
    25
100
AcDbLine
 10
73.86961000000001
 20
107.67736
 30
0.0
 11
73.67629000000001
 21
107.57152
 31
0.0
  0
LINE
  5
2F3
330
1F
100
AcDbEntity
  8
0
  6
Continuous
 62
     7
 48
12.0
370
    25
100
AcDbLine
 10
73.69897000000002
 20
107.79076
 30
0.0
 11
73.67629000000001
 21
107.57152
 31
0.0
  0
LINE
  5
2F4
330
1F
100
AcDbEntity
  8
0
  6
Continuous
 62
     7
 48
12.0
370
    25
100
AcDbLine
 10
74.04133
 20
107.56396
 30
0.0
 11
73.84801
 21
107.45812
 31
0.0
  0
LINE
  5
2F5
330
1F
100
AcDbEntity
  8
0
  6
Continuous
 62
     7
 48
12.0
370
    25
100
AcDbLine
 10
73.86961000000001
 20
107.67736
 30
0.0
 11
73.84801
 21
107.45812
 31
0.0
  0
LINE
  5
2F6
330
1F
100
AcDbEntity
  8
0
  6
Continuous
 62
     7
 48
12.0
370
    25
100
AcDbLine
 10
74.21197000000001
 20
107.45056
 30
0.0
 11
74.01973000000001
 21
107.34472
 31
0.0
  0
LINE
  5
2F7
330
1F
100
AcDbEntity
  8
0
  6
Continuous
 62
     7
 48
12.0
370
    25
100
AcDbLine
 10
74.04133
 20
107.56396
 30
0.0
 11
74.01973000000001
 21
107.34472
 31
0.0
  0
LINE
  5
2F8
330
1F
100
AcDbEntity
  8
0
  6
Continuous
 62
     7
 48
12.0
370
    25
100
AcDbLine
 10
74.38369
 20
107.33716
 30
0.0
 11
74.19037
 21
107.23132
 31
0.0
  0
LINE
  5
2F9
330
1F
100
AcDbEntity
  8
0
  6
Continuous
 62
     7
 48
12.0
370
    25
100
AcDbLine
 10
74.21197000000001
 20
107.45056
 30
0.0
 11
74.19037
 21
107.23132
 31
0.0
  0
LINE
  5
2FA
330
1F
100
AcDbEntity
  8
0
  6
Continuous
 62
     7
 48
12.0
370
    25
100
AcDbLine
 10
74.55541
 20
107.22376
 30
0.0
 11
74.36209000000001
 21
107.11792
 31
0.0
  0
LINE
  5
2FB
330
1F
100
AcDbEntity
  8
0
  6
Continuous
 62
     7
 48
12.0
370
    25
100
AcDbLine
 10
74.38369
 20
107.33716
 30
0.0
 11
74.36209000000001
 21
107.11792
 31
0.0
  0
LINE
  5
2FC
330
1F
100
AcDbEntity
  8
0
  6
Continuous
 62
     7
 48
12.0
370
    25
100
AcDbLine
 10
74.72605000000001
 20
107.11036
 30
0.0
 11
74.53273
 21
107.00452
 31
0.0
  0
LINE
  5
2FD
330
1F
100
AcDbEntity
  8
0
  6
Continuous
 62
     7
 48
12.0
370
    25
100
AcDbLine
 10
74.55541
 20
107.22376
 30
0.0
 11
74.53273
 21
107.00452
 31
0.0
  0
LINE
  5
2FE
330
1F
100
AcDbEntity
  8
0
  6
Continuous
 62
     7
 48
12.0
370
    25
100
AcDbLine
 10
74.89777000000001
 20
106.99696
 30
0.0
 11
74.70445000000001
 21
106.89112
 31
0.0
  0
LINE
  5
2FF
330
1F
100
AcDbEntity
  8
0
  6
Continuous
 62
     7
 48
12.0
370
    25
100
AcDbLine
 10
74.72605000000001
 20
107.11036
 30
0.0
 11
74.70445000000001
 21
106.89112
 31
0.0
  0
LINE
  5
300
330
1F
100
AcDbEntity
  8
0
  6
Continuous
 62
     7
 48
12.0
370
    25
100
AcDbLine
 10
75.06841
 20
106.88356
 30
0.0
 11
74.87509000000001
 21
106.77772
 31
0.0
  0
LINE
  5
301
330
1F
100
AcDbEntity
  8
0
  6
Continuous
 62
     7
 48
12.0
370
    25
100
AcDbLine
 10
74.89777000000001
 20
106.99696
 30
0.0
 11
74.87509000000001
 21
106.77772
 31
0.0
  0
LINE
  5
302
330
1F
100
AcDbEntity
  8
0
  6
Continuous
 62
     7
 48
12.0
370
    25
100
AcDbLine
 10
75.24013000000001
 20
106.77016
 30
0.0
 11
75.04681000000002
 21
106.66432
 31
0.0
  0
LINE
  5
303
330
1F
100
AcDbEntity
  8
0
  6
Continuous
 62
     7
 48
12.0
370
    25
100
AcDbLine
 10
75.06841
 20
106.88356
 30
0.0
 11
75.04681000000002
 21
106.66432
 31
0.0
  0
LINE
  5
304
330
1F
100
AcDbEntity
  8
0
  6
Continuous
 62
     7
 48
12.0
370
    25
100
AcDbLine
 10
75.41077
 20
106.65676
 30
0.0
 11
75.21745
 21
106.55092
 31
0.0
  0
LINE
  5
305
330
1F
100
AcDbEntity
  8
0
  6
Continuous
 62
     7
 48
12.0
370
    25
100
AcDbLine
 10
75.24013000000001
 20
106.77016
 30
0.0
 11
75.21745
 21
106.55092
 31
0.0
  0
LINE
  5
306
330
1F
100
AcDbEntity
  8
0
  6
Continuous
 62
     7
 48
12.0
370
    25
100
AcDbLine
 10
75.58249
 20
106.54336
 30
0.0
 11
75.38917000000001
 21
106.43752
 31
0.0
  0
LINE
  5
307
330
1F
100
AcDbEntity
  8
0
  6
Continuous
 62
     7
 48
12.0
370
    25
100
AcDbLine
 10
75.41077
 20
106.65676
 30
0.0
 11
75.38917000000001
 21
106.43752
 31
0.0
  0
LINE
  5
308
330
1F
100
AcDbEntity
  8
0
  6
Continuous
 62
     7
 48
12.0
370
    25
100
AcDbLine
 10
75.75313
 20
106.42996
 30
0.0
 11
75.55981000000001
 21
106.32412
 31
0.0
  0
LINE
  5
309
330
1F
100
AcDbEntity
  8
0
  6
Continuous
 62
     7
 48
12.0
370
    25
100
AcDbLine
 10
75.58249
 20
106.54336
 30
0.0
 11
75.55981000000001
 21
106.32412
 31
0.0
  0
LINE
  5
30A
330
1F
100
AcDbEntity
  8
0
  6
Continuous
 62
     7
 48
12.0
370
    25
100
AcDbLine
 10
75.92485
 20
106.31656
 30
0.0
 11
75.73153
 21
106.21072
 31
0.0
  0
LINE
  5
30B
330
1F
100
AcDbEntity
  8
0
  6
Continuous
 62
     7
 48
12.0
370
    25
100
AcDbLine
 10
75.75313
 20
106.42996
 30
0.0
 11
75.73153
 21
106.21072
 31
0.0
  0
LINE
  5
30C
330
1F
100
AcDbEntity
  8
0
  6
Continuous
 62
     7
 48
12.0
370
    25
100
AcDbLine
 10
76.09549000000001
 20
106.20316
 30
0.0
 11
75.90325
 21
106.09732
 31
0.0
  0
LINE
  5
30D
330
1F
100
AcDbEntity
  8
0
  6
Continuous
 62
     7
 48
12.0
370
    25
100
AcDbLine
 10
75.92485
 20
106.31656
 30
0.0
 11
75.90325
 21
106.09732
 31
0.0
  0
LINE
  5
30E
330
1F
100
AcDbEntity
  8
0
  6
Continuous
 62
     7
 48
12.0
370
    25
100
AcDbLine
 10
76.26721000000002
 20
106.08976
 30
0.0
 11
76.07388999999999
 21
105.98392
 31
0.0
  0
LINE
  5
30F
330
1F
100
AcDbEntity
  8
0
  6
Continuous
 62
     7
 48
12.0
370
    25
100
AcDbLine
 10
76.09549000000001
 20
106.20316
 30
0.0
 11
76.07388999999999
 21
105.98392
 31
0.0
  0
LINE
  5
310
330
1F
100
AcDbEntity
  8
0
  6
Continuous
 62
     7
 48
12.0
370
    25
100
AcDbLine
 10
76.43893000000001
 20
105.97636
 30
0.0
 11
76.24561
 21
105.87052
 31
0.0
  0
LINE
  5
311
330
1F
100
AcDbEntity
  8
0
  6
Continuous
 62
     7
 48
12.0
370
    25
100
AcDbLine
 10
76.26721000000002
 20
106.08976
 30
0.0
 11
76.24561
 21
105.87052
 31
0.0
  0
LINE
  5
312
330
1F
100
AcDbEntity
  8
0
  6
Continuous
 62
     7
 48
12.0
370
    25
100
AcDbLine
 10
76.60956999999999
 20
105.86296
 30
0.0
 11
76.41625
 21
105.75712
 31
0.0
  0
LINE
  5
313
330
1F
100
AcDbEntity
  8
0
  6
Continuous
 62
     7
 48
12.0
370
    25
100
AcDbLine
 10
76.43893000000001
 20
105.97636
 30
0.0
 11
76.41625
 21
105.75712
 31
0.0
  0
LINE
  5
314
330
1F
100
AcDbEntity
  8
0
  6
Continuous
 62
     7
 48
12.0
370
    25
100
AcDbLine
 10
76.78129
 20
105.74956
 30
0.0
 11
76.58797000000001
 21
105.64372
 31
0.0
  0
LINE
  5
315
330
1F
100
AcDbEntity
  8
0
  6
Continuous
 62
     7
 48
12.0
370
    25
100
AcDbLine
 10
76.60956999999999
 20
105.86296
 30
0.0
 11
76.58797000000001
 21
105.64372
 31
0.0
  0
LINE
  5
316
330
1F
100
AcDbEntity
  8
0
  6
Continuous
 62
     7
 48
12.0
370
    25
100
AcDbLine
 10
76.95193
 20
105.63616
 30
0.0
 11
76.75861
 21
105.53032
 31
0.0
  0
LINE
  5
317
330
1F
100
AcDbEntity
  8
0
  6
Continuous
 62
     7
 48
12.0
370
    25
100
AcDbLine
 10
76.78129
 20
105.74956
 30
0.0
 11
76.75861
 21
105.53032
 31
0.0
  0
LINE
  5
318
330
1F
100
AcDbEntity
  8
0
  6
Continuous
 62
     7
 48
12.0
370
    25
100
AcDbLine
 10
77.12365
 20
105.52276
 30
0.0
 11
76.93033
 21
105.41692
 31
0.0
  0
LINE
  5
319
330
1F
100
AcDbEntity
  8
0
  6
Continuous
 62
     7
 48
12.0
370
    25
100
AcDbLine
 10
76.95193
 20
105.63616
 30
0.0
 11
76.93033
 21
105.41692
 31
0.0
  0
LINE
  5
31A
330
1F
100
AcDbEntity
  8
0
  6
Continuous
 62
     7
 48
12.0
370
    25
100
AcDbLine
 10
77.29429000000002
 20
105.40936
 30
0.0
 11
77.10097
 21
105.30352
 31
0.0
  0
LINE
  5
31B
330
1F
100
AcDbEntity
  8
0
  6
Continuous
 62
     7
 48
12.0
370
    25
100
AcDbLine
 10
77.12365
 20
105.52276
 30
0.0
 11
77.10097
 21
105.30352
 31
0.0
  0
LINE
  5
31C
330
1F
100
AcDbEntity
  8
0
  6
Continuous
 62
     7
 48
12.0
370
    25
100
AcDbLine
 10
77.46601000000001
 20
105.29596
 30
0.0
 11
77.27269000000001
 21
105.19012
 31
0.0
  0
LINE
  5
31D
330
1F
100
AcDbEntity
  8
0
  6
Continuous
 62
     7
 48
12.0
370
    25
100
AcDbLine
 10
77.29429000000002
 20
105.40936
 30
0.0
 11
77.27269000000001
 21
105.19012
 31
0.0
  0
LINE
  5
31E
330
1F
100
AcDbEntity
  8
0
  6
Continuous
 62
     7
 48
12.0
370
    25
100
AcDbLine
 10
77.63664999999999
 20
105.18256
 30
0.0
 11
77.44333000000002
 21
105.07672
 31
0.0
  0
LINE
  5
31F
330
1F
100
AcDbEntity
  8
0
  6
Continuous
 62
     7
 48
12.0
370
    25
100
AcDbLine
 10
77.46601000000001
 20
105.29596
 30
0.0
 11
77.44333000000002
 21
105.07672
 31
0.0
  0
LINE
  5
320
330
1F
100
AcDbEntity
  8
0
  6
Continuous
 62
     7
 48
12.0
370
    25
100
AcDbLine
 10
77.80837000000001
 20
105.06916
 30
0.0
 11
77.61505000000002
 21
104.96332
 31
0.0
  0
LINE
  5
321
330
1F
100
AcDbEntity
  8
0
  6
Continuous
 62
     7
 48
12.0
370
    25
100
AcDbLine
 10
77.63664999999999
 20
105.18256
 30
0.0
 11
77.61505000000002
 21
104.96332
 31
0.0
  0
LINE
  5
322
330
1F
100
AcDbEntity
  8
0
  6
Continuous
 62
     7
 48
12.0
370
    25
100
AcDbLine
 10
77.98009000000002
 20
104.95576
 30
0.0
 11
77.78676999999999
 21
104.84992
 31
0.0
  0
LINE
  5
323
330
1F
100
AcDbEntity
  8
0
  6
Continuous
 62
     7
 48
12.0
370
    25
100
AcDbLine
 10
77.80837000000001
 20
105.06916
 30
0.0
 11
77.78676999999999
 21
104.84992
 31
0.0
  0
LINE
  5
324
330
1F
100
AcDbEntity
  8
0
  6
Continuous
 62
     7
 48
12.0
370
    25
100
AcDbLine
 10
78.15073000000001
 20
104.84344
 30
0.0
 11
77.95741
 21
104.73652
 31
0.0
  0
LINE
  5
325
330
1F
100
AcDbEntity
  8
0
  6
Continuous
 62
     7
 48
12.0
370
    25
100
AcDbLine
 10
77.98009000000002
 20
104.95684
 30
0.0
 11
77.95741
 21
104.73652
 31
0.0
  0
LINE
  5
326
330
1F
100
AcDbEntity
  8
0
  6
Continuous
 62
     7
 48
12.0
370
    25
100
AcDbLine
 10
78.32245000000002
 20
104.73004
 30
0.0
 11
78.12913
 21
104.62312
 31
0.0
  0
LINE
  5
327
330
1F
100
AcDbEntity
  8
0
  6
Continuous
 62
     7
 48
12.0
370
    25
100
AcDbLine
 10
78.15073000000001
 20
104.84344
 30
0.0
 11
78.12913
 21
104.62312
 31
0.0
  0
LINE
  5
328
330
1F
100
AcDbEntity
  8
0
  6
Continuous
 62
     7
 48
12.0
370
    25
100
AcDbLine
 10
78.49309000000001
 20
104.61664
 30
0.0
 11
78.29977000000001
 21
104.50972
 31
0.0
  0
LINE
  5
329
330
1F
100
AcDbEntity
  8
0
  6
Continuous
 62
     7
 48
12.0
370
    25
100
AcDbLine
 10
78.32245000000002
 20
104.73004
 30
0.0
 11
78.29977000000001
 21
104.50972
 31
0.0
  0
LINE
  5
32A
330
1F
100
AcDbEntity
  8
0
  6
Continuous
 62
     7
 48
12.0
370
    25
100
AcDbLine
 10
78.66481
 20
104.50324
 30
0.0
 11
78.47149
 21
104.39632
 31
0.0
  0
LINE
  5
32B
330
1F
100
AcDbEntity
  8
0
  6
Continuous
 62
     7
 48
12.0
370
    25
100
AcDbLine
 10
78.49309000000001
 20
104.61664
 30
0.0
 11
78.47149
 21
104.39632
 31
0.0
  0
LINE
  5
32C
330
1F
100
AcDbEntity
  8
0
  6
Continuous
 62
     7
 48
12.0
370
    25
100
AcDbLine
 10
78.83545000000001
 20
104.38984
 30
0.0
 11
78.64213
 21
104.284
 31
0.0
  0
LINE
  5
32D
330
1F
100
AcDbEntity
  8
0
  6
Continuous
 62
     7
 48
12.0
370
    25
100
AcDbLine
 10
78.66481
 20
104.50324
 30
0.0
 11
78.64213
 21
104.284
 31
0.0
  0
LINE
  5
32E
330
1F
100
AcDbEntity
  8
0
  6
Continuous
 62
     7
 48
12.0
370
    25
100
AcDbLine
 10
79.00717000000002
 20
104.27644
 30
0.0
 11
78.81385
 21
104.1706
 31
0.0
  0
LINE
  5
32F
330
1F
100
AcDbEntity
  8
0
  6
Continuous
 62
     7
 48
12.0
370
    25
100
AcDbLine
 10
78.83545000000001
 20
104.38984
 30
0.0
 11
78.81385
 21
104.1706
 31
0.0
  0
LINE
  5
330
330
1F
100
AcDbEntity
  8
0
  6
Continuous
 62
     7
 48
12.0
370
    25
100
AcDbLine
 10
79.17781
 20
104.16304
 30
0.0
 11
78.98449
 21
104.0572
 31
0.0
  0
LINE
  5
331
330
1F
100
AcDbEntity
  8
0
  6
Continuous
 62
     7
 48
12.0
370
    25
100
AcDbLine
 10
79.00717000000002
 20
104.27644
 30
0.0
 11
78.98449
 21
104.0572
 31
0.0
  0
LINE
  5
332
330
1F
100
AcDbEntity
  8
0
  6
Continuous
 62
     7
 48
12.0
370
    25
100
AcDbLine
 10
79.34952999999999
 20
104.04964
 30
0.0
 11
79.15621000000002
 21
103.9438
 31
0.0
  0
LINE
  5
333
330
1F
100
AcDbEntity
  8
0
  6
Continuous
 62
     7
 48
12.0
370
    25
100
AcDbLine
 10
79.17781
 20
104.16304
 30
0.0
 11
79.15621000000002
 21
103.9438
 31
0.0
  0
LINE
  5
334
330
1F
100
AcDbEntity
  8
0
  6
Continuous
 62
     7
 48
12.0
370
    25
100
AcDbLine
 10
79.52017000000001
 20
103.93624
 30
0.0
 11
79.32685000000001
 21
103.8304
 31
0.0
  0
LINE
  5
335
330
1F
100
AcDbEntity
  8
0
  6
Continuous
 62
     7
 48
12.0
370
    25
100
AcDbLine
 10
79.34952999999999
 20
104.04964
 30
0.0
 11
79.32685000000001
 21
103.8304
 31
0.0
  0
LINE
  5
336
330
1F
100
AcDbEntity
  8
0
  6
Continuous
 62
     7
 48
12.0
370
    25
100
AcDbLine
 10
79.69189
 20
103.82284
 30
0.0
 11
79.49857
 21
103.717
 31
0.0
  0
LINE
  5
337
330
1F
100
AcDbEntity
  8
0
  6
Continuous
 62
     7
 48
12.0
370
    25
100
AcDbLine
 10
79.52017000000001
 20
103.93624
 30
0.0
 11
79.49857
 21
103.717
 31
0.0
  0
LINE
  5
338
330
1F
100
AcDbEntity
  8
0
  6
Continuous
 62
     7
 48
12.0
370
    25
100
AcDbLine
 10
79.86361000000001
 20
103.70944
 30
0.0
 11
79.67029
 21
103.6036
 31
0.0
  0
LINE
  5
339
330
1F
100
AcDbEntity
  8
0
  6
Continuous
 62
     7
 48
12.0
370
    25
100
AcDbLine
 10
79.69189
 20
103.82284
 30
0.0
 11
79.67029
 21
103.6036
 31
0.0
  0
LINE
  5
33A
330
1F
100
AcDbEntity
  8
0
  6
Continuous
 62
     7
 48
12.0
370
    25
100
AcDbLine
 10
80.03425000000001
 20
103.59604
 30
0.0
 11
79.84093000000001
 21
103.4902
 31
0.0
  0
LINE
  5
33B
330
1F
100
AcDbEntity
  8
0
  6
Continuous
 62
     7
 48
12.0
370
    25
100
AcDbLine
 10
79.86361000000001
 20
103.70944
 30
0.0
 11
79.84093000000001
 21
103.4902
 31
0.0
  0
LINE
  5
33C
330
1F
100
AcDbEntity
  8
0
  6
Continuous
 62
     7
 48
12.0
370
    25
100
AcDbLine
 10
80.20597000000001
 20
103.48264
 30
0.0
 11
80.01265000000001
 21
103.3768
 31
0.0
  0
LINE
  5
33D
330
1F
100
AcDbEntity
  8
0
  6
Continuous
 62
     7
 48
12.0
370
    25
100
AcDbLine
 10
80.03425000000001
 20
103.59604
 30
0.0
 11
80.01265000000001
 21
103.3768
 31
0.0
  0
LINE
  5
33E
330
1F
100
AcDbEntity
  8
0
  6
Continuous
 62
     7
 48
12.0
370
    25
100
AcDbLine
 10
80.37661
 20
103.36924
 30
0.0
 11
80.18329000000001
 21
103.2634
 31
0.0
  0
LINE
  5
33F
330
1F
100
AcDbEntity
  8
0
  6
Continuous
 62
     7
 48
12.0
370
    25
100
AcDbLine
 10
80.20597000000001
 20
103.48264
 30
0.0
 11
80.18329000000001
 21
103.2634
 31
0.0
  0
LINE
  5
340
330
1F
100
AcDbEntity
  8
0
  6
Continuous
 62
     7
 48
12.0
370
    25
100
AcDbLine
 10
80.54833
 20
103.25584
 30
0.0
 11
80.35501
 21
103.15
 31
0.0
  0
LINE
  5
341
330
1F
100
AcDbEntity
  8
0
  6
Continuous
 62
     7
 48
12.0
370
    25
100
AcDbLine
 10
80.37661
 20
103.36924
 30
0.0
 11
80.35501
 21
103.15
 31
0.0
  0
LINE
  5
342
330
1F
100
AcDbEntity
  8
0
  6
Continuous
 62
     7
 48
12.0
370
    25
100
AcDbLine
 10
80.71897000000001
 20
103.14244
 30
0.0
 11
80.52565
 21
103.0366
 31
0.0
  0
LINE
  5
343
330
1F
100
AcDbEntity
  8
0
  6
Continuous
 62
     7
 48
12.0
370
    25
100
AcDbLine
 10
80.54833
 20
103.25584
 30
0.0
 11
80.52565
 21
103.0366
 31
0.0
  0
LINE
  5
344
330
1F
100
AcDbEntity
  8
0
  6
Continuous
 62
     7
 48
12.0
370
    25
100
AcDbLine
 10
80.89069000000002
 20
103.02904
 30
0.0
 11
80.69736999999999
 21
102.9232
 31
0.0
  0
LINE
  5
345
330
1F
100
AcDbEntity
  8
0
  6
Continuous
 62
     7
 48
12.0
370
    25
100
AcDbLine
 10
80.71897000000001
 20
103.14244
 30
0.0
 11
80.69736999999999
 21
102.9232
 31
0.0
  0
LINE
  5
346
330
1F
100
AcDbEntity
  8
0
  6
Continuous
 62
     7
 48
12.0
370
    25
100
AcDbLine
 10
81.06133000000001
 20
102.91564
 30
0.0
 11
80.86801000000001
 21
102.8098
 31
0.0
  0
LINE
  5
347
330
1F
100
AcDbEntity
  8
0
  6
Continuous
 62
     7
 48
12.0
370
    25
100
AcDbLine
 10
80.89069000000002
 20
103.02904
 30
0.0
 11
80.86801000000001
 21
102.8098
 31
0.0
  0
LINE
  5
348
330
1F
100
AcDbEntity
  8
0
  6
Continuous
 62
     7
 48
12.0
370
    25
100
AcDbLine
 10
81.23305
 20
102.80224
 30
0.0
 11
81.03973
 21
102.6964
 31
0.0
  0
LINE
  5
349
330
1F
100
AcDbEntity
  8
0
  6
Continuous
 62
     7
 48
12.0
370
    25
100
AcDbLine
 10
81.06133000000001
 20
102.91564
 30
0.0
 11
81.03973
 21
102.6964
 31
0.0
  0
LINE
  5
34A
330
1F
100
AcDbEntity
  8
0
  6
Continuous
 62
     7
 48
12.0
370
    25
100
AcDbLine
 10
81.40369000000001
 20
102.68884
 30
0.0
 11
81.21037
 21
102.583
 31
0.0
  0
LINE
  5
34B
330
1F
100
AcDbEntity
  8
0
  6
Continuous
 62
     7
 48
12.0
370
    25
100
AcDbLine
 10
81.23305
 20
102.80224
 30
0.0
 11
81.21037
 21
102.583
 31
0.0
  0
LINE
  5
34C
330
1F
100
AcDbEntity
  8
0
  6
Continuous
 62
     7
 48
12.0
370
    25
100
AcDbLine
 10
81.57541
 20
102.57544
 30
0.0
 11
81.38209
 21
102.4696
 31
0.0
  0
LINE
  5
34D
330
1F
100
AcDbEntity
  8
0
  6
Continuous
 62
     7
 48
12.0
370
    25
100
AcDbLine
 10
81.40369000000001
 20
102.68884
 30
0.0
 11
81.38209
 21
102.4696
 31
0.0
  0
LINE
  5
34E
330
1F
100
AcDbEntity
  8
0
  6
Continuous
 62
     7
 48
12.0
370
    25
100
AcDbLine
 10
81.74713000000001
 20
102.46204
 30
0.0
 11
81.55381000000001
 21
102.3562
 31
0.0
  0
LINE
  5
34F
330
1F
100
AcDbEntity
  8
0
  6
Continuous
 62
     7
 48
12.0
370
    25
100
AcDbLine
 10
81.57541
 20
102.57544
 30
0.0
 11
81.55381000000001
 21
102.3562
 31
0.0
  0
LINE
  5
350
330
1F
100
AcDbEntity
  8
0
  6
Continuous
 62
     7
 48
12.0
370
    25
100
AcDbLine
 10
81.91776999999999
 20
102.34864
 30
0.0
 11
81.72445
 21
102.2428
 31
0.0
  0
LINE
  5
351
330
1F
100
AcDbEntity
  8
0
  6
Continuous
 62
     7
 48
12.0
370
    25
100
AcDbLine
 10
81.74713000000001
 20
102.46204
 30
0.0
 11
81.72445
 21
102.2428
 31
0.0
  0
LINE
  5
352
330
1F
100
AcDbEntity
  8
0
  6
Continuous
 62
     7
 48
12.0
370
    25
100
AcDbLine
 10
82.08949
 20
102.23524
 30
0.0
 11
81.89617000000001
 21
102.1294
 31
0.0
  0
LINE
  5
353
330
1F
100
AcDbEntity
  8
0
  6
Continuous
 62
     7
 48
12.0
370
    25
100
AcDbLine
 10
81.91776999999999
 20
102.34864
 30
0.0
 11
81.89617000000001
 21
102.1294
 31
0.0
  0
LINE
  5
354
330
1F
100
AcDbEntity
  8
0
  6
Continuous
 62
     7
 48
12.0
370
    25
100
AcDbLine
 10
82.26013
 20
102.12184
 30
0.0
 11
82.06681
 21
102.016
 31
0.0
  0
LINE
  5
355
330
1F
100
AcDbEntity
  8
0
  6
Continuous
 62
     7
 48
12.0
370
    25
100
AcDbLine
 10
82.08949
 20
102.23524
 30
0.0
 11
82.06681
 21
102.016
 31
0.0
  0
LINE
  5
356
330
1F
100
AcDbEntity
  8
0
  6
Continuous
 62
     7
 48
12.0
370
    25
100
AcDbLine
 10
82.43185000000001
 20
102.00844
 30
0.0
 11
82.23853
 21
101.9026
 31
0.0
  0
LINE
  5
357
330
1F
100
AcDbEntity
  8
0
  6
Continuous
 62
     7
 48
12.0
370
    25
100
AcDbLine
 10
82.26013
 20
102.12184
 30
0.0
 11
82.23853
 21
101.9026
 31
0.0
  0
LINE
  5
358
330
1F
100
AcDbEntity
  8
0
  6
Continuous
 62
     7
 48
12.0
370
    25
100
AcDbLine
 10
82.60249
 20
101.89504
 30
0.0
 11
82.40917000000002
 21
101.7892
 31
0.0
  0
LINE
  5
359
330
1F
100
AcDbEntity
  8
0
  6
Continuous
 62
     7
 48
12.0
370
    25
100
AcDbLine
 10
82.43185000000001
 20
102.00844
 30
0.0
 11
82.40917000000002
 21
101.7892
 31
0.0
  0
LINE
  5
35A
330
1F
100
AcDbEntity
  8
0
  6
Continuous
 62
     7
 48
12.0
370
    25
100
AcDbLine
 10
82.77421000000001
 20
101.78164
 30
0.0
 11
82.58089000000001
 21
101.6758
 31
0.0
  0
LINE
  5
35B
330
1F
100
AcDbEntity
  8
0
  6
Continuous
 62
     7
 48
12.0
370
    25
100
AcDbLine
 10
82.60249
 20
101.89504
 30
0.0
 11
82.58089000000001
 21
101.6758
 31
0.0
  0
LINE
  5
35C
330
1F
100
AcDbEntity
  8
0
  6
Continuous
 62
     7
 48
12.0
370
    25
100
AcDbLine
 10
82.94485
 20
101.66824
 30
0.0
 11
82.75153000000002
 21
101.5624
 31
0.0
  0
LINE
  5
35D
330
1F
100
AcDbEntity
  8
0
  6
Continuous
 62
     7
 48
12.0
370
    25
100
AcDbLine
 10
82.77421000000001
 20
101.78164
 30
0.0
 11
82.75153000000002
 21
101.5624
 31
0.0
  0
LINE
  5
35E
330
1F
100
AcDbEntity
  8
0
  6
Continuous
 62
     7
 48
12.0
370
    25
100
AcDbLine
 10
83.11657000000001
 20
101.55484
 30
0.0
 11
82.92325
 21
101.449
 31
0.0
  0
LINE
  5
35F
330
1F
100
AcDbEntity
  8
0
  6
Continuous
 62
     7
 48
12.0
370
    25
100
AcDbLine
 10
82.94485
 20
101.66824
 30
0.0
 11
82.92325
 21
101.449
 31
0.0
  0
LINE
  5
360
330
1F
100
AcDbEntity
  8
0
  6
Continuous
 62
     7
 48
12.0
370
    25
100
AcDbLine
 10
83.28721000000002
 20
101.44144
 30
0.0
 11
83.09389
 21
101.3356
 31
0.0
  0
LINE
  5
361
330
1F
100
AcDbEntity
  8
0
  6
Continuous
 62
     7
 48
12.0
370
    25
100
AcDbLine
 10
83.11657000000001
 20
101.55484
 30
0.0
 11
83.09389
 21
101.3356
 31
0.0
  0
LINE
  5
362
330
1F
100
AcDbEntity
  8
0
  6
Continuous
 62
     7
 48
12.0
370
    25
100
AcDbLine
 10
83.45893000000002
 20
101.32804
 30
0.0
 11
83.26561
 21
101.2222
 31
0.0
  0
LINE
  5
363
330
1F
100
AcDbEntity
  8
0
  6
Continuous
 62
     7
 48
12.0
370
    25
100
AcDbLine
 10
83.28721000000002
 20
101.44144
 30
0.0
 11
83.26561
 21
101.2222
 31
0.0
  0
LINE
  5
364
330
1F
100
AcDbEntity
  8
0
  6
Continuous
 62
     7
 48
12.0
370
    25
100
AcDbLine
 10
83.63064999999999
 20
101.21464
 30
0.0
 11
83.43733
 21
101.1088
 31
0.0
  0
LINE
  5
365
330
1F
100
AcDbEntity
  8
0
  6
Continuous
 62
     7
 48
12.0
370
    25
100
AcDbLine
 10
83.45893000000002
 20
101.32804
 30
0.0
 11
83.43733
 21
101.1088
 31
0.0
  0
LINE
  5
366
330
1F
100
AcDbEntity
  8
0
  6
Continuous
 62
     7
 48
12.0
370
    25
100
AcDbLine
 10
83.80129000000001
 20
101.10124
 30
0.0
 11
83.60797000000001
 21
100.9954
 31
0.0
  0
LINE
  5
367
330
1F
100
AcDbEntity
  8
0
  6
Continuous
 62
     7
 48
12.0
370
    25
100
AcDbLine
 10
83.63064999999999
 20
101.21464
 30
0.0
 11
83.60797000000001
 21
100.9954
 31
0.0
  0
LINE
  5
368
330
1F
100
AcDbEntity
  8
0
  6
Continuous
 62
     7
 48
12.0
370
    25
100
AcDbLine
 10
83.97301
 20
100.98784
 30
0.0
 11
83.77969000000002
 21
100.882
 31
0.0
  0
LINE
  5
369
330
1F
100
AcDbEntity
  8
0
  6
Continuous
 62
     7
 48
12.0
370
    25
100
AcDbLine
 10
83.80129000000001
 20
101.10124
 30
0.0
 11
83.77969000000002
 21
100.882
 31
0.0
  0
LINE
  5
36A
330
1F
100
AcDbEntity
  8
0
  6
Continuous
 62
     7
 48
12.0
370
    25
100
AcDbLine
 10
84.14365000000001
 20
100.87444
 30
0.0
 11
83.95033000000001
 21
100.7686
 31
0.0
  0
LINE
  5
36B
330
1F
100
AcDbEntity
  8
0
  6
Continuous
 62
     7
 48
12.0
370
    25
100
AcDbLine
 10
83.97301
 20
100.98784
 30
0.0
 11
83.95033000000001
 21
100.7686
 31
0.0
  0
LINE
  5
36C
330
1F
100
AcDbEntity
  8
0
  6
Continuous
 62
     7
 48
12.0
370
    25
100
AcDbLine
 10
84.31537
 20
100.76104
 30
0.0
 11
84.12205000000002
 21
100.6552
 31
0.0
  0
LINE
  5
36D
330
1F
100
AcDbEntity
  8
0
  6
Continuous
 62
     7
 48
12.0
370
    25
100
AcDbLine
 10
84.14365000000001
 20
100.87444
 30
0.0
 11
84.12205000000002
 21
100.6552
 31
0.0
  0
LINE
  5
36E
330
1F
100
AcDbEntity
  8
0
  6
Continuous
 62
     7
 48
12.0
370
    25
100
AcDbLine
 10
84.48601
 20
100.64764
 30
0.0
 11
84.29269000000001
 21
100.5418
 31
0.0
  0
LINE
  5
36F
330
1F
100
AcDbEntity
  8
0
  6
Continuous
 62
     7
 48
12.0
370
    25
100
AcDbLine
 10
84.31537
 20
100.76104
 30
0.0
 11
84.29269000000001
 21
100.5418
 31
0.0
  0
LINE
  5
370
330
1F
100
AcDbEntity
  8
0
  6
Continuous
 62
     7
 48
12.0
370
    25
100
AcDbLine
 10
84.65773
 20
100.53424
 30
0.0
 11
84.46441000000002
 21
100.4284
 31
0.0
  0
LINE
  5
371
330
1F
100
AcDbEntity
  8
0
  6
Continuous
 62
     7
 48
12.0
370
    25
100
AcDbLine
 10
84.48601
 20
100.64764
 30
0.0
 11
84.46441000000002
 21
100.4284
 31
0.0
  0
LINE
  5
372
330
1F
100
AcDbEntity
  8
0
  6
Continuous
 62
     7
 48
12.0
370
    25
100
AcDbLine
 10
84.82837
 20
100.42084
 30
0.0
 11
84.63505
 21
100.315
 31
0.0
  0
LINE
  5
373
330
1F
100
AcDbEntity
  8
0
  6
Continuous
 62
     7
 48
12.0
370
    25
100
AcDbLine
 10
84.65773
 20
100.53424
 30
0.0
 11
84.63505
 21
100.315
 31
0.0
  0
LINE
  5
374
330
1F
100
AcDbEntity
  8
0
  6
Continuous
 62
     7
 48
12.0
370
    25
100
AcDbLine
 10
85.00009000000001
 20
100.30744
 30
0.0
 11
84.80677
 21
100.2016
 31
0.0
  0
LINE
  5
375
330
1F
100
AcDbEntity
  8
0
  6
Continuous
 62
     7
 48
12.0
370
    25
100
AcDbLine
 10
84.82837
 20
100.42084
 30
0.0
 11
84.80677
 21
100.2016
 31
0.0
  0
LINE
  5
376
330
1F
100
AcDbEntity
  8
0
  6
Continuous
 62
     7
 48
12.0
370
    25
100
AcDbLine
 10
85.17073
 20
100.19404
 30
0.0
 11
84.97741
 21
100.0882
 31
0.0
  0
LINE
  5
377
330
1F
100
AcDbEntity
  8
0
  6
Continuous
 62
     7
 48
12.0
370
    25
100
AcDbLine
 10
85.00009000000001
 20
100.30744
 30
0.0
 11
84.97741
 21
100.0882
 31
0.0
  0
LINE
  5
378
330
1F
100
AcDbEntity
  8
0
  6
Continuous
 62
     7
 48
12.0
370
    25
100
AcDbLine
 10
85.34245
 20
100.08064
 30
0.0
 11
85.14913000000001
 21
99.97479999999999
 31
0.0
  0
LINE
  5
379
330
1F
100
AcDbEntity
  8
0
  6
Continuous
 62
     7
 48
12.0
370
    25
100
AcDbLine
 10
85.17073
 20
100.19404
 30
0.0
 11
85.14913000000001
 21
99.97479999999999
 31
0.0
  0
LINE
  5
37A
330
1F
100
AcDbEntity
  8
0
  6
Continuous
 62
     7
 48
12.0
370
    25
100
AcDbLine
 10
85.51417000000001
 20
99.96724
 30
0.0
 11
85.32085000000001
 21
99.8614
 31
0.0
  0
LINE
  5
37B
330
1F
100
AcDbEntity
  8
0
  6
Continuous
 62
     7
 48
12.0
370
    25
100
AcDbLine
 10
85.34245
 20
100.08064
 30
0.0
 11
85.32085000000001
 21
99.8614
 31
0.0
  0
LINE
  5
37C
330
1F
100
AcDbEntity
  8
0
  6
Continuous
 62
     7
 48
12.0
370
    25
100
AcDbLine
 10
85.68481000000001
 20
99.85384
 30
0.0
 11
85.49148999999998
 21
99.748
 31
0.0
  0
LINE
  5
37D
330
1F
100
AcDbEntity
  8
0
  6
Continuous
 62
     7
 48
12.0
370
    25
100
AcDbLine
 10
85.51417000000001
 20
99.96724
 30
0.0
 11
85.49148999999998
 21
99.748
 31
0.0
  0
LINE
  5
37E
330
1F
100
AcDbEntity
  8
0
  6
Continuous
 62
     7
 48
12.0
370
    25
100
AcDbLine
 10
85.85653
 20
99.74043999999999
 30
0.0
 11
85.66321
 21
99.63459999999999
 31
0.0
  0
LINE
  5
37F
330
1F
100
AcDbEntity
  8
0
  6
Continuous
 62
     7
 48
12.0
370
    25
100
AcDbLine
 10
85.68481000000001
 20
99.85384
 30
0.0
 11
85.66321
 21
99.63459999999999
 31
0.0
  0
LINE
  5
380
330
1F
100
AcDbEntity
  8
0
  6
Continuous
 62
     7
 48
12.0
370
    25
100
AcDbLine
 10
86.02717000000003
 20
99.62704
 30
0.0
 11
85.83385
 21
99.5212
 31
0.0
  0
LINE
  5
381
330
1F
100
AcDbEntity
  8
0
  6
Continuous
 62
     7
 48
12.0
370
    25
100
AcDbLine
 10
85.85653
 20
99.74043999999999
 30
0.0
 11
85.83385
 21
99.5212
 31
0.0
  0
LINE
  5
382
330
1F
100
AcDbEntity
  8
0
  6
Continuous
 62
     7
 48
12.0
370
    25
100
AcDbLine
 10
86.19888999999999
 20
99.51363999999998
 30
0.0
 11
86.00557
 21
99.40780000000001
 31
0.0
  0
LINE
  5
383
330
1F
100
AcDbEntity
  8
0
  6
Continuous
 62
     7
 48
12.0
370
    25
100
AcDbLine
 10
86.02717000000003
 20
99.62704
 30
0.0
 11
86.00557
 21
99.40780000000001
 31
0.0
  0
LINE
  5
384
330
1F
100
AcDbEntity
  8
0
  6
Continuous
 62
     7
 48
12.0
370
    25
100
AcDbLine
 10
86.36953
 20
99.40024
 30
0.0
 11
86.17621000000001
 21
99.2944
 31
0.0
  0
LINE
  5
385
330
1F
100
AcDbEntity
  8
0
  6
Continuous
 62
     7
 48
12.0
370
    25
100
AcDbLine
 10
86.19888999999999
 20
99.51363999999998
 30
0.0
 11
86.17621000000001
 21
99.2944
 31
0.0
  0
LINE
  5
386
330
1F
100
AcDbEntity
  8
0
  6
Continuous
 62
     7
 48
12.0
370
    25
100
AcDbLine
 10
86.54125
 20
99.28683999999998
 30
0.0
 11
86.34793000000003
 21
99.181
 31
0.0
  0
LINE
  5
387
330
1F
100
AcDbEntity
  8
0
  6
Continuous
 62
     7
 48
12.0
370
    25
100
AcDbLine
 10
86.36953
 20
99.40024
 30
0.0
 11
86.34793000000003
 21
99.181
 31
0.0
  0
LINE
  5
388
330
1F
100
AcDbEntity
  8
0
  6
Continuous
 62
     7
 48
12.0
370
    25
100
AcDbLine
 10
86.71189000000001
 20
99.17343999999999
 30
0.0
 11
86.51857000000001
 21
99.06759999999998
 31
0.0
  0
LINE
  5
389
330
1F
100
AcDbEntity
  8
0
  6
Continuous
 62
     7
 48
12.0
370
    25
100
AcDbLine
 10
86.54125
 20
99.28683999999998
 30
0.0
 11
86.51857000000001
 21
99.06759999999998
 31
0.0
  0
LINE
  5
38A
330
1F
100
AcDbEntity
  8
0
  6
Continuous
 62
     7
 48
12.0
370
    25
100
AcDbLine
 10
86.88361
 20
99.06003999999999
 30
0.0
 11
86.69029
 21
98.95419999999999
 31
0.0
  0
LINE
  5
38B
330
1F
100
AcDbEntity
  8
0
  6
Continuous
 62
     7
 48
12.0
370
    25
100
AcDbLine
 10
86.71189000000001
 20
99.17343999999999
 30
0.0
 11
86.69029
 21
98.95419999999999
 31
0.0
  0
LINE
  5
38C
330
1F
100
AcDbEntity
  8
0
  6
Continuous
 62
     7
 48
12.0
370
    25
100
AcDbLine
 10
87.05425
 20
98.94664
 30
0.0
 11
86.86093000000002
 21
98.84079999999999
 31
0.0
  0
LINE
  5
38D
330
1F
100
AcDbEntity
  8
0
  6
Continuous
 62
     7
 48
12.0
370
    25
100
AcDbLine
 10
86.88361
 20
99.06003999999999
 30
0.0
 11
86.86093000000002
 21
98.84079999999999
 31
0.0
  0
LINE
  5
38E
330
1F
100
AcDbEntity
  8
0
  6
Continuous
 62
     7
 48
12.0
370
    25
100
AcDbLine
 10
87.22597000000002
 20
98.83324
 30
0.0
 11
87.03265000000002
 21
98.72739999999999
 31
0.0
  0
LINE
  5
38F
330
1F
100
AcDbEntity
  8
0
  6
Continuous
 62
     7
 48
12.0
370
    25
100
AcDbLine
 10
87.05425
 20
98.94664
 30
0.0
 11
87.03265000000002
 21
98.72739999999999
 31
0.0
  0
LINE
  5
390
330
1F
100
AcDbEntity
  8
0
  6
Continuous
 62
     7
 48
12.0
370
    25
100
AcDbLine
 10
87.39769000000001
 20
98.71983999999999
 30
0.0
 11
87.20437000000001
 21
98.61399999999999
 31
0.0
  0
LINE
  5
391
330
1F
100
AcDbEntity
  8
0
  6
Continuous
 62
     7
 48
12.0
370
    25
100
AcDbLine
 10
87.22597000000002
 20
98.83324
 30
0.0
 11
87.20437000000001
 21
98.61399999999999
 31
0.0
  0
LINE
  5
392
330
1F
100
AcDbEntity
  8
0
  6
Continuous
 62
     7
 48
12.0
370
    25
100
AcDbLine
 10
87.56833000000002
 20
98.60643999999999
 30
0.0
 11
87.37501
 21
98.50059999999998
 31
0.0
  0
LINE
  5
393
330
1F
100
AcDbEntity
  8
0
  6
Continuous
 62
     7
 48
12.0
370
    25
100
AcDbLine
 10
87.39769000000001
 20
98.71983999999999
 30
0.0
 11
87.37501
 21
98.50059999999998
 31
0.0
  0
LINE
  5
394
330
1F
100
AcDbEntity
  8
0
  6
Continuous
 62
     7
 48
12.0
370
    25
100
AcDbLine
 10
87.74005000000002
 20
98.49303999999998
 30
0.0
 11
87.54673
 21
98.3872
 31
0.0
  0
LINE
  5
395
330
1F
100
AcDbEntity
  8
0
  6
Continuous
 62
     7
 48
12.0
370
    25
100
AcDbLine
 10
87.56833000000002
 20
98.60643999999999
 30
0.0
 11
87.54673
 21
98.3872
 31
0.0
  0
LINE
  5
396
330
1F
100
AcDbEntity
  8
0
  6
Continuous
 62
     7
 48
12.0
370
    25
100
AcDbLine
 10
87.91069
 20
98.37964000000001
 30
0.0
 11
87.71737
 21
98.2738
 31
0.0
  0
LINE
  5
397
330
1F
100
AcDbEntity
  8
0
  6
Continuous
 62
     7
 48
12.0
370
    25
100
AcDbLine
 10
87.74005000000002
 20
98.49303999999998
 30
0.0
 11
87.71737
 21
98.2738
 31
0.0
  0
LINE
  5
398
330
1F
100
AcDbEntity
  8
0
  6
Continuous
 62
     7
 48
12.0
370
    25
100
AcDbLine
 10
88.08241
 20
98.26624
 30
0.0
 11
87.88909000000001
 21
98.1604
 31
0.0
  0
LINE
  5
399
330
1F
100
AcDbEntity
  8
0
  6
Continuous
 62
     7
 48
12.0
370
    25
100
AcDbLine
 10
87.91069
 20
98.37964000000001
 30
0.0
 11
87.88909000000001
 21
98.1604
 31
0.0
  0
LINE
  5
39A
330
1F
100
AcDbEntity
  8
0
  6
Continuous
 62
     7
 48
12.0
370
    25
100
AcDbLine
 10
88.25305000000002
 20
98.15284
 30
0.0
 11
88.05972999999999
 21
98.04699999999998
 31
0.0
  0
LINE
  5
39B
330
1F
100
AcDbEntity
  8
0
  6
Continuous
 62
     7
 48
12.0
370
    25
100
AcDbLine
 10
88.08241
 20
98.26624
 30
0.0
 11
88.05972999999999
 21
98.04699999999998
 31
0.0
  0
LINE
  5
39C
330
1F
100
AcDbEntity
  8
0
  6
Continuous
 62
     7
 48
12.0
370
    25
100
AcDbLine
 10
88.42477000000001
 20
98.03944
 30
0.0
 11
88.23144999999998
 21
97.93359999999998
 31
0.0
  0
LINE
  5
39D
330
1F
100
AcDbEntity
  8
0
  6
Continuous
 62
     7
 48
12.0
370
    25
100
AcDbLine
 10
88.25305000000002
 20
98.15284
 30
0.0
 11
88.23144999999998
 21
97.93359999999998
 31
0.0
  0
LINE
  5
39E
330
1F
100
AcDbEntity
  8
0
  6
Continuous
 62
     7
 48
12.0
370
    25
100
AcDbLine
 10
88.59541000000002
 20
97.92604
 30
0.0
 11
88.40209
 21
97.8202
 31
0.0
  0
LINE
  5
39F
330
1F
100
AcDbEntity
  8
0
  6
Continuous
 62
     7
 48
12.0
370
    25
100
AcDbLine
 10
88.42477000000001
 20
98.03944
 30
0.0
 11
88.40209
 21
97.8202
 31
0.0
  0
LINE
  5
3A0
330
1F
100
AcDbEntity
  8
0
  6
Continuous
 62
     7
 48
12.0
370
    25
100
AcDbLine
 10
88.76713
 20
97.81264
 30
0.0
 11
88.57381
 21
97.7068
 31
0.0
  0
LINE
  5
3A1
330
1F
100
AcDbEntity
  8
0
  6
Continuous
 62
     7
 48
12.0
370
    25
100
AcDbLine
 10
88.59541000000002
 20
97.92604
 30
0.0
 11
88.57381
 21
97.7068
 31
0.0
  0
LINE
  5
3A2
330
1F
100
AcDbEntity
  8
0
  6
Continuous
 62
     7
 48
12.0
370
    25
100
AcDbLine
 10
88.93777
 20
97.69923999999999
 30
0.0
 11
88.74445
 21
97.5934
 31
0.0
  0
LINE
  5
3A3
330
1F
100
AcDbEntity
  8
0
  6
Continuous
 62
     7
 48
12.0
370
    25
100
AcDbLine
 10
88.76713
 20
97.81264
 30
0.0
 11
88.74445
 21
97.5934
 31
0.0
  0
LINE
  5
3A4
330
1F
100
AcDbEntity
  8
0
  6
Continuous
 62
     7
 48
12.0
370
    25
100
AcDbLine
 10
89.10949
 20
97.58583999999999
 30
0.0
 11
88.91617000000001
 21
97.47999999999999
 31
0.0
  0
LINE
  5
3A5
330
1F
100
AcDbEntity
  8
0
  6
Continuous
 62
     7
 48
12.0
370
    25
100
AcDbLine
 10
88.93777
 20
97.69923999999999
 30
0.0
 11
88.91617000000001
 21
97.47999999999999
 31
0.0
  0
LINE
  5
3A6
330
1F
100
AcDbEntity
  8
0
  6
Continuous
 62
     7
 48
12.0
370
    25
100
AcDbLine
 10
89.28121
 20
97.47243999999999
 30
0.0
 11
89.08789
 21
97.3666
 31
0.0
  0
LINE
  5
3A7
330
1F
100
AcDbEntity
  8
0
  6
Continuous
 62
     7
 48
12.0
370
    25
100
AcDbLine
 10
89.10949
 20
97.58583999999999
 30
0.0
 11
89.08789
 21
97.3666
 31
0.0
  0
LINE
  5
3A8
330
1F
100
AcDbEntity
  8
0
  6
Continuous
 62
     7
 48
12.0
370
    25
100
AcDbLine
 10
89.45185000000001
 20
97.35904
 30
0.0
 11
89.25853000000001
 21
97.25319999999999
 31
0.0
  0
LINE
  5
3A9
330
1F
100
AcDbEntity
  8
0
  6
Continuous
 62
     7
 48
12.0
370
    25
100
AcDbLine
 10
89.28121
 20
97.47243999999999
 30
0.0
 11
89.25853000000001
 21
97.25319999999999
 31
0.0
  0
LINE
  5
3AA
330
1F
100
AcDbEntity
  8
0
  6
Continuous
 62
     7
 48
12.0
370
    25
100
AcDbLine
 10
89.62357
 20
97.24564
 30
0.0
 11
89.43025
 21
97.1398
 31
0.0
  0
LINE
  5
3AB
330
1F
100
AcDbEntity
  8
0
  6
Continuous
 62
     7
 48
12.0
370
    25
100
AcDbLine
 10
89.45185000000001
 20
97.35904
 30
0.0
 11
89.43025
 21
97.1398
 31
0.0
  0
LINE
  5
3AC
330
1F
100
AcDbEntity
  8
0
  6
Continuous
 62
     7
 48
12.0
370
    25
100
AcDbLine
 10
89.79420999999999
 20
97.13223999999998
 30
0.0
 11
89.60089000000002
 21
97.0264
 31
0.0
  0
LINE
  5
3AD
330
1F
100
AcDbEntity
  8
0
  6
Continuous
 62
     7
 48
12.0
370
    25
100
AcDbLine
 10
89.62357
 20
97.24564
 30
0.0
 11
89.60089000000002
 21
97.0264
 31
0.0
  0
LINE
  5
3AE
330
1F
100
AcDbEntity
  8
0
  6
Continuous
 62
     7
 48
12.0
370
    25
100
AcDbLine
 10
89.96593000000001
 20
97.01883999999998
 30
0.0
 11
89.77261000000001
 21
96.91299999999998
 31
0.0
  0
LINE
  5
3AF
330
1F
100
AcDbEntity
  8
0
  6
Continuous
 62
     7
 48
12.0
370
    25
100
AcDbLine
 10
89.79420999999999
 20
97.13223999999998
 30
0.0
 11
89.77261000000001
 21
96.91299999999998
 31
0.0
  0
LINE
  5
3B0
330
1F
100
AcDbEntity
  8
0
  6
Continuous
 62
     7
 48
12.0
370
    25
100
AcDbLine
 10
90.13656999999999
 20
96.90652
 30
0.0
 11
89.94325
 21
96.7996
 31
0.0
  0
LINE
  5
3B1
330
1F
100
AcDbEntity
  8
0
  6
Continuous
 62
     7
 48
12.0
370
    25
100
AcDbLine
 10
89.96593000000001
 20
97.01883999999998
 30
0.0
 11
89.94325
 21
96.7996
 31
0.0
  0
LINE
  5
3B2
330
1F
100
AcDbEntity
  8
0
  6
Continuous
 62
     7
 48
12.0
370
    25
100
AcDbLine
 10
81.99661
 20
109.14832
 30
0.0
 11
82.25905000000002
 21
109.29952
 31
0.0
  0
LINE
  5
3B3
330
1F
100
AcDbEntity
  8
0
  6
Continuous
 62
     7
 48
12.0
370
    25
100
AcDbLine
 10
85.49148999999998
 20
105.62752
 30
0.0
 11
105.71989
 21
117.30556
 31
0.0
  0
LINE
  5
3B4
330
1F
100
AcDbEntity
  8
0
  6
DASHED
 62
     7
 48
12.0
370
    25
100
AcDbLine
 10
82.56253000000001
 20
101.70712
 30
0.0
 11
84.07669000000001
 21
102.58192
 31
0.0
  0
LINE
  5
3B5
330
1F
100
AcDbEntity
  8
0
  6
DASHED
 62
     7
 48
12.0
370
    25
100
AcDbLine
 10
78.13561000000001
 20
104.69008
 30
0.0
 11
79.27933000000002
 21
105.35104
 31
0.0
  0
ARC
  5
3B6
330
1F
100
AcDbEntity
  8
0
  6
Continuous
 62
     7
 48
12.0
370
    25
100
AcDbCircle
 10
59.90305000000001
 20
121.53268
 30
0.0
 40
1.138320000000003
100
AcDbArc
 50
187.3259
 51
234.4262
  0
ARC
  5
3B7
330
1F
100
AcDbEntity
  8
0
  6
Continuous
 62
     7
 48
12.0
370
    25
100
AcDbCircle
 10
62.56417
 20
121.87504
 30
0.0
 40
3.81996
100
AcDbArc
 50
165.112
 51
187.3265
  0
ARC
  5
3B8
330
1F
100
AcDbEntity
  8
0
  6
Continuous
 62
     7
 48
12.0
370
    25
100
AcDbCircle
 10
64.55029000000002
 20
121.34692
 30
0.0
 40
5.876279999999993
100
AcDbArc
 50
139.6869
 51
165.1123000000001
  0
ARC
  5
3B9
330
1F
100
AcDbEntity
  8
0
  6
Continuous
 62
     7
 48
12.0
370
    25
100
AcDbCircle
 10
62.35465000000001
 20
123.20992
 30
0.0
 40
2.997000000000009
100
AcDbArc
 50
101.5856
 51
139.6865
  0
ARC
  5
3BA
330
1F
100
AcDbEntity
  8
0
  6
Continuous
 62
     7
 48
12.0
370
    25
100
AcDbCircle
 10
61.91077000000001
 20
125.37532
 30
0.0
 40
0.7862399999999975
100
AcDbArc
 50
78.43799999999999
 51
101.5857
  0
ARC
  5
3BB
330
1F
100
AcDbEntity
  8
0
  6
Continuous
 62
     7
 48
12.0
370
    25
100
AcDbCircle
 10
65.85925000000003
 20
123.5998
 30
0.0
 40
0.2397600000000082
100
AcDbArc
 50
214.0875
 51
243.5296
  0
ARC
  5
3BC
330
1F
100
AcDbEntity
  8
0
  6
Continuous
 62
     7
 48
12.0
370
    25
100
AcDbCircle
 10
65.95105000000001
 20
123.66136
 30
0.0
 40
0.349919999999994
100
AcDbArc
 50
189.7985
 51
214.0864
  0
ARC
  5
3BD
330
1F
100
AcDbEntity
  8
0
  6
Continuous
 62
     7
 48
12.0
370
    25
100
AcDbCircle
 10
66.05473
 20
123.67864
 30
0.0
 40
0.4557599999999916
100
AcDbArc
 50
170.3214
 51
189.6874
  0
ARC
  5
3BE
330
1F
100
AcDbEntity
  8
0
  6
Continuous
 62
     7
 48
12.0
370
    25
100
AcDbCircle
 10
66.19405
 20
123.65596
 30
0.0
 40
0.5961600000000036
100
AcDbArc
 50
153.5234
 51
170.4289
  0
ARC
  5
3BF
330
1F
100
AcDbEntity
  8
0
  6
Continuous
 62
     7
 48
12.0
370
    25
100
AcDbCircle
 10
66.19405
 20
123.65596
 30
0.0
 40
0.5961600000000071
100
AcDbArc
 50
136.6219
 51
153.5292
  0
ARC
  5
3C0
330
1F
100
AcDbEntity
  8
0
  6
Continuous
 62
     7
 48
12.0
370
    25
100
AcDbCircle
 10
66.09145000000001
 20
123.75316
 30
0.0
 40
0.4557600000000014
100
AcDbArc
 50
117.2525
 51
136.6163
  0
ARC
  5
3C1
330
1F
100
AcDbEntity
  8
0
  6
Continuous
 62
     7
 48
12.0
370
    25
100
AcDbCircle
 10
66.04285000000002
 20
123.84712
 30
0.0
 40
0.3499200000000104
100
AcDbArc
 50
92.967
 51
117.2531
  0
ARC
  5
3C2
330
1F
100
AcDbEntity
  8
0
  6
Continuous
 62
     7
 48
12.0
370
    25
100
AcDbCircle
 10
66.03745
 20
123.95728
 30
0.0
 40
0.2397599999999921
100
AcDbArc
 50
63.5286
 51
92.97320000000002
  0
ARC
  5
3C3
330
1F
100
AcDbEntity
  8
0
  6
Continuous
 62
     7
 48
12.0
370
    25
100
AcDbCircle
 10
66.03745
 20
123.95728
 30
0.0
 40
0.239760000000007
100
AcDbArc
 50
34.0814
 51
63.5219
  0
ARC
  5
3C4
330
1F
100
AcDbEntity
  8
0
  6
Continuous
 62
     7
 48
12.0
370
    25
100
AcDbCircle
 10
65.94565000000001
 20
123.89572
 30
0.0
 40
0.3499199999999965
100
AcDbArc
 50
9.800700000000004
 51
34.0859
  0
ARC
  5
3C5
330
1F
100
AcDbEntity
  8
0
  6
Continuous
 62
     7
 48
12.0
370
    25
100
AcDbCircle
 10
65.84197
 20
123.87844
 30
0.0
 40
0.4557600000000027
100
AcDbArc
 50
350.3219
 51
9.687400000000025
  0
ARC
  5
3C6
330
1F
100
AcDbEntity
  8
0
  6
Continuous
 62
     7
 48
12.0
370
    25
100
AcDbCircle
 10
65.70265
 20
123.90112
 30
0.0
 40
0.5961600000000068
100
AcDbArc
 50
333.5257
 51
350.4342
  0
ARC
  5
3C7
330
1F
100
AcDbEntity
  8
0
  6
Continuous
 62
     7
 48
12.0
370
    25
100
AcDbCircle
 10
65.70265
 20
123.90112
 30
0.0
 40
0.5961599999999959
100
AcDbArc
 50
316.6154999999999
 51
333.5208
  0
ARC
  5
3C8
330
1F
100
AcDbEntity
  8
0
  6
Continuous
 62
     7
 48
12.0
370
    25
100
AcDbCircle
 10
65.80525
 20
123.80392
 30
0.0
 40
0.4557599999999883
100
AcDbArc
 50
297.253
 51
316.6191
  0
ARC
  5
3C9
330
1F
100
AcDbEntity
  8
0
  6
Continuous
 62
     7
 48
12.0
370
    25
100
AcDbCircle
 10
65.85385000000001
 20
123.70996
 30
0.0
 40
0.3499200000000001
100
AcDbArc
 50
272.9705
 51
297.2531
  0
ARC
  5
3CA
330
1F
100
AcDbEntity
  8
0
  6
Continuous
 62
     7
 48
12.0
370
    25
100
AcDbCircle
 10
65.85925000000003
 20
123.5998
 30
0.0
 40
0.2397599999999921
100
AcDbArc
 50
243.5286
 51
272.9687
  0
ARC
  5
3CB
330
1F
100
AcDbEntity
  8
0
  6
Continuous
 62
     7
 48
12.0
370
    25
100
AcDbCircle
 10
63.50701000000002
 20
123.71752
 30
0.0
 40
0.2397599999999957
100
AcDbArc
 50
214.0848
 51
243.5286
  0
ARC
  5
3CC
330
1F
100
AcDbEntity
  8
0
  6
Continuous
 62
     7
 48
12.0
370
    25
100
AcDbCircle
 10
63.59773000000001
 20
123.77908
 30
0.0
 40
0.3499199999999977
100
AcDbArc
 50
189.7968
 51
214.0826
  0
ARC
  5
3CD
330
1F
100
AcDbEntity
  8
0
  6
Continuous
 62
     7
 48
12.0
370
    25
100
AcDbCircle
 10
63.70249000000002
 20
123.79636
 30
0.0
 40
0.4557599999999999
100
AcDbArc
 50
170.324
 51
189.6874
  0
ARC
  5
3CE
330
1F
100
AcDbEntity
  8
0
  6
Continuous
 62
     7
 48
12.0
370
    25
100
AcDbCircle
 10
63.84073000000001
 20
123.77368
 30
0.0
 40
0.5961600000000052
100
AcDbArc
 50
153.5239
 51
170.4316
  0
ARC
  5
3CF
330
1F
100
AcDbEntity
  8
0
  6
Continuous
 62
     7
 48
12.0
370
    25
100
AcDbCircle
 10
63.84073000000001
 20
123.77368
 30
0.0
 40
0.5961600000000029
100
AcDbArc
 50
136.6148
 51
153.5217
  0
ARC
  5
3D0
330
1F
100
AcDbEntity
  8
0
  6
Continuous
 62
     7
 48
12.0
370
    25
100
AcDbCircle
 10
63.73921000000001
 20
123.8698
 30
0.0
 40
0.4557600000000036
100
AcDbArc
 50
117.2589
 51
136.6237
  0
ARC
  5
3D1
330
1F
100
AcDbEntity
  8
0
  6
Continuous
 62
     7
 48
12.0
370
    25
100
AcDbCircle
 10
63.69061000000001
 20
123.96376
 30
0.0
 40
0.3499200000000018
100
AcDbArc
 50
92.97060000000002
 51
117.2539
  0
ARC
  5
3D2
330
1F
100
AcDbEntity
  8
0
  6
Continuous
 62
     7
 48
12.0
370
    25
100
AcDbCircle
 10
63.68413
 20
124.07392
 30
0.0
 40
0.2397599999999993
100
AcDbArc
 50
63.5208
 51
92.9658
  0
ARC
  5
3D3
330
1F
100
AcDbEntity
  8
0
  6
Continuous
 62
     7
 48
12.0
370
    25
100
AcDbCircle
 10
63.68413
 20
124.07392
 30
0.0
 40
0.2397600000000033
100
AcDbArc
 50
34.0842
 51
63.5275
  0
ARC
  5
3D4
330
1F
100
AcDbEntity
  8
0
  6
Continuous
 62
     7
 48
12.0
370
    25
100
AcDbCircle
 10
63.59341000000001
 20
124.01236
 30
0.0
 40
0.3499199999999978
100
AcDbArc
 50
9.7915
 51
34.0803
  0
ARC
  5
3D5
330
1F
100
AcDbEntity
  8
0
  6
Continuous
 62
     7
 48
12.0
370
    25
100
AcDbCircle
 10
63.48865000000002
 20
123.99508
 30
0.0
 40
0.4557599999999974
100
AcDbArc
 50
350.3217000000001
 51
9.683600000000014
  0
ARC
  5
3D6
330
1F
100
AcDbEntity
  8
0
  6
Continuous
 62
     7
 48
12.0
370
    25
100
AcDbCircle
 10
63.35041000000001
 20
124.01776
 30
0.0
 40
0.5961599999999957
100
AcDbArc
 50
333.5261
 51
350.4339
  0
ARC
  5
3D7
330
1F
100
AcDbEntity
  8
0
  6
Continuous
 62
     7
 48
12.0
370
    25
100
AcDbCircle
 10
63.35041000000001
 20
124.01776
 30
0.0
 40
0.596160000000003
100
AcDbArc
 50
316.6176
 51
333.5248
  0
ARC
  5
3D8
330
1F
100
AcDbEntity
  8
0
  6
Continuous
 62
     7
 48
12.0
370
    25
100
AcDbCircle
 10
63.45193
 20
123.92164
 30
0.0
 40
0.4557600000000058
100
AcDbArc
 50
297.2514
 51
316.6174
  0
ARC
  5
3D9
330
1F
100
AcDbEntity
  8
0
  6
Continuous
 62
     7
 48
12.0
370
    25
100
AcDbCircle
 10
63.50053
 20
123.8266
 30
0.0
 40
0.3499200000000006
100
AcDbArc
 50
272.9688
 51
297.2524
  0
ARC
  5
3DA
330
1F
100
AcDbEntity
  8
0
  6
Continuous
 62
     7
 48
12.0
370
    25
100
AcDbCircle
 10
63.50701000000002
 20
123.71752
 30
0.0
 40
0.23976
100
AcDbArc
 50
243.5175
 51
272.961
  0
ARC
  5
3DB
330
1F
100
AcDbEntity
  8
0
  6
Continuous
 62
     7
 48
12.0
370
    25
100
AcDbCircle
 10
62.78017
 20
120.81664
 30
0.0
 40
0.2397600000000064
100
AcDbArc
 50
214.0807
 51
243.5241
  0
ARC
  5
3DC
330
1F
100
AcDbEntity
  8
0
  6
Continuous
 62
     7
 48
12.0
370
    25
100
AcDbCircle
 10
62.87197000000001
 20
120.8782
 30
0.0
 40
0.3499199999999993
100
AcDbArc
 50
189.7943
 51
214.077
  0
ARC
  5
3DD
330
1F
100
AcDbEntity
  8
0
  6
Continuous
 62
     7
 48
12.0
370
    25
100
AcDbCircle
 10
62.97565
 20
120.89548
 30
0.0
 40
0.4557599999999998
100
AcDbArc
 50
170.3225
 51
189.6904
  0
ARC
  5
3DE
330
1F
100
AcDbEntity
  8
0
  6
Continuous
 62
     7
 48
12.0
370
    25
100
AcDbCircle
 10
63.11497000000001
 20
120.8728
 30
0.0
 40
0.5961599999999919
100
AcDbArc
 50
153.5288
 51
170.4337
  0
ARC
  5
3DF
330
1F
100
AcDbEntity
  8
0
  6
Continuous
 62
     7
 48
12.0
370
    25
100
AcDbCircle
 10
63.11497000000001
 20
120.8728
 30
0.0
 40
0.5961600000000027
100
AcDbArc
 50
136.6184
 51
153.527
  0
ARC
  5
3E0
330
1F
100
AcDbEntity
  8
0
  6
Continuous
 62
     7
 48
12.0
370
    25
100
AcDbCircle
 10
63.01237000000002
 20
120.96892
 30
0.0
 40
0.4557599999999931
100
AcDbArc
 50
117.2554
 51
136.6201
  0
ARC
  5
3E1
330
1F
100
AcDbEntity
  8
0
  6
Continuous
 62
     7
 48
12.0
370
    25
100
AcDbCircle
 10
62.96377000000002
 20
121.06396
 30
0.0
 40
0.3499200000000006
100
AcDbArc
 50
92.9688
 51
117.2539
  0
ARC
  5
3E2
330
1F
100
AcDbEntity
  8
0
  6
Continuous
 62
     7
 48
12.0
370
    25
100
AcDbCircle
 10
62.95837
 20
121.17304
 30
0.0
 40
0.2397600000000043
100
AcDbArc
 50
63.5219
 51
92.9663
  0
ARC
  5
3E3
330
1F
100
AcDbEntity
  8
0
  6
Continuous
 62
     7
 48
12.0
370
    25
100
AcDbCircle
 10
62.95837
 20
121.17304
 30
0.0
 40
0.2397600000000006
100
AcDbArc
 50
34.0896
 51
63.52630000000001
  0
ARC
  5
3E4
330
1F
100
AcDbEntity
  8
0
  6
Continuous
 62
     7
 48
12.0
370
    25
100
AcDbCircle
 10
62.86657000000001
 20
121.11148
 30
0.0
 40
0.3499200000000001
100
AcDbArc
 50
9.7935
 51
34.0798
  0
ARC
  5
3E5
330
1F
100
AcDbEntity
  8
0
  6
Continuous
 62
     7
 48
12.0
370
    25
100
AcDbCircle
 10
62.76289
 20
121.0942
 30
0.0
 40
0.4557600000000039
100
AcDbArc
 50
350.3215
 51
9.686400000000049
  0
ARC
  5
3E6
330
1F
100
AcDbEntity
  8
0
  6
Continuous
 62
     7
 48
12.0
370
    25
100
AcDbCircle
 10
62.62357
 20
121.11688
 30
0.0
 40
0.5961600000000062
100
AcDbArc
 50
333.523
 51
350.4294
  0
ARC
  5
3E7
330
1F
100
AcDbEntity
  8
0
  6
Continuous
 62
     7
 48
12.0
370
    25
100
AcDbCircle
 10
62.62357
 20
121.11688
 30
0.0
 40
0.5961599999999977
100
AcDbArc
 50
316.6163
 51
333.523
  0
ARC
  5
3E8
330
1F
100
AcDbEntity
  8
0
  6
Continuous
 62
     7
 48
12.0
370
    25
100
AcDbCircle
 10
62.72617000000001
 20
121.02076
 30
0.0
 40
0.4557600000000014
100
AcDbArc
 50
297.2525
 51
316.6164
  0
ARC
  5
3E9
330
1F
100
AcDbEntity
  8
0
  6
Continuous
 62
     7
 48
12.0
370
    25
100
AcDbCircle
 10
62.77477000000001
 20
120.9268
 30
0.0
 40
0.3499199999999968
100
AcDbArc
 50
272.9656000000001
 51
297.2525
  0
ARC
  5
3EA
330
1F
100
AcDbEntity
  8
0
  6
Continuous
 62
     7
 48
12.0
370
    25
100
AcDbCircle
 10
62.78017
 20
120.81664
 30
0.0
 40
0.2397600000000011
100
AcDbArc
 50
243.5285
 51
272.9732000000001
  0
ARC
  5
3EB
330
1F
100
AcDbEntity
  8
0
  6
Continuous
 62
     7
 48
12.0
370
    25
100
AcDbCircle
 10
60.44737000000001
 20
119.485
 30
0.0
 40
0.2397600000000023
100
AcDbArc
 50
214.0875
 51
243.5263
  0
ARC
  5
3EC
330
1F
100
AcDbEntity
  8
0
  6
Continuous
 62
     7
 48
12.0
370
    25
100
AcDbCircle
 10
60.53916999999999
 20
119.54656
 30
0.0
 40
0.3499199999999985
100
AcDbArc
 50
189.7904
 51
214.0822
  0
ARC
  5
3ED
330
1F
100
AcDbEntity
  8
0
  6
Continuous
 62
     7
 48
12.0
370
    25
100
AcDbCircle
 10
60.64285000000001
 20
119.56384
 30
0.0
 40
0.4557599999999976
100
AcDbArc
 50
170.32
 51
189.6838
  0
ARC
  5
3EE
330
1F
100
AcDbEntity
  8
0
  6
Continuous
 62
     7
 48
12.0
370
    25
100
AcDbCircle
 10
60.78217
 20
119.54116
 30
0.0
 40
0.5961600000000052
100
AcDbArc
 50
153.5239
 51
170.4294
  0
ARC
  5
3EF
330
1F
100
AcDbEntity
  8
0
  6
Continuous
 62
     7
 48
12.0
370
    25
100
AcDbCircle
 10
60.78217
 20
119.54116
 30
0.0
 40
0.5961599999999989
100
AcDbArc
 50
136.617
 51
153.523
  0
ARC
  5
3F0
330
1F
100
AcDbEntity
  8
0
  6
Continuous
 62
     7
 48
12.0
370
    25
100
AcDbCircle
 10
60.67957
 20
119.63836
 30
0.0
 40
0.4557599999999954
100
AcDbArc
 50
117.2531
 51
136.6191
  0
ARC
  5
3F1
330
1F
100
AcDbEntity
  8
0
  6
Continuous
 62
     7
 48
12.0
370
    25
100
AcDbCircle
 10
60.63097
 20
119.73232
 30
0.0
 40
0.3499200000000005
100
AcDbArc
 50
92.9708
 51
117.2547
  0
ARC
  5
3F2
330
1F
100
AcDbEntity
  8
0
  6
Continuous
 62
     7
 48
12.0
370
    25
100
AcDbCircle
 10
60.62557000000001
 20
119.84248
 30
0.0
 40
0.2397600000000003
100
AcDbArc
 50
63.52630000000001
 51
92.97060000000002
  0
ARC
  5
3F3
330
1F
100
AcDbEntity
  8
0
  6
Continuous
 62
     7
 48
12.0
370
    25
100
AcDbCircle
 10
60.62557000000001
 20
119.84248
 30
0.0
 40
0.2397600000000006
100
AcDbArc
 50
34.0773
 51
63.52419999999999
  0
ARC
  5
3F4
330
1F
100
AcDbEntity
  8
0
  6
Continuous
 62
     7
 48
12.0
370
    25
100
AcDbCircle
 10
60.53377
 20
119.77984
 30
0.0
 40
0.3499199999999985
100
AcDbArc
 50
9.7938
 51
34.077
  0
ARC
  5
3F5
330
1F
100
AcDbEntity
  8
0
  6
Continuous
 62
     7
 48
12.0
370
    25
100
AcDbCircle
 10
60.43009000000001
 20
119.76364
 30
0.0
 40
0.4557599999999956
100
AcDbArc
 50
350.3208000000001
 51
9.687000000000012
  0
ARC
  5
3F6
330
1F
100
AcDbEntity
  8
0
  6
Continuous
 62
     7
 48
12.0
370
    25
100
AcDbCircle
 10
60.29076999999999
 20
119.78524
 30
0.0
 40
0.5961599999999996
100
AcDbArc
 50
333.5217
 51
350.4298
  0
ARC
  5
3F7
330
1F
100
AcDbEntity
  8
0
  6
Continuous
 62
     7
 48
12.0
370
    25
100
AcDbCircle
 10
60.29076999999999
 20
119.78524
 30
0.0
 40
0.5961599999999929
100
AcDbArc
 50
316.6189
 51
333.5243
  0
ARC
  5
3F8
330
1F
100
AcDbEntity
  8
0
  6
Continuous
 62
     7
 48
12.0
370
    25
100
AcDbCircle
 10
60.39337000000001
 20
119.68912
 30
0.0
 40
0.4557599999999926
100
AcDbArc
 50
297.2496
 51
316.6137
  0
ARC
  5
3F9
330
1F
100
AcDbEntity
  8
0
  6
Continuous
 62
     7
 48
12.0
370
    25
100
AcDbCircle
 10
60.44196999999999
 20
119.59516
 30
0.0
 40
0.3499199999999975
100
AcDbArc
 50
272.9704
 51
297.2546
  0
ARC
  5
3FA
330
1F
100
AcDbEntity
  8
0
  6
Continuous
 62
     7
 48
12.0
370
    25
100
AcDbCircle
 10
60.44737000000001
 20
119.485
 30
0.0
 40
0.2397599999999953
100
AcDbArc
 50
243.5286
 51
272.9712
  0
ARC
  5
3FB
330
1F
100
AcDbEntity
  8
0
  6
Continuous
 62
     7
 48
12.0
370
    25
100
AcDbCircle
 10
65.36245
 20
123.67324
 30
0.0
 40
2.025000000000007
100
AcDbArc
 50
32.0939
 51
70.0716
  0
LINE
  5
3FC
330
1F
100
AcDbEntity
  8
0
  6
Continuous
 62
     7
 48
12.0
370
    25
100
AcDbLine
 10
66.86689
 20
121.6018
 30
0.0
 11
67.58401
 21
123.09544
 31
0.0
  0
LWPOLYLINE
  5
3FD
330
1F
100
AcDbEntity
  8
0
  6
Continuous
 62
     7
 48
12.0
370
    25
100
AcDbPolyline
 90
        3
 70
     0
 43
0.0
 10
67.07749000000001
 20
124.74892
 10
68.17909
 20
123.26824
 10
67.77085
 20
123.48208
  0
LINE
  5
3FE
330
1F
100
AcDbEntity
  8
0
  6
Continuous
 62
     7
 48
12.0
370
    25
100
AcDbLine
 10
67.43605
 20
123.63976
 30
0.0
 11
67.77085
 21
123.48208
 31
0.0
  0
LINE
  5
3FF
330
1F
100
AcDbEntity
  8
0
  6
Continuous
 62
     7
 48
12.0
370
    25
100
AcDbLine
 10
66.53209000000001
 20
121.75948
 30
0.0
 11
66.86689
 21
121.6018
 31
0.0
  0
ARC
  5
400
330
1F
100
AcDbEntity
  8
0
  6
Continuous
 62
     7
 48
12.0
370
    25
100
AcDbCircle
 10
65.61625000000001
 20
121.47976
 30
0.0
 40
1.002239999999991
100
AcDbArc
 50
75.4597
 51
131.7035
  0
ARC
  5
401
330
1F
100
AcDbEntity
  8
0
  6
Continuous
 62
     7
 48
12.0
370
    25
100
AcDbCircle
 10
65.74909000000001
 20
121.32964
 30
0.0
 40
1.202039999999997
100
AcDbArc
 50
131.7038
 51
173.5539
  0
ARC
  5
402
330
1F
100
AcDbEntity
  8
0
  6
Continuous
 62
     7
 48
12.0
370
    25
100
AcDbCircle
 10
59.72701000000001
 20
122.01004
 30
0.0
 40
4.858919999999996
100
AcDbArc
 50
340.9893
 51
353.5538
  0
ARC
  5
403
330
1F
100
AcDbEntity
  8
0
  6
Continuous
 62
     7
 48
12.0
370
    25
100
AcDbCircle
 10
62.23801000000002
 20
121.14496
 30
0.0
 40
2.202120000000002
100
AcDbArc
 50
286.6973
 51
340.9896
  0
ARC
  5
404
330
1F
100
AcDbEntity
  8
0
  6
Continuous
 62
     7
 48
12.0
370
    25
100
AcDbCircle
 10
63.45517
 20
117.08956
 30
0.0
 40
2.032559999999997
100
AcDbArc
 50
106.6975
 51
139.459
  0
ARC
  5
405
330
1F
100
AcDbEntity
  8
0
  6
Continuous
 62
     7
 48
12.0
370
    25
100
AcDbCircle
 10
234.55093
 20
-29.24936000000002
 30
0.0
 40
227.17476
100
AcDbArc
 50
139.4595
 51
139.5505
  0
ARC
  5
406
330
1F
100
AcDbEntity
  8
0
  6
Continuous
 62
     7
 48
12.0
370
    25
100
AcDbCircle
 10
60.91501
 20
118.78516
 30
0.0
 40
1.001160000000008
100
AcDbArc
 50
237.7822
 51
319.5501
  0
ARC
  5
407
330
1F
100
AcDbEntity
  8
0
  6
Continuous
 62
     7
 48
12.0
370
    25
100
AcDbCircle
 10
63.90121000000002
 20
123.52312
 30
0.0
 40
6.600960000000005
100
AcDbArc
 50
237.1889
 51
237.7777
  0
ARC
  5
408
330
1F
100
AcDbEntity
  8
0
  6
Continuous
 62
     7
 48
12.0
370
    25
100
AcDbCircle
 10
59.34145000000001
 20
121.15144
 30
0.0
 40
0.5529600000000064
100
AcDbArc
 50
247.1075
 51
332.4983
  0
ARC
  5
409
330
1F
100
AcDbEntity
  8
0
  6
Continuous
 62
     7
 48
12.0
370
    25
100
AcDbCircle
 10
59.56824999999999
 20
121.69036
 30
0.0
 40
1.138319999999994
100
AcDbArc
 50
187.3274
 51
247.107
  0
ARC
  5
40A
330
1F
100
AcDbEntity
  8
0
  6
Continuous
 62
     7
 48
12.0
370
    25
100
AcDbCircle
 10
62.22937000000002
 20
122.03272
 30
0.0
 40
3.819960000000003
100
AcDbArc
 50
165.1122
 51
187.3269
  0
ARC
  5
40B
330
1F
100
AcDbEntity
  8
0
  6
Continuous
 62
     7
 48
12.0
370
    25
100
AcDbCircle
 10
64.21549000000002
 20
121.5046
 30
0.0
 40
5.875199999999998
100
AcDbArc
 50
139.6865
 51
165.112
  0
ARC
  5
40C
330
1F
100
AcDbEntity
  8
0
  6
Continuous
 62
     7
 48
12.0
370
    25
100
AcDbCircle
 10
62.01985000000001
 20
123.36652
 30
0.0
 40
2.996999999999995
100
AcDbArc
 50
101.5856
 51
139.6865
  0
ARC
  5
40D
330
1F
100
AcDbEntity
  8
0
  6
Continuous
 62
     7
 48
12.0
370
    25
100
AcDbCircle
 10
61.57597
 20
125.533
 30
0.0
 40
0.7862399999999917
100
AcDbArc
 50
51.61140000000001
 51
101.5853
  0
ARC
  5
40E
330
1F
100
AcDbEntity
  8
0
  6
Continuous
 62
     7
 48
12.0
370
    25
100
AcDbCircle
 10
61.35781000000001
 20
125.25652
 30
0.0
 40
1.138319999999994
100
AcDbArc
 50
336.2036
 51
51.61179999999996
  0
ARC
  5
40F
330
1F
100
AcDbEntity
  8
0
  6
Continuous
 62
     7
 48
12.0
370
    25
100
AcDbCircle
 10
59.33389
 20
126.1486
 30
0.0
 40
3.349080000000002
100
AcDbArc
 50
307.2452
 51
336.2028
  0
ARC
  5
410
330
1F
100
AcDbEntity
  8
0
  6
Continuous
 62
     7
 48
12.0
370
    25
100
AcDbCircle
 10
62.80825000000001
 20
121.5802
 30
0.0
 40
2.390040000000005
100
AcDbArc
 50
127.2457
 51
161.7557
  0
ARC
  5
411
330
1F
100
AcDbEntity
  8
0
  6
Continuous
 62
     7
 48
12.0
370
    25
100
AcDbCircle
 10
55.54417
 20
123.97456
 30
0.0
 40
5.25744
100
AcDbArc
 50
329.3148
 51
341.7559
  0
LINE
  5
412
330
1F
100
AcDbEntity
  8
0
  6
Continuous
 62
     7
 48
12.0
370
    25
100
AcDbLine
 10
59.83177
 20
120.89656
 30
0.0
 11
60.06613
 21
121.29076
 31
0.0
  0
ARC
  5
413
330
1F
100
AcDbEntity
  8
0
  6
Continuous
 62
     7
 48
12.0
370
    25
100
AcDbCircle
 10
73.10389000000002
 20
128.3248
 30
0.0
 40
9.289080000000004
100
AcDbArc
 50
220.5284
 51
224.9697
  0
ARC
  5
414
330
1F
100
AcDbEntity
  8
0
  6
Continuous
 62
     7
 48
12.0
370
    25
100
AcDbCircle
 10
65.28145
 20
121.63636
 30
0.0
 40
1.00224000000001
100
AcDbArc
 50
40.5288
 51
131.7027
  0
ARC
  5
415
330
1F
100
AcDbEntity
  8
0
  6
Continuous
 62
     7
 48
12.0
370
    25
100
AcDbCircle
 10
65.41429
 20
121.48732
 30
0.0
 40
1.202039999999994
100
AcDbArc
 50
131.7032
 51
173.5529
  0
ARC
  5
416
330
1F
100
AcDbEntity
  8
0
  6
Continuous
 62
     7
 48
12.0
370
    25
100
AcDbCircle
 10
59.39221000000001
 20
122.16772
 30
0.0
 40
4.858920000000002
100
AcDbArc
 50
340.9891
 51
353.5536
  0
ARC
  5
417
330
1F
100
AcDbEntity
  8
0
  6
Continuous
 62
     7
 48
12.0
370
    25
100
AcDbCircle
 10
61.90321
 20
121.30264
 30
0.0
 40
2.202120000000004
100
AcDbArc
 50
286.6980000000001
 51
340.99
  0
ARC
  5
418
330
1F
100
AcDbEntity
  8
0
  6
Continuous
 62
     7
 48
12.0
370
    25
100
AcDbCircle
 10
63.12037000000001
 20
117.24616
 30
0.0
 40
2.032559999999999
100
AcDbArc
 50
106.697
 51
139.4587
  0
ARC
  5
419
330
1F
100
AcDbEntity
  8
0
  6
Continuous
 62
     7
 48
12.0
370
    25
100
AcDbCircle
 10
234.21613
 20
-29.09276000000002
 30
0.0
 40
227.17476
100
AcDbArc
 50
139.4595
 51
139.5505
  0
ARC
  5
41A
330
1F
100
AcDbEntity
  8
0
  6
Continuous
 62
     7
 48
12.0
370
    25
100
AcDbCircle
 10
60.58021
 20
118.94284
 30
0.0
 40
1.00116
100
AcDbArc
 50
237.7811
 51
319.551
  0
ARC
  5
41B
330
1F
100
AcDbEntity
  8
0
  6
Continuous
 62
     7
 48
12.0
370
    25
100
AcDbCircle
 10
63.56533000000001
 20
123.67972
 30
0.0
 40
6.59988
100
AcDbArc
 50
225.1655
 51
237.7805
  0
ARC
  5
41C
330
1F
100
AcDbEntity
  8
0
  6
Continuous
 62
     7
 48
12.0
370
    25
100
AcDbCircle
 10
56.37253
 20
116.44588
 30
0.0
 40
3.60071999999999
100
AcDbArc
 50
45.1659
 51
75.982
  0
ARC
  5
41D
330
1F
100
AcDbEntity
  8
0
  6
Continuous
 62
     7
 48
12.0
370
    25
100
AcDbCircle
 10
58.02493000000001
 20
123.0652
 30
0.0
 40
3.221640000000003
100
AcDbArc
 50
224.1939
 51
255.982
  0
ARC
  5
41E
330
1F
100
AcDbEntity
  8
0
  6
Continuous
 62
     7
 48
12.0
370
    25
100
AcDbCircle
 10
56.04205
 20
121.13632
 30
0.0
 40
0.4546800000000014
100
AcDbArc
 50
125.7651
 51
224.1923
  0
ARC
  5
41F
330
1F
100
AcDbEntity
  8
0
  6
Continuous
 62
     7
 48
12.0
370
    25
100
AcDbCircle
 10
56.97517000000001
 20
119.84032
 30
0.0
 40
2.051999999999992
100
AcDbArc
 50
109.0759
 51
125.767
  0
ARC
  5
420
330
1F
100
AcDbEntity
  8
0
  6
Continuous
 62
     7
 48
12.0
370
    25
100
AcDbCircle
 10
56.03557
 20
122.55868
 30
0.0
 40
0.8240399999999946
100
AcDbArc
 50
289.0745
 51
7.014099999999985
  0
ARC
  5
421
330
1F
100
AcDbEntity
  8
0
  6
Continuous
 62
     7
 48
12.0
370
    25
100
AcDbCircle
 10
61.94857
 20
123.2866
 30
0.0
 40
5.134319999999996
100
AcDbArc
 50
129.8771
 51
187.0143
  0
ARC
  5
422
330
1F
100
AcDbEntity
  8
0
  6
Continuous
 62
     7
 48
12.0
370
    25
100
AcDbCircle
 10
58.19989
 20
127.774
 30
0.0
 40
0.7138799999999915
100
AcDbArc
 50
309.8777
 51
14.19869999999997
  0
ARC
  5
423
330
1F
100
AcDbEntity
  8
0
  6
Continuous
 62
     7
 48
12.0
370
    25
100
AcDbCircle
 10
56.28613
 20
127.29016
 30
0.0
 40
2.687040000000004
100
AcDbArc
 50
14.2
 51
31.5285
  0
ARC
  5
424
330
1F
100
AcDbEntity
  8
0
  6
Continuous
 62
     7
 48
12.0
370
    25
100
AcDbCircle
 10
58.90837
 20
128.89828
 30
0.0
 40
0.3887999999999852
100
AcDbArc
 50
110.1808
 51
211.5268
  0
ARC
  5
425
330
1F
100
AcDbEntity
  8
0
  6
Continuous
 62
     7
 48
12.0
370
    25
100
AcDbCircle
 10
59.44837
 20
127.43056
 30
0.0
 40
1.953719999999997
100
AcDbArc
 50
93.0789
 51
110.1818
  0
ARC
  5
426
330
1F
100
AcDbEntity
  8
0
  6
Continuous
 62
     7
 48
12.0
370
    25
100
AcDbCircle
 10
59.41273
 20
128.09152
 30
0.0
 40
1.291680000000011
100
AcDbArc
 50
44.0629
 51
93.07860000000001
  0
LINE
  5
427
330
1F
100
AcDbEntity
  8
0
  6
Continuous
 62
     7
 48
12.0
370
    25
100
AcDbLine
 10
61.53600999999999
 20
127.75456
 30
0.0
 11
60.34045
 21
128.989
 31
0.0
  0
ARC
  5
428
330
1F
100
AcDbEntity
  8
0
  6
Continuous
 62
     7
 48
12.0
370
    25
100
AcDbCircle
 10
62.70781000000001
 20
128.97712
 30
0.0
 40
1.693439999999994
100
AcDbArc
 50
226.1981
 51
254.7275
  0
ARC
  5
429
330
1F
100
AcDbEntity
  8
0
  6
Continuous
 62
     7
 48
12.0
370
    25
100
AcDbCircle
 10
61.40209
 20
124.1938
 30
0.0
 40
3.264840000000009
100
AcDbArc
 50
43.4737
 51
74.7273
  0
ARC
  5
42A
330
1F
100
AcDbEntity
  8
0
  6
Continuous
 62
     7
 48
12.0
370
    25
100
AcDbCircle
 10
65.13457
 20
127.73296
 30
0.0
 40
1.879199999999993
100
AcDbArc
 50
223.4737
 51
268.4254
  0
ARC
  5
42B
330
1F
100
AcDbEntity
  8
0
  6
Continuous
 62
     7
 48
12.0
370
    25
100
AcDbCircle
 10
65.02765
 20
123.82984
 30
0.0
 40
2.025000000000003
100
AcDbArc
 50
28.5254
 51
88.425
  0
LWPOLYLINE
  5
42C
330
1F
100
AcDbEntity
  8
0
  6
Continuous
 62
     7
 48
12.0
370
    25
100
AcDbPolyline
 90
        3
 70
     0
 43
0.0
 10
66.53209000000001
 20
121.75948
 10
67.43605
 20
123.63976
 10
66.80641000000001
 20
124.79752
  0
LINE
  5
42D
330
1F
100
AcDbEntity
  8
0
  6
Continuous
 62
     7
 48
12.0
370
    25
100
AcDbLine
 10
59.65789000000001
 20
117.08848
 30
0.0
 11
60.05317000000001
 21
118.0918
 31
0.0
  0
LWPOLYLINE
  5
42E
330
1F
100
AcDbEntity
  8
0
  6
Continuous
 62
     7
 48
12.0
370
    25
100
AcDbPolyline
 90
        3
 70
     0
 43
0.0
 10
67.76977000000002
 20
123.481
 10
92.31925000000001
 20
98.74900000000001
 10
90.13656999999999
 20
96.90652
  0
LWPOLYLINE
  5
42F
330
1F
100
AcDbEntity
  8
0
  6
Continuous
 62
     7
 48
12.0
370
    25
100
AcDbPolyline
 90
        3
 70
     0
 43
0.0
 10
90.13656999999999
 20
96.90652
 10
92.03089000000001
 20
98.56432
 10
67.58401
 20
123.09544
  0
LINE
  5
430
330
1F
100
AcDbEntity
  8
0
  6
DASHED
 62
     7
 48
12.0
370
    25
100
AcDbLine
 10
79.27933000000002
 20
105.35104
 30
0.0
 11
84.07669000000001
 21
102.58192
 31
0.0
  0
LINE
  5
431
330
1F
100
AcDbEntity
  8
0
  6
DASHED
 62
     7
 48
12.0
370
    25
100
AcDbLine
 10
79.27933000000002
 20
105.35104
 30
0.0
 11
79.27933000000002
 21
107.58016
 31
0.0
  0
LINE
  5
432
330
1F
100
AcDbEntity
  8
0
  6
Continuous
 62
     7
 48
12.0
370
    25
100
AcDbLine
 10
75.42157
 20
103.12408
 30
0.0
 11
78.13561000000001
 21
104.69008
 31
0.0
  0
LINE
  5
433
330
1F
100
AcDbEntity
  8
0
  6
DASHED
 62
     7
 48
12.0
370
    25
100
AcDbLine
 10
79.27933000000002
 20
107.58016
 30
0.0
 11
81.99661
 21
109.14832
 31
0.0
  0
LINE
  5
434
330
1F
100
AcDbEntity
  8
0
  6
DASHED
 62
     7
 48
12.0
370
    25
100
AcDbLine
 10
79.27933000000002
 20
107.58016
 30
0.0
 11
84.07669000000001
 21
104.80996
 31
0.0
  0
LINE
  5
435
330
1F
100
AcDbEntity
  8
0
  6
DASHED
 62
     7
 48
12.0
370
    25
100
AcDbLine
 10
84.07669000000001
 20
102.58192
 30
0.0
 11
84.07669000000001
 21
104.80996
 31
0.0
  0
LWPOLYLINE
  5
436
330
1F
100
AcDbEntity
  8
0
  6
Continuous
 62
     7
 48
12.0
370
    25
100
AcDbPolyline
 90
        4
 70
     0
 43
0.0
 10
73.49161000000001
 20
104.23864
 10
78.28896999999999
 20
101.46844
 10
78.28896999999999
 20
99.24039999999998
 10
82.56253000000001
 20
101.70712
  0
ARC
  5
437
330
1F
100
AcDbEntity
  8
0
  6
Continuous
 62
     7
 48
12.0
370
    25
100
AcDbCircle
 10
94.79352999999999
 20
76.3498
 30
0.0
 40
1.685880000000004
100
AcDbArc
 50
0.3841
 51
8.8646
  0
ARC
  5
438
330
1F
100
AcDbEntity
  8
0
  6
Continuous
 62
     7
 48
12.0
370
    25
100
AcDbCircle
 10
93.98568999999999
 20
76.3444
 30
0.0
 40
2.493720000000004
100
AcDbArc
 50
342.9015
 51
0.3853000000000293
  0
ARC
  5
439
330
1F
100
AcDbEntity
  8
0
  6
Continuous
 62
     7
 48
12.0
370
    25
100
AcDbCircle
 10
92.91541000000001
 20
76.6738
 30
0.0
 40
3.613680000000006
100
AcDbArc
 50
328.3955
 51
342.9011
  0
ARC
  5
43A
330
1F
100
AcDbEntity
  8
0
  6
Continuous
 62
     7
 48
12.0
370
    25
100
AcDbCircle
 10
92.91541000000001
 20
76.6738
 30
0.0
 40
3.613679999999996
100
AcDbArc
 50
313.8903
 51
328.3958
  0
ARC
  5
43B
330
1F
100
AcDbEntity
  8
0
  6
Continuous
 62
     7
 48
12.0
370
    25
100
AcDbCircle
 10
93.69193000000001
 20
75.86704
 30
0.0
 40
2.493719999999994
100
AcDbArc
 50
296.4054
 51
313.8893
  0
ARC
  5
43C
330
1F
100
AcDbEntity
  8
0
  6
Continuous
 62
     7
 48
12.0
370
    25
100
AcDbCircle
 10
94.05049
 20
75.14344
 30
0.0
 40
1.686959999999994
100
AcDbArc
 50
290.074
 51
296.4042
  0
ARC
  5
43D
330
1F
100
AcDbEntity
  8
0
  6
Continuous
 62
     7
 48
12.0
370
    25
100
AcDbCircle
 10
93.59365000000001
 20
76.57119999999999
 30
0.0
 40
2.493720000000001
100
AcDbArc
 50
342.8999
 51
356.5838000000001
  0
ARC
  5
43E
330
1F
100
AcDbEntity
  8
0
  6
Continuous
 62
     7
 48
12.0
370
    25
100
AcDbCircle
 10
92.52337000000001
 20
76.9006
 30
0.0
 40
3.613680000000006
100
AcDbArc
 50
328.3955
 51
342.9011
  0
ARC
  5
43F
330
1F
100
AcDbEntity
  8
0
  6
Continuous
 62
     7
 48
12.0
370
    25
100
AcDbCircle
 10
92.52337000000001
 20
76.9006
 30
0.0
 40
3.613679999999996
100
AcDbArc
 50
313.8901
 51
328.3955
  0
ARC
  5
440
330
1F
100
AcDbEntity
  8
0
  6
Continuous
 62
     7
 48
12.0
370
    25
100
AcDbCircle
 10
93.29989
 20
76.09275999999998
 30
0.0
 40
2.493719999999999
100
AcDbArc
 50
301.7994000000001
 51
313.8899
  0
ARC
  5
441
330
1F
100
AcDbEntity
  8
0
  6
Continuous
 62
     7
 48
12.0
370
    25
100
AcDbCircle
 10
96.65221
 20
76.01176
 30
0.0
 40
0.9082800000000032
100
AcDbArc
 50
24.8431
 51
46.7743
  0
ARC
  5
442
330
1F
100
AcDbEntity
  8
0
  6
Continuous
 62
     7
 48
12.0
370
    25
100
AcDbCircle
 10
95.94588999999999
 20
75.68451999999999
 30
0.0
 40
1.686959999999995
100
AcDbArc
 50
0.3849000000000001
 51
24.8451
  0
ARC
  5
443
330
1F
100
AcDbEntity
  8
0
  6
Continuous
 62
     7
 48
12.0
370
    25
100
AcDbCircle
 10
95.13913
 20
75.67911999999998
 30
0.0
 40
2.49372
100
AcDbArc
 50
342.9014
 51
0.3848000000000411
  0
ARC
  5
444
330
1F
100
AcDbEntity
  8
0
  6
Continuous
 62
     7
 48
12.0
370
    25
100
AcDbCircle
 10
94.06777
 20
76.00852
 30
0.0
 40
3.613679999999988
100
AcDbArc
 50
328.3954000000001
 51
342.9011
  0
ARC
  5
445
330
1F
100
AcDbEntity
  8
0
  6
Continuous
 62
     7
 48
12.0
370
    25
100
AcDbCircle
 10
94.06777
 20
76.00852
 30
0.0
 40
3.613679999999996
100
AcDbArc
 50
313.8889
 51
328.3944
  0
ARC
  5
446
330
1F
100
AcDbEntity
  8
0
  6
Continuous
 62
     7
 48
12.0
370
    25
100
AcDbCircle
 10
94.84429000000003
 20
75.20067999999999
 30
0.0
 40
2.49371999999999
100
AcDbArc
 50
296.4067
 51
313.8902
  0
ARC
  5
447
330
1F
100
AcDbEntity
  8
0
  6
Continuous
 62
     7
 48
12.0
370
    25
100
AcDbCircle
 10
95.20393
 20
74.47816
 30
0.0
 40
1.686959999999999
100
AcDbArc
 50
271.9470000000001
 51
296.4068
  0
ARC
  5
448
330
1F
100
AcDbEntity
  8
0
  6
Continuous
 62
     7
 48
12.0
370
    25
100
AcDbCircle
 10
95.22985000000001
 20
73.70056
 30
0.0
 40
0.9082799999999958
100
AcDbArc
 50
253.225
 51
271.9464
  0
ARC
  5
449
330
1F
100
AcDbEntity
  8
0
  6
Continuous
 62
     7
 48
12.0
370
    25
100
AcDbCircle
 10
96.28717
 20
76.22128000000001
 30
0.0
 40
0.908279999999999
100
AcDbArc
 50
24.8461
 51
32.5864
  0
ARC
  5
44A
330
1F
100
AcDbEntity
  8
0
  6
Continuous
 62
     7
 48
12.0
370
    25
100
AcDbCircle
 10
95.58193
 20
75.89511999999999
 30
0.0
 40
1.686960000000002
100
AcDbArc
 50
0.3847
 51
24.8447
  0
ARC
  5
44B
330
1F
100
AcDbEntity
  8
0
  6
Continuous
 62
     7
 48
12.0
370
    25
100
AcDbCircle
 10
94.77409
 20
75.88972
 30
0.0
 40
2.493720000000001
100
AcDbArc
 50
342.9003
 51
0.3840999999999894
  0
ARC
  5
44C
330
1F
100
AcDbEntity
  8
0
  6
Continuous
 62
     7
 48
12.0
370
    25
100
AcDbCircle
 10
93.70381
 20
76.21911999999999
 30
0.0
 40
3.613679999999992
100
AcDbArc
 50
328.3956
 51
342.9009
  0
ARC
  5
44D
330
1F
100
AcDbEntity
  8
0
  6
Continuous
 62
     7
 48
12.0
370
    25
100
AcDbCircle
 10
93.70381
 20
76.21911999999999
 30
0.0
 40
3.61368
100
AcDbArc
 50
313.8904
 51
328.3959
  0
ARC
  5
44E
330
1F
100
AcDbEntity
  8
0
  6
Continuous
 62
     7
 48
12.0
370
    25
100
AcDbCircle
 10
94.48033
 20
75.41128
 30
0.0
 40
2.493720000000004
100
AcDbArc
 50
296.4056
 51
313.8894
  0
ARC
  5
44F
330
1F
100
AcDbEntity
  8
0
  6
Continuous
 62
     7
 48
12.0
370
    25
100
AcDbCircle
 10
94.83889
 20
74.68875999999999
 30
0.0
 40
1.686960000000007
100
AcDbArc
 50
271.9473
 51
296.4069
  0
ARC
  5
450
330
1F
100
AcDbEntity
  8
0
  6
Continuous
 62
     7
 48
12.0
370
    25
100
AcDbCircle
 10
94.86589000000001
 20
73.91116
 30
0.0
 40
0.9082799999999889
100
AcDbArc
 50
267.4152
 51
271.9470000000001
  0
ARC
  5
451
330
1F
100
AcDbEntity
  8
0
  6
Continuous
 62
     7
 48
12.0
370
    25
100
AcDbCircle
 10
95.22120999999999
 20
76.10248
 30
0.0
 40
1.686959999999993
100
AcDbArc
 50
0.3835000000000001
 51
20.5783
  0
ARC
  5
452
330
1F
100
AcDbEntity
  8
0
  6
Continuous
 62
     7
 48
12.0
370
    25
100
AcDbCircle
 10
94.41444999999999
 20
76.09707999999999
 30
0.0
 40
2.493719999999999
100
AcDbArc
 50
342.901
 51
0.3844000000000278
  0
ARC
  5
453
330
1F
100
AcDbEntity
  8
0
  6
Continuous
 62
     7
 48
12.0
370
    25
100
AcDbCircle
 10
93.34309
 20
76.42648
 30
0.0
 40
3.613679999999994
100
AcDbArc
 50
328.3953
 51
342.901
  0
ARC
  5
454
330
1F
100
AcDbEntity
  8
0
  6
Continuous
 62
     7
 48
12.0
370
    25
100
AcDbCircle
 10
93.34309
 20
76.42648
 30
0.0
 40
3.613680000000006
100
AcDbArc
 50
313.8903
 51
328.3957
  0
ARC
  5
455
330
1F
100
AcDbEntity
  8
0
  6
Continuous
 62
     7
 48
12.0
370
    25
100
AcDbCircle
 10
94.12069000000002
 20
75.61971999999999
 30
0.0
 40
2.493719999999994
100
AcDbArc
 50
296.4054
 51
313.8892
  0
ARC
  5
456
330
1F
100
AcDbEntity
  8
0
  6
Continuous
 62
     7
 48
12.0
370
    25
100
AcDbCircle
 10
94.47925
 20
74.89612
 30
0.0
 40
1.68696
100
AcDbArc
 50
278.1148
 51
296.4065
  0
ARC
  5
457
330
1F
100
AcDbEntity
  8
0
  6
Continuous
 62
     7
 48
12.0
370
    25
100
AcDbCircle
 10
95.59057000000001
 20
73.49212
 30
0.0
 40
0.9082799999999953
100
AcDbArc
 50
204.8439
 51
238.3948
  0
ARC
  5
458
330
1F
100
AcDbEntity
  8
0
  6
Continuous
 62
     7
 48
12.0
370
    25
100
AcDbCircle
 10
96.29581000000002
 20
73.81936
 30
0.0
 40
1.686959999999995
100
AcDbArc
 50
180.3849
 51
204.845
  0
ARC
  5
459
330
1F
100
AcDbEntity
  8
0
  6
Continuous
 62
     7
 48
12.0
370
    25
100
AcDbCircle
 10
97.10365000000002
 20
73.82475999999998
 30
0.0
 40
2.493720000000005
100
AcDbArc
 50
162.9012
 51
180.3849
  0
ARC
  5
45A
330
1F
100
AcDbEntity
  8
0
  6
Continuous
 62
     7
 48
12.0
370
    25
100
AcDbCircle
 10
98.17393000000001
 20
73.49535999999999
 30
0.0
 40
3.613680000000004
100
AcDbArc
 50
148.3948
 51
162.9002
  0
ARC
  5
45B
330
1F
100
AcDbEntity
  8
0
  6
Continuous
 62
     7
 48
12.0
370
    25
100
AcDbCircle
 10
98.17393000000001
 20
73.49535999999999
 30
0.0
 40
3.613679999999996
100
AcDbArc
 50
133.8901
 51
148.3957
  0
ARC
  5
45C
330
1F
100
AcDbEntity
  8
0
  6
Continuous
 62
     7
 48
12.0
370
    25
100
AcDbCircle
 10
97.39741000000002
 20
74.3032
 30
0.0
 40
2.493719999999994
100
AcDbArc
 50
116.406
 51
133.8899
  0
ARC
  5
45D
330
1F
100
AcDbEntity
  8
0
  6
Continuous
 62
     7
 48
12.0
370
    25
100
AcDbCircle
 10
97.03885000000001
 20
75.02571999999999
 30
0.0
 40
1.686960000000004
100
AcDbArc
 50
91.94590000000002
 51
116.4058
  0
ARC
  5
45E
330
1F
100
AcDbEntity
  8
0
  6
Continuous
 62
     7
 48
12.0
370
    25
100
AcDbCircle
 10
97.01185
 20
75.80332
 30
0.0
 40
0.9082799999999935
100
AcDbArc
 50
58.3962
 51
91.94579999999999
  0
ARC
  5
45F
330
1F
100
AcDbEntity
  8
0
  6
Continuous
 62
     7
 48
12.0
370
    25
100
AcDbCircle
 10
97.01185
 20
75.80332
 30
0.0
 40
0.9082799999999992
100
AcDbArc
 50
24.8463
 51
58.39750000000001
  0
ARC
  5
460
330
1F
100
AcDbEntity
  8
0
  6
Continuous
 62
     7
 48
12.0
370
    25
100
AcDbCircle
 10
96.30660999999999
 20
75.47608
 30
0.0
 40
1.686959999999996
100
AcDbArc
 50
0.384
 51
24.8442
  0
ARC
  5
461
330
1F
100
AcDbEntity
  8
0
  6
Continuous
 62
     7
 48
12.0
370
    25
100
AcDbCircle
 10
95.49877
 20
75.47067999999999
 30
0.0
 40
2.493720000000004
100
AcDbArc
 50
342.9015
 51
0.3849999999999909
  0
ARC
  5
462
330
1F
100
AcDbEntity
  8
0
  6
Continuous
 62
     7
 48
12.0
370
    25
100
AcDbCircle
 10
94.42849
 20
75.80008
 30
0.0
 40
3.613680000000006
100
AcDbArc
 50
328.3955
 51
342.9011
  0
ARC
  5
463
330
1F
100
AcDbEntity
  8
0
  6
Continuous
 62
     7
 48
12.0
370
    25
100
AcDbCircle
 10
94.42849
 20
75.80008
 30
0.0
 40
3.61368
100
AcDbArc
 50
313.8900000000001
 51
328.3953
  0
ARC
  5
464
330
1F
100
AcDbEntity
  8
0
  6
Continuous
 62
     7
 48
12.0
370
    25
100
AcDbCircle
 10
95.20500999999999
 20
74.99331999999998
 30
0.0
 40
2.493720000000006
100
AcDbArc
 50
296.4064000000001
 51
313.8902
  0
ARC
  5
465
330
1F
100
AcDbEntity
  8
0
  6
Continuous
 62
     7
 48
12.0
370
    25
100
AcDbCircle
 10
95.56357
 20
74.26971999999999
 30
0.0
 40
1.686959999999999
100
AcDbArc
 50
271.9463
 51
296.4061
  0
ARC
  5
466
330
1F
100
AcDbEntity
  8
0
  6
Continuous
 62
     7
 48
12.0
370
    25
100
AcDbCircle
 10
95.59057000000001
 20
73.49212
 30
0.0
 40
0.9082800000000093
100
AcDbArc
 50
238.3948
 51
271.9458
  0
LINE
  5
467
330
1F
100
AcDbEntity
  8
0
  6
Continuous
 62
     7
 48
12.0
370
    25
100
AcDbLine
 10
54.96853
 20
55.65807999999999
 30
0.0
 11
90.39577000000001
 21
76.07656
 31
0.0
  0
LINE
  5
468
330
1F
100
AcDbEntity
  8
0
  6
Continuous
 62
     7
 48
12.0
370
    25
100
AcDbLine
 10
82.25905000000002
 20
109.29952
 30
0.0
 11
100.92253
 21
120.07468
 31
0.0
  0
LINE
  5
469
330
1F
100
AcDbEntity
  8
0
  6
Continuous
 62
     7
 48
12.0
370
    25
100
AcDbLine
 10
83.79049
 20
99.41319999999999
 30
0.0
 11
105.71989
 21
112.07404
 31
0.0
  0
LINE
  5
46A
330
1F
100
AcDbEntity
  8
0
  6
DASHED
 62
     7
 48
12.0
370
    25
100
AcDbLine
 10
84.07669000000001
 20
104.80996
 30
0.0
 11
85.49148999999998
 21
105.62752
 31
0.0
  0
LINE
  5
46B
330
1F
100
AcDbEntity
  8
0
  6
Continuous
 62
     7
 48
12.0
370
    25
100
AcDbLine
 10
90.39577000000001
 20
73.80099999999999
 30
0.0
 11
105.71989
 21
82.64835999999998
 31
0.0
  0
LINE
  5
46C
330
1F
100
AcDbEntity
  8
0
  6
Continuous
 62
     7
 48
12.0
370
    25
100
AcDbLine
 10
90.39577000000001
 20
68.56948
 30
0.0
 11
105.71989
 21
77.41575999999999
 31
0.0
  0
LINE
  5
46D
330
1F
100
AcDbEntity
  8
0
  6
Continuous
 62
     7
 48
12.0
370
    25
100
AcDbLine
 10
104.71981
 20
102.58624
 30
0.0
 11
103.92709
 21
103.04416
 31
0.0
  0
LINE
  5
46E
330
1F
100
AcDbEntity
  8
0
  6
Continuous
 62
     7
 48
12.0
370
    25
100
AcDbLine
 10
103.71757
 20
98.2252
 30
0.0
 11
102.92485
 21
98.68312
 31
0.0
  0
LINE
  5
46F
330
1F
100
AcDbEntity
  8
0
  6
Continuous
 62
     7
 48
12.0
370
    25
100
AcDbLine
 10
103.92709
 20
103.04416
 30
0.0
 11
103.69597
 21
102.91024
 31
0.0
  0
LINE
  5
470
330
1F
100
AcDbEntity
  8
0
  6
Continuous
 62
     7
 48
12.0
370
    25
100
AcDbLine
 10
102.92485
 20
98.68312
 30
0.0
 11
102.55009
 21
98.46712
 31
0.0
  0
LWPOLYLINE
  5
471
330
1F
100
AcDbEntity
  8
0
  6
Continuous
 62
     7
 48
12.0
370
    25
100
AcDbPolyline
 90
        7
 70
     0
 43
0.0
 10
90.39577000000001
 20
76.11219999999999
 10
103.71757
 20
83.80395999999999
 10
103.71757
 20
98.2252
 10
101.85673
 20
97.15059999999998
 10
104.71981
 20
102.58624
 10
103.69597
 20
101.9944
 10
103.69597
 20
110.90548
  0
LINE
  5
472
330
1F
100
AcDbEntity
  8
0
  6
Continuous
 62
     7
 48
12.0
370
    25
100
AcDbLine
 10
52.17349000000001
 20
91.92988
 30
0.0
 11
73.49161000000001
 21
104.23864
 31
0.0
  0
LINE
  5
473
330
1F
100
AcDbEntity
  8
0
  6
Continuous
 62
     7
 48
12.0
370
    25
100
AcDbLine
 10
105.71989
 20
112.07404
 30
0.0
 11
105.71989
 21
117.30556
 31
0.0
  0
LINE
  5
474
330
1F
100
AcDbEntity
  8
0
  6
Continuous
 62
     7
 48
12.0
370
    25
100
AcDbLine
 10
105.71989
 20
117.30556
 30
0.0
 11
100.92253
 21
120.07468
 31
0.0
  0
LINE
  5
475
330
1F
100
AcDbEntity
  8
0
  6
Continuous
 62
     7
 48
12.0
370
    25
100
AcDbLine
 10
56.97085000000001
 20
83.92924
 30
0.0
 11
83.79049
 21
99.41319999999999
 31
0.0
  0
LINE
  5
476
330
1F
100
AcDbEntity
  8
0
  6
Continuous
 62
     7
 48
12.0
370
    25
100
AcDbLine
 10
56.97085000000001
 20
89.16076
 30
0.0
 11
78.28896999999999
 21
101.46844
 31
0.0
  0
LINE
  5
477
330
1F
100
AcDbEntity
  8
0
  6
Continuous
 62
     7
 48
12.0
370
    25
100
AcDbLine
 10
67.37881000000002
 20
55.28007999999999
 30
0.0
 11
96.97837
 21
38.19123999999999
 31
0.0
  0
LINE
  5
478
330
1F
100
AcDbEntity
  8
0
  6
Continuous
 62
     7
 48
12.0
370
    25
100
AcDbLine
 10
54.17581
 20
85.54276
 30
0.0
 11
52.17349000000001
 21
86.69836
 31
0.0
  0
LINE
  5
479
330
1F
100
AcDbEntity
  8
0
  6
Continuous
 62
     7
 48
12.0
370
    25
100
AcDbLine
 10
56.97085000000001
 20
89.16076
 30
0.0
 11
52.17349000000001
 21
91.92988
 31
0.0
  0
LINE
  5
47A
330
1F
100
AcDbEntity
  8
0
  6
Continuous
 62
     7
 48
12.0
370
    25
100
AcDbLine
 10
52.17349000000001
 20
91.92988
 30
0.0
 11
52.17349000000001
 21
86.69836
 31
0.0
  0
LINE
  5
47B
330
1F
100
AcDbEntity
  8
0
  6
Continuous
 62
     7
 48
12.0
370
    25
100
AcDbLine
 10
56.97085000000001
 20
83.92924
 30
0.0
 11
56.97085000000001
 21
89.16076
 31
0.0
  0
LINE
  5
47C
330
1F
100
AcDbEntity
  8
0
  6
Continuous
 62
     7
 48
12.0
370
    25
100
AcDbLine
 10
56.97085000000001
 20
83.92924
 30
0.0
 11
54.96853
 21
85.08483999999999
 31
0.0
  0
LINE
  5
47D
330
1F
100
AcDbEntity
  8
0
  6
Continuous
 62
     7
 48
12.0
370
    25
100
AcDbLine
 10
54.96853
 20
87.08067999999999
 30
0.0
 11
54.17581
 21
87.53859999999999
 31
0.0
  0
LINE
  5
47E
330
1F
100
AcDbEntity
  8
0
  6
Continuous
 62
     7
 48
12.0
370
    25
100
AcDbLine
 10
54.17581
 20
56.11599999999999
 30
0.0
 11
52.17349000000001
 21
57.27159999999999
 31
0.0
  0
LINE
  5
47F
330
1F
100
AcDbEntity
  8
0
  6
Continuous
 62
     7
 48
12.0
370
    25
100
AcDbLine
 10
54.96853
 20
53.56287999999998
 30
0.0
 11
54.96853
 21
87.08067999999999
 31
0.0
  0
LWPOLYLINE
  5
480
330
1F
100
AcDbEntity
  8
0
  6
Continuous
 62
     7
 48
12.0
370
    25
100
AcDbPolyline
 90
        3
 70
     0
 43
0.0
 10
54.96853
 20
53.56287999999998
 10
54.17581
 20
54.01971999999998
 10
54.17581
 20
87.53859999999999
  0
LINE
  5
481
330
1F
100
AcDbEntity
  8
0
  6
Continuous
 62
     7
 48
12.0
370
    25
100
AcDbLine
 10
52.17349000000001
 20
57.27159999999999
 30
0.0
 11
54.17581
 21
58.42827999999999
 31
0.0
  0
LINE
  5
482
330
1F
100
AcDbEntity
  8
0
  6
Continuous
 62
     7
 48
12.0
370
    25
100
AcDbLine
 10
56.97085000000001
 20
54.50247999999999
 30
0.0
 11
90.39577000000001
 21
73.80099999999999
 31
0.0
  0
LINE
  5
483
330
1F
100
AcDbEntity
  8
0
  6
Continuous
 62
     7
 48
12.0
370
    25
100
AcDbLine
 10
105.71989
 20
77.41575999999999
 30
0.0
 11
105.71989
 21
82.64835999999998
 31
0.0
  0
LINE
  5
484
330
1F
100
AcDbEntity
  8
0
  6
Continuous
 62
     7
 48
12.0
370
    25
100
AcDbLine
 10
105.71989
 20
82.64835999999998
 30
0.0
 11
103.71757
 21
83.80395999999999
 31
0.0
  0
LINE
  5
485
330
1F
100
AcDbEntity
  8
0
  6
Continuous
 62
     7
 48
12.0
370
    25
100
AcDbLine
 10
56.97085000000001
 20
49.27095999999998
 30
0.0
 11
90.39577000000001
 21
68.56948
 31
0.0
  0
LINE
  5
486
330
1F
100
AcDbEntity
  8
0
  6
Continuous
 62
     7
 48
12.0
370
    25
100
AcDbLine
 10
52.17349000000001
 20
57.27159999999999
 30
0.0
 11
52.17349000000001
 21
52.04007999999999
 31
0.0
  0
LWPOLYLINE
  5
487
330
1F
100
AcDbEntity
  8
0
  6
Continuous
 62
     7
 48
12.0
370
    25
100
AcDbPolyline
 90
        3
 70
     0
 43
0.0
 10
56.97085000000001
 20
49.27095999999998
 10
56.97085000000001
 20
54.50247999999999
 10
54.96853
 20
55.65807999999999
  0
LINE
  5
488
330
1F
100
AcDbEntity
  8
0
  6
Continuous
 62
     7
 48
12.0
370
    25
100
AcDbLine
 10
89.81689
 20
34.05591999999999
 30
0.0
 11
89.81689
 21
21.60459999999999
 31
0.0
  0
LINE
  5
489
330
1F
100
AcDbEntity
  8
0
  6
Continuous
 62
     7
 48
12.0
370
    25
100
AcDbLine
 10
86.57041000000002
 20
32.18103999999999
 30
0.0
 11
86.57041000000002
 21
19.72971999999999
 31
0.0
  0
LINE
  5
48A
330
1F
100
AcDbEntity
  8
0
  6
Continuous
 62
     7
 48
12.0
370
    25
100
AcDbLine
 10
96.97837
 20
38.19123999999999
 30
0.0
 11
96.97837
 21
25.73991999999999
 31
0.0
  0
LINE
  5
48B
330
1F
100
AcDbEntity
  8
0
  6
Continuous
 62
     7
 48
12.0
370
    25
100
AcDbLine
 10
95.61109000000002
 20
34.88319999999999
 30
0.0
 11
95.61109000000002
 21
22.43187999999999
 31
0.0
  0
LINE
  5
48C
330
1F
100
AcDbEntity
  8
0
  6
Continuous
 62
     7
 48
12.0
370
    25
100
AcDbLine
 10
45.40513
 20
63.86823999999999
 30
0.0
 11
45.40513
 21
62.66835999999999
 31
0.0
  0
LINE
  5
48D
330
1F
100
AcDbEntity
  8
0
  6
Continuous
 62
     7
 48
12.0
370
    25
100
AcDbLine
 10
40.00837000000001
 20
62.81199999999999
 30
0.0
 11
40.00837000000001
 21
60.75243999999998
 31
0.0
  0
LINE
  5
48E
330
1F
100
AcDbEntity
  8
0
  6
Continuous
 62
     7
 48
12.0
370
    25
100
AcDbLine
 10
38.54605000000001
 20
59.90787999999998
 30
0.0
 11
38.54605000000001
 21
47.45655999999999
 31
0.0
  0
LINE
  5
48F
330
1F
100
AcDbEntity
  8
0
  6
Continuous
 62
     7
 48
12.0
370
    25
100
AcDbLine
 10
96.97837
 20
25.73991999999999
 30
0.0
 11
95.61109000000002
 21
24.94935999999999
 31
0.0
  0
LINE
  5
490
330
1F
100
AcDbEntity
  8
0
  6
Continuous
 62
     7
 48
12.0
370
    25
100
AcDbLine
 10
89.81689
 20
21.60459999999999
 30
0.0
 11
86.57041000000002
 21
19.72971999999999
 31
0.0
  0
LINE
  5
491
330
1F
100
AcDbEntity
  8
0
  6
Continuous
 62
     7
 48
12.0
370
    25
100
AcDbLine
 10
95.61109000000002
 20
22.43187999999999
 30
0.0
 11
89.81689
 21
22.58631999999999
 31
0.0
  0
LINE
  5
492
330
1F
100
AcDbEntity
  8
0
  6
Continuous
 62
     7
 48
12.0
370
    25
100
AcDbLine
 10
86.57041000000002
 20
19.72971999999999
 30
0.0
 11
38.54605000000001
 21
47.45655999999999
 31
0.0
  0
LINE
  5
493
330
1F
100
AcDbEntity
  8
0
  6
Continuous
 62
     7
 48
12.0
370
    25
100
AcDbLine
 10
96.97837
 20
31.65831999999999
 30
0.0
 11
95.61109000000002
 21
30.86775999999999
 31
0.0
  0
LINE
  5
494
330
1F
100
AcDbEntity
  8
0
  6
Continuous
 62
     7
 48
12.0
370
    25
100
AcDbLine
 10
89.81689
 20
27.52299999999999
 30
0.0
 11
86.57041000000002
 21
25.64919999999999
 31
0.0
  0
LINE
  5
495
330
1F
100
AcDbEntity
  8
0
  6
Continuous
 62
     7
 48
12.0
370
    25
100
AcDbLine
 10
95.61109000000002
 20
28.35027999999999
 30
0.0
 11
89.81689
 21
28.50471999999999
 31
0.0
  0
LINE
  5
496
330
1F
100
AcDbEntity
  8
0
  6
Continuous
 62
     7
 48
12.0
370
    25
100
AcDbLine
 10
86.57041000000002
 20
25.64919999999999
 30
0.0
 11
38.54605000000001
 21
53.37603999999998
 31
0.0
  0
LINE
  5
497
330
1F
100
AcDbEntity
  8
0
  6
Continuous
 62
     7
 48
12.0
370
    25
100
AcDbLine
 10
48.95509000000001
 20
65.91807999999997
 30
0.0
 11
45.40513
 21
63.86823999999999
 31
0.0
  0
LINE
  5
498
330
1F
100
AcDbEntity
  8
0
  6
Continuous
 62
     7
 48
12.0
370
    25
100
AcDbLine
 10
45.40513
 20
63.86823999999999
 30
0.0
 11
47.58673
 21
62.61003999999998
 31
0.0
  0
LINE
  5
499
330
1F
100
AcDbEntity
  8
0
  6
Continuous
 62
     7
 48
12.0
370
    25
100
AcDbLine
 10
40.00837000000001
 20
62.81199999999999
 30
0.0
 11
41.79253
 21
61.78275999999999
 31
0.0
  0
LINE
  5
49A
330
1F
100
AcDbEntity
  8
0
  6
Continuous
 62
     7
 48
12.0
370
    25
100
AcDbLine
 10
41.79253
 20
61.78275999999999
 30
0.0
 11
38.54605000000001
 21
59.90787999999998
 31
0.0
  0
LINE
  5
49B
330
1F
100
AcDbEntity
  8
0
  6
Continuous
 62
     7
 48
12.0
370
    25
100
AcDbLine
 10
47.58673
 20
62.61003999999998
 30
0.0
 11
40.00837000000001
 21
62.81199999999999
 31
0.0
  0
LWPOLYLINE
  5
49C
330
1F
100
AcDbEntity
  8
0
  6
Continuous
 62
     7
 48
12.0
370
    25
100
AcDbPolyline
 90
        5
 70
     0
 43
0.0
 10
93.42949000000002
 20
36.14139999999999
 10
95.61109000000002
 20
34.88319999999999
 10
88.03272999999999
 20
35.08515999999999
 10
89.81689
 20
34.05591999999999
 10
86.57041000000002
 20
32.18103999999999
  0
LINE
  5
49D
330
1F
100
AcDbEntity
  8
0
  6
Continuous
 62
     7
 48
12.0
370
    25
100
AcDbLine
 10
86.57041000000002
 20
32.18103999999999
 30
0.0
 11
38.54605000000001
 21
59.90787999999998
 31
0.0
  0
LINE
  5
49E
330
1F
100
AcDbEntity
  8
0
  6
Continuous
 62
     7
 48
12.0
370
    25
100
AcDbLine
 10
96.97837
 20
38.19123999999999
 30
0.0
 11
93.42949000000002
 21
36.14139999999999
 31
0.0
  0
LINE
  5
49F
330
1F
100
AcDbEntity
  8
0
  6
Continuous
 62
     7
 48
12.0
370
    25
100
AcDbLine
 10
48.95509000000001
 20
65.91807999999997
 30
0.0
 11
54.17581
 21
62.90379999999999
 31
0.0
  0
LINE
  5
4A0
330
1F
100
AcDbEntity
  8
TEXT
  6
Continuous
 62
     7
 48
12.0
370
    25
100
AcDbLine
 10
97.51600479663155
 20
73.588533557137
 30
0.0
 11
111.8125
 21
19.6875
 31
0.0
  0
TEXT
  5
4A6
330
1F
100
AcDbEntity
  8
TEXT
 62
     7
370
    25
100
AcDbText
 10
2.476562500000001
 20
137.5420454545454
 30
0.0
 40
5.0
  1
R4
  7
Arial
 11
2.476562500000001
 21
136.0625
 31
0.0
100
AcDbText
 73
     1
  0
TEXT
  5
4A7
330
1F
100
AcDbEntity
  8
TEXT
 62
     7
370
    25
100
AcDbText
 10
15.5625
 20
137.6045454545454
 30
0.0
 40
5.0
  1
DON'T cut or notch flange.
  7
Arial
 11
15.5625
 21
136.125
 31
0.0
100
AcDbText
 73
     1
  0
TEXT
  5
4A8
330
1F
100
AcDbEntity
  8
TEXT
 62
     7
370
    25
100
AcDbText
 10
84.1953125
 20
10.22954545454546
 30
0.0
 40
5.0
  1
DON'T drill flange.
  7
Arial
 11
84.1953125
 21
8.75
 31
0.0
100
AcDbText
 73
     1
  0
INSERT
  5
4AA
330
1F
100
AcDbEntity
  8
0
  6
ByBlock
 62
     7
100
AcDbBlockReference
  2
GROUP_0_ee4a373a-5853-44b6-b736-a4f6ccb98062
 10
0.0
 20
0.0
 30
0.0
  0
ENDSEC
  0
SECTION
  2
OBJECTS
  0
DICTIONARY
  5
C
330
0
100
AcDbDictionary
281
     1
  3
ACAD_GROUP
350
D
  3
ACAD_LAYOUT
350
1A
  3
ACAD_MATERIAL
350
3B
  3
ACAD_MLEADERSTYLE
350
4AD
  3
ACAD_MLINESTYLE
350
17
  3
ACAD_PLOTSETTINGS
350
19
  3
ACAD_PLOTSTYLENAME
350
E
  3
ACAD_VISUALSTYLE
350
2A
  3
AcDbVariableDictionary
350
4AB
  0
DICTIONARY
  5
D
102
{ACAD_REACTORS
330
C
102
}
330
C
100
AcDbDictionary
281
     1
  0
DICTIONARY
  5
1A
102
{ACAD_REACTORS
330
C
102
}
330
C
100
AcDbDictionary
281
     1
  3
Layout1
350
1E
  3
Layout2
350
26
  3
Model
350
22
  0
DICTIONARY
  5
3B
102
{ACAD_REACTORS
330
C
102
}
330
C
100
AcDbDictionary
281
     1
  3
ByBlock
350
3D
  3
ByLayer
350
3C
  3
Global
350
3E
  0
DICTIONARY
  5
4AD
102
{ACAD_REACTORS
330
C
102
}
330
C
100
AcDbDictionary
281
     1
  0
DICTIONARY
  5
17
102
{ACAD_REACTORS
330
C
102
}
330
C
100
AcDbDictionary
281
     1
  3
Standard
350
18
  0
DICTIONARY
  5
19
102
{ACAD_REACTORS
330
C
102
}
330
C
100
AcDbDictionary
281
     1
  0
ACDBDICTIONARYWDFLT
  5
E
102
{ACAD_REACTORS
330
C
102
}
330
C
100
AcDbDictionary
281
     1
  3
Normal
350
F
100
AcDbDictionaryWithDefault
340
F
  0
DICTIONARY
  5
2A
102
{ACAD_REACTORS
330
C
102
}
330
C
100
AcDbDictionary
281
     1
  3
2dWireframe
350
2F
  3
3D Hidden
350
31
  3
3dWireframe
350
30
  3
Basic
350
32
  3
Brighten
350
36
  3
ColorChange
350
3A
  3
Conceptual
350
34
  3
Dim
350
35
  3
Facepattern
350
39
  3
Flat
350
2B
  3
FlatWithEdges
350
2C
  3
Gouraud
350
2D
  3
GouraudWithEdges
350
2E
  3
Linepattern
350
38
  3
Realistic
350
33
  3
Thicken
350
37
  0
DICTIONARY
  5
4AB
102
{ACAD_REACTORS
330
C
102
}
330
C
100
AcDbDictionary
281
     1
  3
DIMASSOC
350
4AE
  3
HIDETEXT
350
4AF
  0
LAYOUT
  5
1E
102
{ACAD_REACTORS
330
1A
102
}
330
1A
100
AcDbPlotSettings
  1

  2
none_device
  4

  6

 40
0.0
 41
0.0
 42
0.0
 43
0.0
 44
0.0
 45
0.0
 46
0.0
 47
0.0
 48
0.0
 49
0.0
140
0.0
141
0.0
142
1.0
143
1.0
 70
   688
 72
     0
 73
     0
 74
     5
  7

 75
    16
147
1.0
148
0.0
149
0.0
100
AcDbLayout
  1
Layout1
 70
     1
 71
     1
 10
0.0
 20
0.0
 11
12.0
 21
9.0
 12
0.0
 22
0.0
 32
0.0
 14
1.000000000000000E+20
 24
1.000000000000000E+20
 34
1.000000000000000E+20
 15
-1.000000000000000E+20
 25
-1.000000000000000E+20
 35
-1.000000000000000E+20
146
0.0
 13
0.0
 23
0.0
 33
0.0
 16
1.0
 26
0.0
 36
0.0
 17
0.0
 27
1.0
 37
0.0
 76
     0
330
1B
  0
LAYOUT
  5
26
102
{ACAD_REACTORS
330
1A
102
}
330
1A
100
AcDbPlotSettings
  1

  2
none_device
  4

  6

 40
0.0
 41
0.0
 42
0.0
 43
0.0
 44
0.0
 45
0.0
 46
0.0
 47
0.0
 48
0.0
 49
0.0
140
0.0
141
0.0
142
1.0
143
1.0
 70
   688
 72
     0
 73
     0
 74
     5
  7

 75
    16
147
1.0
148
0.0
149
0.0
100
AcDbLayout
  1
Layout2
 70
     1
 71
     2
 10
0.0
 20
0.0
 11
0.0
 21
0.0
 12
0.0
 22
0.0
 32
0.0
 14
0.0
 24
0.0
 34
0.0
 15
0.0
 25
0.0
 35
0.0
146
0.0
 13
0.0
 23
0.0
 33
0.0
 16
1.0
 26
0.0
 36
0.0
 17
0.0
 27
1.0
 37
0.0
 76
     0
330
23
  0
LAYOUT
  5
22
102
{ACAD_REACTORS
330
1A
102
}
330
1A
100
AcDbPlotSettings
  1

  2
none_device
  4

  6

 40
0.0
 41
0.0
 42
0.0
 43
0.0
 44
0.0
 45
0.0
 46
0.0
 47
0.0
 48
0.0
 49
0.0
140
0.0
141
0.0
142
1.0
143
1.0
 70
  1712
 72
     0
 73
     0
 74
     0
  7

 75
     0
147
1.0
148
0.0
149
0.0
100
AcDbLayout
  1
Model
 70
     1
 71
     0
 10
-7.260660000000001
 20
-7.254899999999999
 11
152.47386
 21
152.3529
 12
0.0
 22
0.0
 32
0.0
 14
-7.260660000000001
 24
-7.254899999999999
 34
0.0
 15
152.47386
 25
152.3529
 35
0.0
146
0.0
 13
0.0
 23
0.0
 33
0.0
 16
1.0
 26
0.0
 36
0.0
 17
0.0
 27
1.0
 37
0.0
 76
     0
330
1F
331
29
  0
MATERIAL
  5
3D
102
{ACAD_REACTORS
330
3B
102
}
102
{ACAD_XDICTIONARY
360
4D2
102
}
330
3B
100
AcDbMaterial
  1
ByBlock
  0
MATERIAL
  5
3C
102
{ACAD_REACTORS
330
3B
102
}
102
{ACAD_XDICTIONARY
360
4D0
102
}
330
3B
100
AcDbMaterial
  1
ByLayer
  0
MATERIAL
  5
3E
102
{ACAD_REACTORS
330
3B
102
}
102
{ACAD_XDICTIONARY
360
4D4
102
}
330
3B
100
AcDbMaterial
  1
Global
  0
MLINESTYLE
  5
18
102
{ACAD_REACTORS
330
17
102
}
330
17
100
AcDbMlineStyle
  2
Standard
 70
     0
  3

 62
   256
 51
90.0
 52
90.0
 71
     2
 49
0.5
 62
   256
  6
BYLAYER
 49
-0.5
 62
   256
  6
BYLAYER
  0
ACDBPLACEHOLDER
  5
F
102
{ACAD_REACTORS
330
E
102
}
330
E
  0
VISUALSTYLE
  5
2F
102
{ACAD_REACTORS
330
2A
102
}
102
{ACAD_XDICTIONARY
360
4B8
102
}
330
2A
100
AcDbVisualStyle
  2
2dWireframe
 70
     4
 71
     0
 72
     2
 73
     0
 90
        0
 40
-0.6
 41
-30.0
 62
     5
 63
     7
 74
     1
 91
        4
 64
     7
 65
   257
 75
     1
175
     1
 42
1.0
 92
        0
 66
   257
 43
1.0
 76
     1
 77
     6
 78
     2
 67
     7
 79
     5
170
     0
171
     0
290
     0
174
     0
 93
        1
 44
0.0
173
     0
291
     0
 45
0.0
1001
ACAD
1000
AcDbSavedByObjectVersion
1070
     0
  0
VISUALSTYLE
  5
31
102
{ACAD_REACTORS
330
2A
102
}
102
{ACAD_XDICTIONARY
360
4BC
102
}
330
2A
100
AcDbVisualStyle
  2
3D Hidden
 70
     6
 71
     1
 72
     2
 73
     2
 90
        0
 40
-0.6
 41
-30.0
 62
     5
 63
     7
 74
     2
 91
        2
 64
     7
 65
   257
 75
     2
175
     1
 42
40.0
 92
        0
 66
   257
 43
1.0
 76
     1
 77
     6
 78
     2
 67
     7
 79
     3
170
     0
171
     0
290
     0
174
     0
 93
        1
 44
0.0
173
     0
291
     0
 45
0.0
1001
ACAD
1000
AcDbSavedByObjectVersion
1070
     0
  0
VISUALSTYLE
  5
30
102
{ACAD_REACTORS
330
2A
102
}
102
{ACAD_XDICTIONARY
360
4BA
102
}
330
2A
100
AcDbVisualStyle
  2
3dWireframe
 70
     5
 71
     0
 72
     2
 73
     0
 90
        0
 40
-0.6
 41
-30.0
 62
     5
 63
     7
 74
     1
 91
        4
 64
     7
 65
   257
 75
     1
175
     1
 42
1.0
 92
        0
 66
   257
 43
1.0
 76
     1
 77
     6
 78
     2
 67
     7
 79
     5
170
     0
171
     0
290
     0
174
     0
 93
        1
 44
0.0
173
     0
291
     0
 45
0.0
1001
ACAD
1000
AcDbSavedByObjectVersion
1070
     0
  0
VISUALSTYLE
  5
32
102
{ACAD_REACTORS
330
2A
102
}
102
{ACAD_XDICTIONARY
360
4BE
102
}
330
2A
100
AcDbVisualStyle
  2
Basic
 70
     7
 71
     1
 72
     0
 73
     1
 90
        0
 40
-0.6
 41
-30.0
 62
     5
 63
     7
 74
     0
 91
        4
 64
     7
 65
   257
 75
     1
175
     1
 42
1.0
 92
        8
 66
     7
 43
1.0
 76
     1
 77
     6
 78
     2
 67
     7
 79
     5
170
     0
171
     0
290
     0
174
     0
 93
        1
 44
0.0
173
     0
291
     1
 45
0.0
1001
ACAD
1000
AcDbSavedByObjectVersion
1070
     0
  0
VISUALSTYLE
  5
36
102
{ACAD_REACTORS
330
2A
102
}
102
{ACAD_XDICTIONARY
360
4C6
102
}
330
2A
100
AcDbVisualStyle
  2
Brighten
 70
    12
 71
     2
 72
     2
 73
     0
 90
        0
 40
-0.6
 41
-30.0
 62
     5
 63
     7
 74
     1
 91
        4
 64
     7
 65
   257
 75
     1
175
     1
 42
1.0
 92
        8
 66
     7
 43
1.0
 76
     1
 77
     6
 78
     2
 67
     7
 79
     5
170
     0
171
     0
290
     0
174
     0
 93
        1
 44
50.0
173
     0
291
     1
 45
0.0
1001
ACAD
1000
AcDbSavedByObjectVersion
1070
     0
  0
VISUALSTYLE
  5
3A
102
{ACAD_REACTORS
330
2A
102
}
102
{ACAD_XDICTIONARY
360
4CE
102
}
330
2A
100
AcDbVisualStyle
  2
ColorChange
 70
    16
 71
     2
 72
     2
 73
     3
 90
        0
 40
-0.6
 41
-30.0
 62
     5
 63
     8
 74
     1
 91
        4
 64
     7
 65
   257
 75
     1
175
     1
 42
1.0
 92
        8
 66
     8
 43
1.0
 76
     1
 77
     6
 78
     2
 67
     7
 79
     5
170
     0
171
     0
290
     0
174
     0
 93
        1
 44
0.0
173
     0
291
     1
 45
0.0
1001
ACAD
1000
AcDbSavedByObjectVersion
1070
     0
  0
VISUALSTYLE
  5
34
102
{ACAD_REACTORS
330
2A
102
}
102
{ACAD_XDICTIONARY
360
4C2
102
}
330
2A
100
AcDbVisualStyle
  2
Conceptual
 70
     9
 71
     3
 72
     2
 73
     0
 90
        0
 40
-0.6
 41
-30.0
 62
     5
 63
     7
 74
     2
 91
        2
 64
     7
 65
   257
 75
     1
175
     1
 42
40.0
 92
        8
 66
     7
 43
1.0
 76
     1
 77
     6
 78
     2
 67
     7
 79
     3
170
     0
171
     0
290
     0
174
     0
 93
        1
 44
0.0
173
     0
291
     0
 45
0.0
1001
ACAD
1000
AcDbSavedByObjectVersion
1070
     0
  0
VISUALSTYLE
  5
35
102
{ACAD_REACTORS
330
2A
102
}
102
{ACAD_XDICTIONARY
360
4C4
102
}
330
2A
100
AcDbVisualStyle
  2
Dim
 70
    11
 71
     2
 72
     2
 73
     0
 90
        0
 40
-0.6
 41
-30.0
 62
     5
 63
     7
 74
     1
 91
        4
 64
     7
 65
   257
 75
     1
175
     1
 42
1.0
 92
        8
 66
     7
 43
1.0
 76
     1
 77
     6
 78
     2
 67
     7
 79
     5
170
     0
171
     0
290
     0
174
     0
 93
        1
 44
-50.0
173
     0
291
     1
 45
0.0
1001
ACAD
1000
AcDbSavedByObjectVersion
1070
     0
  0
VISUALSTYLE
  5
39
102
{ACAD_REACTORS
330
2A
102
}
102
{ACAD_XDICTIONARY
360
4CC
102
}
330
2A
100
AcDbVisualStyle
  2
Facepattern
 70
    15
 71
     2
 72
     2
 73
     0
 90
        0
 40
-0.6
 41
-30.0
 62
     5
 63
     7
 74
     1
 91
        4
 64
     7
 65
   257
 75
     1
175
     1
 42
1.0
 92
        8
 66
     7
 43
1.0
 76
     1
 77
     6
 78
     2
 67
     7
 79
     5
170
     0
171
     0
290
     0
174
     0
 93
        1
 44
0.0
173
     0
291
     1
 45
0.0
1001
ACAD
1000
AcDbSavedByObjectVersion
1070
     0
  0
VISUALSTYLE
  5
2B
102
{ACAD_REACTORS
330
2A
102
}
102
{ACAD_XDICTIONARY
360
4B0
102
}
330
2A
100
AcDbVisualStyle
  2
Flat
 70
     0
 71
     2
 72
     1
 73
     1
 90
        2
 40
-0.6
 41
30.0
 62
     5
 63
     7
 74
     0
 91
        4
 64
     7
 65
   257
 75
     1
175
     1
 42
1.0
 92
        8
 66
     7
 43
1.0
 76
     1
 77
     6
 78
     2
 67
     7
 79
     5
170
     0
171
     0
290
     0
174
     0
 93
       13
 44
0.0
173
     0
291
     1
 45
0.0
1001
ACAD
1000
AcDbSavedByObjectVersion
1070
     0
  0
VISUALSTYLE
  5
2C
102
{ACAD_REACTORS
330
2A
102
}
102
{ACAD_XDICTIONARY
360
4B2
102
}
330
2A
100
AcDbVisualStyle
  2
FlatWithEdges
 70
     1
 71
     2
 72
     1
 73
     1
 90
        2
 40
-0.6
 41
30.0
 62
     5
 63
     7
 74
     1
 91
        4
 64
     7
 65
   257
 75
     1
175
     1
 42
1.0
 92
        0
 66
   257
 43
1.0
 76
     1
 77
     6
 78
     2
 67
     7
 79
     5
170
     0
171
     0
290
     0
174
     0
 93
       13
 44
0.0
173
     0
291
     1
 45
0.0
1001
ACAD
1000
AcDbSavedByObjectVersion
1070
     0
  0
VISUALSTYLE
  5
2D
102
{ACAD_REACTORS
330
2A
102
}
102
{ACAD_XDICTIONARY
360
4B4
102
}
330
2A
100
AcDbVisualStyle
  2
Gouraud
 70
     2
 71
     2
 72
     2
 73
     1
 90
        2
 40
-0.6
 41
30.0
 62
     5
 63
     7
 74
     0
 91
        4
 64
     7
 65
   257
 75
     1
175
     1
 42
1.0
 92
        0
 66
     7
 43
1.0
 76
     1
 77
     6
 78
     2
 67
     7
 79
     5
170
     0
171
     0
290
     0
174
     0
 93
       13
 44
0.0
173
     0
291
     1
 45
0.0
1001
ACAD
1000
AcDbSavedByObjectVersion
1070
     0
  0
VISUALSTYLE
  5
2E
102
{ACAD_REACTORS
330
2A
102
}
102
{ACAD_XDICTIONARY
360
4B6
102
}
330
2A
100
AcDbVisualStyle
  2
GouraudWithEdges
 70
     3
 71
     2
 72
     2
 73
     1
 90
        2
 40
-0.6
 41
30.0
 62
     5
 63
     7
 74
     1
 91
        4
 64
     7
 65
   257
 75
     1
175
     1
 42
1.0
 92
        0
 66
   257
 43
1.0
 76
     1
 77
     6
 78
     2
 67
     7
 79
     5
170
     0
171
     0
290
     0
174
     0
 93
       13
 44
0.0
173
     0
291
     1
 45
0.0
1001
ACAD
1000
AcDbSavedByObjectVersion
1070
     0
  0
VISUALSTYLE
  5
38
102
{ACAD_REACTORS
330
2A
102
}
102
{ACAD_XDICTIONARY
360
4CA
102
}
330
2A
100
AcDbVisualStyle
  2
Linepattern
 70
    14
 71
     2
 72
     2
 73
     0
 90
        0
 40
-0.6
 41
-30.0
 62
     5
 63
     7
 74
     1
 91
        4
 64
     7
 65
   257
 75
     7
175
     7
 42
1.0
 92
        8
 66
     7
 43
1.0
 76
     1
 77
     6
 78
     2
 67
     7
 79
     5
170
     0
171
     0
290
     0
174
     0
 93
        1
 44
0.0
173
     0
291
     1
 45
0.0
1001
ACAD
1000
AcDbSavedByObjectVersion
1070
     0
  0
VISUALSTYLE
  5
33
102
{ACAD_REACTORS
330
2A
102
}
102
{ACAD_XDICTIONARY
360
4C0
102
}
330
2A
100
AcDbVisualStyle
  2
Realistic
 70
     8
 71
     2
 72
     2
 73
     0
 90
        0
 40
-0.6
 41
-30.0
 62
     5
 63
     7
 74
     1
 91
        0
 64
     7
 65
   257
 75
     1
175
     1
 42
1.0
 92
        8
 66
     8
 43
1.0
 76
     1
 77
     6
 78
     2
 67
     7
 79
     5
170
     0
171
     0
290
     0
174
     0
 93
       13
 44
0.0
173
     0
291
     0
 45
0.0
1001
ACAD
1000
AcDbSavedByObjectVersion
1070
     0
  0
VISUALSTYLE
  5
37
102
{ACAD_REACTORS
330
2A
102
}
102
{ACAD_XDICTIONARY
360
4C8
102
}
330
2A
100
AcDbVisualStyle
  2
Thicken
 70
    13
 71
     2
 72
     2
 73
     0
 90
        0
 40
-0.6
 41
-30.0
 62
     5
 63
     7
 74
     1
 91
        4
 64
     7
 65
   257
 75
     1
175
     1
 42
1.0
 92
       12
 66
     7
 43
1.0
 76
     1
 77
     6
 78
     2
 67
     7
 79
     5
170
     0
171
     0
290
     0
174
     0
 93
        1
 44
0.0
173
     0
291
     1
 45
0.0
1001
ACAD
1000
AcDbSavedByObjectVersion
1070
     0
  0
DICTIONARYVAR
  5
4AE
102
{ACAD_REACTORS
330
4AB
102
}
330
4AB
100
DictionaryVariables
280
     0
  1
2
  0
DICTIONARYVAR
  5
4AF
102
{ACAD_REACTORS
330
4AB
102
}
330
4AB
100
DictionaryVariables
280
     0
  1
1
  0
DICTIONARY
  5
4D2
330
3D
100
AcDbDictionary
280
     1
281
     1
  3
ACAD_XREC_ROUNDTRIP
360
4D3
  0
DICTIONARY
  5
4D0
330
3C
100
AcDbDictionary
280
     1
281
     1
  3
ACAD_XREC_ROUNDTRIP
360
4D1
  0
DICTIONARY
  5
4D4
330
3E
100
AcDbDictionary
280
     1
281
     1
  3
ACAD_XREC_ROUNDTRIP
360
4D5
  0
DICTIONARY
  5
4B8
330
2F
100
AcDbDictionary
280
     1
281
     1
  3
ACAD_XREC_ROUNDTRIP
360
4B9
  0
DICTIONARY
  5
4BC
330
31
100
AcDbDictionary
280
     1
281
     1
  3
ACAD_XREC_ROUNDTRIP
360
4BD
  0
DICTIONARY
  5
4BA
330
30
100
AcDbDictionary
280
     1
281
     1
  3
ACAD_XREC_ROUNDTRIP
360
4BB
  0
DICTIONARY
  5
4BE
330
32
100
AcDbDictionary
280
     1
281
     1
  3
ACAD_XREC_ROUNDTRIP
360
4BF
  0
DICTIONARY
  5
4C6
330
36
100
AcDbDictionary
280
     1
281
     1
  3
ACAD_XREC_ROUNDTRIP
360
4C7
  0
DICTIONARY
  5
4CE
330
3A
100
AcDbDictionary
280
     1
281
     1
  3
ACAD_XREC_ROUNDTRIP
360
4CF
  0
DICTIONARY
  5
4C2
330
34
100
AcDbDictionary
280
     1
281
     1
  3
ACAD_XREC_ROUNDTRIP
360
4C3
  0
DICTIONARY
  5
4C4
330
35
100
AcDbDictionary
280
     1
281
     1
  3
ACAD_XREC_ROUNDTRIP
360
4C5
  0
DICTIONARY
  5
4CC
330
39
100
AcDbDictionary
280
     1
281
     1
  3
ACAD_XREC_ROUNDTRIP
360
4CD
  0
DICTIONARY
  5
4B0
330
2B
100
AcDbDictionary
280
     1
281
     1
  3
ACAD_XREC_ROUNDTRIP
360
4B1
  0
DICTIONARY
  5
4B2
330
2C
100
AcDbDictionary
280
     1
281
     1
  3
ACAD_XREC_ROUNDTRIP
360
4B3
  0
DICTIONARY
  5
4B4
330
2D
100
AcDbDictionary
280
     1
281
     1
  3
ACAD_XREC_ROUNDTRIP
360
4B5
  0
DICTIONARY
  5
4B6
330
2E
100
AcDbDictionary
280
     1
281
     1
  3
ACAD_XREC_ROUNDTRIP
360
4B7
  0
DICTIONARY
  5
4CA
330
38
100
AcDbDictionary
280
     1
281
     1
  3
ACAD_XREC_ROUNDTRIP
360
4CB
  0
DICTIONARY
  5
4C0
330
33
100
AcDbDictionary
280
     1
281
     1
  3
ACAD_XREC_ROUNDTRIP
360
4C1
  0
DICTIONARY
  5
4C8
330
37
100
AcDbDictionary
280
     1
281
     1
  3
ACAD_XREC_ROUNDTRIP
360
4C9
  0
XRECORD
  5
4D3
102
{ACAD_REACTORS
330
4D2
102
}
330
4D2
100
AcDbXrecord
280
     1
102
MATERIAL
148
0.0
149
0.0
149
0.0
 93
        0
 94
      127
282
     0
 72
     1
 77
     1
171
     1
175
     1
179
     1
273
     0
  0
XRECORD
  5
4D1
102
{ACAD_REACTORS
330
4D0
102
}
330
4D0
100
AcDbXrecord
280
     1
102
MATERIAL
148
0.0
149
0.0
149
0.0
 93
        0
 94
      127
282
     0
 72
     1
 77
     1
171
     1
175
     1
179
     1
273
     0
  0
XRECORD
  5
4D5
102
{ACAD_REACTORS
330
4D4
102
}
330
4D4
100
AcDbXrecord
280
     1
102
MATERIAL
148
0.0
149
0.0
149
0.0
 93
        0
 94
      127
282
     0
 72
     1
 77
     1
171
     1
175
     1
179
     1
273
     0
  0
XRECORD
  5
4B9
102
{ACAD_REACTORS
330
4B8
102
}
330
4B8
100
AcDbXrecord
280
     1
102
RTVSPropertyOp0
 70
     1
102
RTVSPropertyOp1
 70
     1
102
RTVSPropertyOp2
 70
     1
102
RTVSPropertyOp3
 70
     1
102
RTVSPropertyOp4
 70
     1
102
RTVSPropertyOp5
 70
     1
102
RTVSPropertyOp6
 70
     1
102
RTVSPropertyOp7
 70
     1
102
RTVSPropertyOp8
 70
     1
102
RTVSPropertyOp9
 70
     1
102
RTVSPropertyOp10
 70
     1
102
RTVSPropertyOp11
 70
     1
102
RTVSPropertyOp12
 70
     1
102
RTVSPropertyOp13
 70
     1
102
RTVSPropertyOp14
 70
     1
102
RTVSPropertyOp15
 70
     1
102
RTVSPropertyOp16
 70
     1
102
RTVSPropertyOp17
 70
     1
102
RTVSPropertyOp18
 70
     1
102
RTVSPropertyOp19
 70
     1
102
RTVSPropertyOp20
 70
     1
102
RTVSPropertyOp21
 70
     1
102
RTVSPropertyOp22
 70
     1
102
RTVSPropertyOp23
 70
     1
102
RTVSPropertyOp24
 70
     1
102
RTVSPropertyOp25
 70
     1
102
RTVSPropertyOp26
 70
     1
102
RTVSPropertyOp27
 70
     1
  0
XRECORD
  5
4BD
102
{ACAD_REACTORS
330
4BC
102
}
330
4BC
100
AcDbXrecord
280
     1
102
RTVSPropertyOp0
 70
     1
102
RTVSPropertyOp1
 70
     1
102
RTVSPropertyOp2
 70
     1
102
RTVSPropertyOp3
 70
     1
102
RTVSPropertyOp4
 70
     1
102
RTVSPropertyOp5
 70
     1
102
RTVSPropertyOp6
 70
     1
102
RTVSPropertyOp7
 70
     1
102
RTVSPropertyOp8
 70
     1
102
RTVSPropertyOp9
 70
     1
102
RTVSPropertyOp10
 70
     1
102
RTVSPropertyOp11
 70
     1
102
RTVSPropertyOp12
 70
     1
102
RTVSPropertyOp13
 70
     1
102
RTVSPropertyOp14
 70
     1
102
RTVSPropertyOp15
 70
     1
102
RTVSPropertyOp16
 70
     1
102
RTVSPropertyOp17
 70
     1
102
RTVSPropertyOp18
 70
     1
102
RTVSPropertyOp19
 70
     1
102
RTVSPropertyOp20
 70
     1
102
RTVSPropertyOp21
 70
     1
102
RTVSPropertyOp22
 70
     1
102
RTVSPropertyOp23
 70
     1
102
RTVSPropertyOp24
 70
     1
102
RTVSPropertyOp25
 70
     1
102
RTVSPropertyOp26
 70
     1
102
RTVSPropertyOp27
 70
     1
  0
XRECORD
  5
4BB
102
{ACAD_REACTORS
330
4BA
102
}
330
4BA
100
AcDbXrecord
280
     1
102
RTVSPropertyOp0
 70
     1
102
RTVSPropertyOp1
 70
     1
102
RTVSPropertyOp2
 70
     1
102
RTVSPropertyOp3
 70
     1
102
RTVSPropertyOp4
 70
     1
102
RTVSPropertyOp5
 70
     1
102
RTVSPropertyOp6
 70
     1
102
RTVSPropertyOp7
 70
     1
102
RTVSPropertyOp8
 70
     1
102
RTVSPropertyOp9
 70
     1
102
RTVSPropertyOp10
 70
     1
102
RTVSPropertyOp11
 70
     1
102
RTVSPropertyOp12
 70
     1
102
RTVSPropertyOp13
 70
     1
102
RTVSPropertyOp14
 70
     1
102
RTVSPropertyOp15
 70
     1
102
RTVSPropertyOp16
 70
     1
102
RTVSPropertyOp17
 70
     1
102
RTVSPropertyOp18
 70
     1
102
RTVSPropertyOp19
 70
     1
102
RTVSPropertyOp20
 70
     1
102
RTVSPropertyOp21
 70
     1
102
RTVSPropertyOp22
 70
     1
102
RTVSPropertyOp23
 70
     1
102
RTVSPropertyOp24
 70
     1
102
RTVSPropertyOp25
 70
     1
102
RTVSPropertyOp26
 70
     1
102
RTVSPropertyOp27
 70
     1
  0
XRECORD
  5
4BF
102
{ACAD_REACTORS
330
4BE
102
}
330
4BE
100
AcDbXrecord
280
     1
102
RTVSPropertyOp0
 70
     1
102
RTVSPropertyOp1
 70
     1
102
RTVSPropertyOp2
 70
     1
102
RTVSPropertyOp3
 70
     1
102
RTVSPropertyOp4
 70
     1
102
RTVSPropertyOp5
 70
     1
102
RTVSPropertyOp6
 70
     1
102
RTVSPropertyOp7
 70
     1
102
RTVSPropertyOp8
 70
     1
102
RTVSPropertyOp9
 70
     1
102
RTVSPropertyOp10
 70
     1
102
RTVSPropertyOp11
 70
     1
102
RTVSPropertyOp12
 70
     1
102
RTVSPropertyOp13
 70
     1
102
RTVSPropertyOp14
 70
     1
102
RTVSPropertyOp15
 70
     1
102
RTVSPropertyOp16
 70
     1
102
RTVSPropertyOp17
 70
     1
102
RTVSPropertyOp18
 70
     1
102
RTVSPropertyOp19
 70
     1
102
RTVSPropertyOp20
 70
     1
102
RTVSPropertyOp21
 70
     1
102
RTVSPropertyOp22
 70
     1
102
RTVSPropertyOp23
 70
     1
102
RTVSPropertyOp24
 70
     1
102
RTVSPropertyOp25
 70
     1
102
RTVSPropertyOp26
 70
     1
102
RTVSPropertyOp27
 70
     1
  0
XRECORD
  5
4C7
102
{ACAD_REACTORS
330
4C6
102
}
330
4C6
100
AcDbXrecord
280
     1
102
RTVSPropertyOp0
 70
     1
102
RTVSPropertyOp1
 70
     1
102
RTVSPropertyOp2
 70
     1
102
RTVSPropertyOp3
 70
     1
102
RTVSPropertyOp4
 70
     1
102
RTVSPropertyOp5
 70
     1
102
RTVSPropertyOp6
 70
     1
102
RTVSPropertyOp7
 70
     1
102
RTVSPropertyOp8
 70
     1
102
RTVSPropertyOp9
 70
     1
102
RTVSPropertyOp10
 70
     1
102
RTVSPropertyOp11
 70
     1
102
RTVSPropertyOp12
 70
     1
102
RTVSPropertyOp13
 70
     1
102
RTVSPropertyOp14
 70
     1
102
RTVSPropertyOp15
 70
     1
102
RTVSPropertyOp16
 70
     1
102
RTVSPropertyOp17
 70
     1
102
RTVSPropertyOp18
 70
     1
102
RTVSPropertyOp19
 70
     1
102
RTVSPropertyOp20
 70
     1
102
RTVSPropertyOp21
 70
     1
102
RTVSPropertyOp22
 70
     1
102
RTVSPropertyOp23
 70
     1
102
RTVSPropertyOp24
 70
     1
102
RTVSPropertyOp25
 70
     1
102
RTVSPropertyOp26
 70
     1
102
RTVSPropertyOp27
 70
     1
  0
XRECORD
  5
4CF
102
{ACAD_REACTORS
330
4CE
102
}
330
4CE
100
AcDbXrecord
280
     1
102
RTVSPropertyOp0
 70
     1
102
RTVSPropertyOp1
 70
     1
102
RTVSPropertyOp2
 70
     1
102
RTVSPropertyOp3
 70
     1
102
RTVSPropertyOp4
 70
     1
102
RTVSPropertyOp5
 70
     1
102
RTVSPropertyOp6
 70
     1
102
RTVSPropertyOp7
 70
     1
102
RTVSPropertyOp8
 70
     1
102
RTVSPropertyOp9
 70
     1
102
RTVSPropertyOp10
 70
     1
102
RTVSPropertyOp11
 70
     1
102
RTVSPropertyOp12
 70
     1
102
RTVSPropertyOp13
 70
     1
102
RTVSPropertyOp14
 70
     1
102
RTVSPropertyOp15
 70
     1
102
RTVSPropertyOp16
 70
     1
102
RTVSPropertyOp17
 70
     1
102
RTVSPropertyOp18
 70
     1
102
RTVSPropertyOp19
 70
     1
102
RTVSPropertyOp20
 70
     1
102
RTVSPropertyOp21
 70
     1
102
RTVSPropertyOp22
 70
     1
102
RTVSPropertyOp23
 70
     1
102
RTVSPropertyOp24
 70
     1
102
RTVSPropertyOp25
 70
     1
102
RTVSPropertyOp26
 70
     1
102
RTVSPropertyOp27
 70
     1
  0
XRECORD
  5
4C3
102
{ACAD_REACTORS
330
4C2
102
}
330
4C2
100
AcDbXrecord
280
     1
102
RTVSPropertyOp0
 70
     1
102
RTVSPropertyOp1
 70
     1
102
RTVSPropertyOp2
 70
     1
102
RTVSPropertyOp3
 70
     1
102
RTVSPropertyOp4
 70
     1
102
RTVSPropertyOp5
 70
     1
102
RTVSPropertyOp6
 70
     1
102
RTVSPropertyOp7
 70
     1
102
RTVSPropertyOp8
 70
     1
102
RTVSPropertyOp9
 70
     1
102
RTVSPropertyOp10
 70
     1
102
RTVSPropertyOp11
 70
     1
102
RTVSPropertyOp12
 70
     1
102
RTVSPropertyOp13
 70
     1
102
RTVSPropertyOp14
 70
     1
102
RTVSPropertyOp15
 70
     1
102
RTVSPropertyOp16
 70
     1
102
RTVSPropertyOp17
 70
     1
102
RTVSPropertyOp18
 70
     1
102
RTVSPropertyOp19
 70
     1
102
RTVSPropertyOp20
 70
     1
102
RTVSPropertyOp21
 70
     1
102
RTVSPropertyOp22
 70
     1
102
RTVSPropertyOp23
 70
     1
102
RTVSPropertyOp24
 70
     1
102
RTVSPropertyOp25
 70
     1
102
RTVSPropertyOp26
 70
     1
102
RTVSPropertyOp27
 70
     1
  0
XRECORD
  5
4C5
102
{ACAD_REACTORS
330
4C4
102
}
330
4C4
100
AcDbXrecord
280
     1
102
RTVSPropertyOp0
 70
     1
102
RTVSPropertyOp1
 70
     1
102
RTVSPropertyOp2
 70
     1
102
RTVSPropertyOp3
 70
     1
102
RTVSPropertyOp4
 70
     1
102
RTVSPropertyOp5
 70
     1
102
RTVSPropertyOp6
 70
     1
102
RTVSPropertyOp7
 70
     1
102
RTVSPropertyOp8
 70
     1
102
RTVSPropertyOp9
 70
     1
102
RTVSPropertyOp10
 70
     1
102
RTVSPropertyOp11
 70
     1
102
RTVSPropertyOp12
 70
     1
102
RTVSPropertyOp13
 70
     1
102
RTVSPropertyOp14
 70
     1
102
RTVSPropertyOp15
 70
     1
102
RTVSPropertyOp16
 70
     1
102
RTVSPropertyOp17
 70
     1
102
RTVSPropertyOp18
 70
     1
102
RTVSPropertyOp19
 70
     1
102
RTVSPropertyOp20
 70
     1
102
RTVSPropertyOp21
 70
     1
102
RTVSPropertyOp22
 70
     1
102
RTVSPropertyOp23
 70
     1
102
RTVSPropertyOp24
 70
     1
102
RTVSPropertyOp25
 70
     1
102
RTVSPropertyOp26
 70
     1
102
RTVSPropertyOp27
 70
     1
  0
XRECORD
  5
4CD
102
{ACAD_REACTORS
330
4CC
102
}
330
4CC
100
AcDbXrecord
280
     1
102
RTVSPropertyOp0
 70
     1
102
RTVSPropertyOp1
 70
     1
102
RTVSPropertyOp2
 70
     1
102
RTVSPropertyOp3
 70
     1
102
RTVSPropertyOp4
 70
     1
102
RTVSPropertyOp5
 70
     1
102
RTVSPropertyOp6
 70
     1
102
RTVSPropertyOp7
 70
     1
102
RTVSPropertyOp8
 70
     1
102
RTVSPropertyOp9
 70
     1
102
RTVSPropertyOp10
 70
     1
102
RTVSPropertyOp11
 70
     1
102
RTVSPropertyOp12
 70
     1
102
RTVSPropertyOp13
 70
     1
102
RTVSPropertyOp14
 70
     1
102
RTVSPropertyOp15
 70
     1
102
RTVSPropertyOp16
 70
     1
102
RTVSPropertyOp17
 70
     1
102
RTVSPropertyOp18
 70
     1
102
RTVSPropertyOp19
 70
     1
102
RTVSPropertyOp20
 70
     1
102
RTVSPropertyOp21
 70
     1
102
RTVSPropertyOp22
 70
     1
102
RTVSPropertyOp23
 70
     1
102
RTVSPropertyOp24
 70
     1
102
RTVSPropertyOp25
 70
     1
102
RTVSPropertyOp26
 70
     1
102
RTVSPropertyOp27
 70
     1
  0
XRECORD
  5
4B1
102
{ACAD_REACTORS
330
4B0
102
}
330
4B0
100
AcDbXrecord
280
     1
102
RTVSPropertyOp0
 70
     1
102
RTVSPropertyOp1
 70
     1
102
RTVSPropertyOp2
 70
     1
102
RTVSPropertyOp3
 70
     1
102
RTVSPropertyOp4
 70
     1
102
RTVSPropertyOp5
 70
     1
102
RTVSPropertyOp6
 70
     1
102
RTVSPropertyOp7
 70
     1
102
RTVSPropertyOp8
 70
     1
102
RTVSPropertyOp9
 70
     1
102
RTVSPropertyOp10
 70
     1
102
RTVSPropertyOp11
 70
     1
102
RTVSPropertyOp12
 70
     1
102
RTVSPropertyOp13
 70
     1
102
RTVSPropertyOp14
 70
     1
102
RTVSPropertyOp15
 70
     1
102
RTVSPropertyOp16
 70
     1
102
RTVSPropertyOp17
 70
     1
102
RTVSPropertyOp18
 70
     1
102
RTVSPropertyOp19
 70
     1
102
RTVSPropertyOp20
 70
     1
102
RTVSPropertyOp21
 70
     1
102
RTVSPropertyOp22
 70
     1
102
RTVSPropertyOp23
 70
     1
102
RTVSPropertyOp24
 70
     1
102
RTVSPropertyOp25
 70
     1
102
RTVSPropertyOp26
 70
     1
102
RTVSPropertyOp27
 70
     1
  0
XRECORD
  5
4B3
102
{ACAD_REACTORS
330
4B2
102
}
330
4B2
100
AcDbXrecord
280
     1
102
RTVSPropertyOp0
 70
     1
102
RTVSPropertyOp1
 70
     1
102
RTVSPropertyOp2
 70
     1
102
RTVSPropertyOp3
 70
     1
102
RTVSPropertyOp4
 70
     1
102
RTVSPropertyOp5
 70
     1
102
RTVSPropertyOp6
 70
     1
102
RTVSPropertyOp7
 70
     1
102
RTVSPropertyOp8
 70
     1
102
RTVSPropertyOp9
 70
     1
102
RTVSPropertyOp10
 70
     1
102
RTVSPropertyOp11
 70
     1
102
RTVSPropertyOp12
 70
     1
102
RTVSPropertyOp13
 70
     1
102
RTVSPropertyOp14
 70
     1
102
RTVSPropertyOp15
 70
     1
102
RTVSPropertyOp16
 70
     1
102
RTVSPropertyOp17
 70
     1
102
RTVSPropertyOp18
 70
     1
102
RTVSPropertyOp19
 70
     1
102
RTVSPropertyOp20
 70
     1
102
RTVSPropertyOp21
 70
     1
102
RTVSPropertyOp22
 70
     1
102
RTVSPropertyOp23
 70
     1
102
RTVSPropertyOp24
 70
     1
102
RTVSPropertyOp25
 70
     1
102
RTVSPropertyOp26
 70
     1
102
RTVSPropertyOp27
 70
     1
  0
XRECORD
  5
4B5
102
{ACAD_REACTORS
330
4B4
102
}
330
4B4
100
AcDbXrecord
280
     1
102
RTVSPropertyOp0
 70
     1
102
RTVSPropertyOp1
 70
     1
102
RTVSPropertyOp2
 70
     1
102
RTVSPropertyOp3
 70
     1
102
RTVSPropertyOp4
 70
     1
102
RTVSPropertyOp5
 70
     1
102
RTVSPropertyOp6
 70
     1
102
RTVSPropertyOp7
 70
     1
102
RTVSPropertyOp8
 70
     1
102
RTVSPropertyOp9
 70
     1
102
RTVSPropertyOp10
 70
     1
102
RTVSPropertyOp11
 70
     1
102
RTVSPropertyOp12
 70
     1
102
RTVSPropertyOp13
 70
     1
102
RTVSPropertyOp14
 70
     1
102
RTVSPropertyOp15
 70
     1
102
RTVSPropertyOp16
 70
     1
102
RTVSPropertyOp17
 70
     1
102
RTVSPropertyOp18
 70
     1
102
RTVSPropertyOp19
 70
     1
102
RTVSPropertyOp20
 70
     1
102
RTVSPropertyOp21
 70
     1
102
RTVSPropertyOp22
 70
     1
102
RTVSPropertyOp23
 70
     1
102
RTVSPropertyOp24
 70
     1
102
RTVSPropertyOp25
 70
     1
102
RTVSPropertyOp26
 70
     1
102
RTVSPropertyOp27
 70
     1
  0
XRECORD
  5
4B7
102
{ACAD_REACTORS
330
4B6
102
}
330
4B6
100
AcDbXrecord
280
     1
102
RTVSPropertyOp0
 70
     1
102
RTVSPropertyOp1
 70
     1
102
RTVSPropertyOp2
 70
     1
102
RTVSPropertyOp3
 70
     1
102
RTVSPropertyOp4
 70
     1
102
RTVSPropertyOp5
 70
     1
102
RTVSPropertyOp6
 70
     1
102
RTVSPropertyOp7
 70
     1
102
RTVSPropertyOp8
 70
     1
102
RTVSPropertyOp9
 70
     1
102
RTVSPropertyOp10
 70
     1
102
RTVSPropertyOp11
 70
     1
102
RTVSPropertyOp12
 70
     1
102
RTVSPropertyOp13
 70
     1
102
RTVSPropertyOp14
 70
     1
102
RTVSPropertyOp15
 70
     1
102
RTVSPropertyOp16
 70
     1
102
RTVSPropertyOp17
 70
     1
102
RTVSPropertyOp18
 70
     1
102
RTVSPropertyOp19
 70
     1
102
RTVSPropertyOp20
 70
     1
102
RTVSPropertyOp21
 70
     1
102
RTVSPropertyOp22
 70
     1
102
RTVSPropertyOp23
 70
     1
102
RTVSPropertyOp24
 70
     1
102
RTVSPropertyOp25
 70
     1
102
RTVSPropertyOp26
 70
     1
102
RTVSPropertyOp27
 70
     1
  0
XRECORD
  5
4CB
102
{ACAD_REACTORS
330
4CA
102
}
330
4CA
100
AcDbXrecord
280
     1
102
RTVSPropertyOp0
 70
     1
102
RTVSPropertyOp1
 70
     1
102
RTVSPropertyOp2
 70
     1
102
RTVSPropertyOp3
 70
     1
102
RTVSPropertyOp4
 70
     1
102
RTVSPropertyOp5
 70
     1
102
RTVSPropertyOp6
 70
     1
102
RTVSPropertyOp7
 70
     1
102
RTVSPropertyOp8
 70
     1
102
RTVSPropertyOp9
 70
     1
102
RTVSPropertyOp10
 70
     1
102
RTVSPropertyOp11
 70
     1
102
RTVSPropertyOp12
 70
     1
102
RTVSPropertyOp13
 70
     1
102
RTVSPropertyOp14
 70
     1
102
RTVSPropertyOp15
 70
     1
102
RTVSPropertyOp16
 70
     1
102
RTVSPropertyOp17
 70
     1
102
RTVSPropertyOp18
 70
     1
102
RTVSPropertyOp19
 70
     1
102
RTVSPropertyOp20
 70
     1
102
RTVSPropertyOp21
 70
     1
102
RTVSPropertyOp22
 70
     1
102
RTVSPropertyOp23
 70
     1
102
RTVSPropertyOp24
 70
     1
102
RTVSPropertyOp25
 70
     1
102
RTVSPropertyOp26
 70
     1
102
RTVSPropertyOp27
 70
     1
  0
XRECORD
  5
4C1
102
{ACAD_REACTORS
330
4C0
102
}
330
4C0
100
AcDbXrecord
280
     1
102
RTVSPropertyOp0
 70
     1
102
RTVSPropertyOp1
 70
     1
102
RTVSPropertyOp2
 70
     1
102
RTVSPropertyOp3
 70
     1
102
RTVSPropertyOp4
 70
     1
102
RTVSPropertyOp5
 70
     1
102
RTVSPropertyOp6
 70
     1
102
RTVSPropertyOp7
 70
     1
102
RTVSPropertyOp8
 70
     1
102
RTVSPropertyOp9
 70
     1
102
RTVSPropertyOp10
 70
     1
102
RTVSPropertyOp11
 70
     1
102
RTVSPropertyOp12
 70
     1
102
RTVSPropertyOp13
 70
     1
102
RTVSPropertyOp14
 70
     1
102
RTVSPropertyOp15
 70
     1
102
RTVSPropertyOp16
 70
     1
102
RTVSPropertyOp17
 70
     1
102
RTVSPropertyOp18
 70
     1
102
RTVSPropertyOp19
 70
     1
102
RTVSPropertyOp20
 70
     1
102
RTVSPropertyOp21
 70
     1
102
RTVSPropertyOp22
 70
     1
102
RTVSPropertyOp23
 70
     1
102
RTVSPropertyOp24
 70
     1
102
RTVSPropertyOp25
 70
     1
102
RTVSPropertyOp26
 70
     1
102
RTVSPropertyOp27
 70
     1
  0
XRECORD
  5
4C9
102
{ACAD_REACTORS
330
4C8
102
}
330
4C8
100
AcDbXrecord
280
     1
102
RTVSPropertyOp0
 70
     1
102
RTVSPropertyOp1
 70
     1
102
RTVSPropertyOp2
 70
     1
102
RTVSPropertyOp3
 70
     1
102
RTVSPropertyOp4
 70
     1
102
RTVSPropertyOp5
 70
     1
102
RTVSPropertyOp6
 70
     1
102
RTVSPropertyOp7
 70
     1
102
RTVSPropertyOp8
 70
     1
102
RTVSPropertyOp9
 70
     1
102
RTVSPropertyOp10
 70
     1
102
RTVSPropertyOp11
 70
     1
102
RTVSPropertyOp12
 70
     1
102
RTVSPropertyOp13
 70
     1
102
RTVSPropertyOp14
 70
     1
102
RTVSPropertyOp15
 70
     1
102
RTVSPropertyOp16
 70
     1
102
RTVSPropertyOp17
 70
     1
102
RTVSPropertyOp18
 70
     1
102
RTVSPropertyOp19
 70
     1
102
RTVSPropertyOp20
 70
     1
102
RTVSPropertyOp21
 70
     1
102
RTVSPropertyOp22
 70
     1
102
RTVSPropertyOp23
 70
     1
102
RTVSPropertyOp24
 70
     1
102
RTVSPropertyOp25
 70
     1
102
RTVSPropertyOp26
 70
     1
102
RTVSPropertyOp27
 70
     1
  0
ENDSEC
  0
SECTION
  2
THUMBNAILIMAGE
 90
    45386
310
28000000D2000000D1000000010008000000000014AD000000000000000000000000000000000000000000000000330000006600000099000000CC000000FF00003300000033330000336600003399000033CC000033FF00006600000066330000666600006699000066CC000066FF00009900000099330000996600009999
310
000099CC000099FF0000CC000000CC330000CC660000CC990000CCCC0000CCFF0000FF000000FF330000FF660000FF990000FFCC0000FFFF00330000003300330033006600330099003300CC003300FF00333300003333330033336600333399003333CC003333FF00336600003366330033666600336699003366CC003366
310
FF00339900003399330033996600339999003399CC003399FF0033CC000033CC330033CC660033CC990033CCCC0033CCFF0033FF000033FF330033FF660033FF990033FFCC0033FFFF00660000006600330066006600660099006600CC006600FF00663300006633330066336600663399006633CC006633FF006666000066
310
66330066666600666699006666CC006666FF00669900006699330066996600669999006699CC006699FF0066CC000066CC330066CC660066CC990066CCCC0066CCFF0066FF000066FF330066FF660066FF990066FFCC0066FFFF00990000009900330099006600990099009900CC009900FF00993300009933330099336600
310
993399009933CC009933FF00996600009966330099666600996699009966CC009966FF00999900009999330099996600999999009999CC009999FF0099CC000099CC330099CC660099CC990099CCCC0099CCFF0099FF000099FF330099FF660099FF990099FFCC0099FFFF00CC000000CC003300CC006600CC009900CC00CC
310
00CC00FF00CC330000CC333300CC336600CC339900CC33CC00CC33FF00CC660000CC663300CC666600CC669900CC66CC00CC66FF00CC990000CC993300CC996600CC999900CC99CC00CC99FF00CCCC0000CCCC3300CCCC6600CCCC9900CCCCCC00CCCCFF00CCFF0000CCFF3300CCFF6600CCFF9900CCFFCC00CCFFFF00FF00
310
0000FF003300FF006600FF009900FF00CC00FF00FF00FF330000FF333300FF336600FF339900FF33CC00FF33FF00FF660000FF663300FF666600FF669900FF66CC00FF66FF00FF990000FF993300FF996600FF999900FF99CC00FF99FF00FFCC0000FFCC3300FFCC6600FFCC9900FFCCCC00FFCCFF00FFFF0000FFFF3300FF
310
FF6600FFFF9900FFFFCC00FFFFFF0000000000000000000000000000000000000000000000000000000000000000000000000000000000000000000000000000000000000000000000000000000000000000000000000000000000000000000000000000000000000000000000000000000000000000000000000000000000
310
000000000000000000000000000000000000000000000000000000000000000000000000000000000000000000000000D7D7D7D7D7D7D7D7D7D7D7D7D7D7D7D7D7D7D7D7D7D7D7D7D7D7D7D7D7D7D7D7D7D7D7D7D7D7D7D7D7D7D7D7D7D7D7D7D7D7D7D7D7D7D7D7D7D7D7D7D7D7D7D7D7D7D7D7D7D7D7D7D7D7D7D7D7D7D7
310
D7D7D7D7D7D7D7D7D7D7D7D7D7D7D7D7D7D7D7D7D7D7D7D7D7D7D7D7D7D7D7D7D7D7D7D7D7D7D7D7D7D7D7D7D7D7D7D7D7D7D7D7D7D7D7D7D7D7D7D7D7D7D7D7D7D7D7D7D7D7D7D7D7D7D7D7D7D7D7D7D7D7D7D7D7D7D7D7D7D7D7D7D7D7D7D7D7D7D7D7D7D7D7D7D7D7D7D7D7D7D7D7D7D7D7D7D7D7D7D7D7D7D7D7D7D7D7
310
D7D7D7D70000D7D7D7D7D7D7D7D7D7D7D7D7D7D7D7D7D7D7D7D7D7D7D7D7D7D7D7D7D7D7D7D7D7D7D7D7D7D7D7D7D7D7D7D7D7D7D7D7D7D7D7D7D7D7D7D7D7D7D7D7D7D7D7D7D7D7D7D7D7D7D7D7D7D7D7D7D7D7D7D7D7D7D7D7D7D7D7D7D7D7D7D7D7D7D7D7D7D7D7D7D7D7D7D7D7D7D7D7D7D7D7D7D7D7D7D7D7D7D7D7D7
310
D7D7D7D7D7D7D7D7D7D7D7D7D7D7D7D7D7D7D7D7D7D7D7D7D7D7D7D7D7D7D7D7D7D7D7D7D7D7D7D7D7D7D7D7D7D7D7D7D7D7D7D7D7D7D7D7D7D7D7D7D7D7D7D7D7D7D7D7D7D7D7D7D7D7D7D7D7D7D7D7D7D7D7D7D7D7D7D7D70000D7D7D7D7D7D7D7D7D7D7D7D7D7D7D7D7D7D7D7D7D7D7D7D7D7D7D7D7D7D7D7D7D7D7D7D7
310
D7D7D7D7D7D7D7D7D7D7D7D7D7D7D7D7D7D7D7D7D7D7D7D7D7D7D7D7D7D7D7D7D7D7D7D7D7D7D7D7D7D7D7D7D7D7D7D7D7D7D7D7D7D7D7D7D7D7D7D7D7D7D7D7D7D7D7D7D7D7D7D7D7D7D7D7D7D7D7D7D7D7D7D7D7D7D7D7D7D7D7D7D7D7D7D7D7D7D7D7D7D7D7D7D7D7D7D7D7D7D7D7D7D7D7D7D7D7D7D7D7D7D7D7D7D7D7
310
D7D7D7D7D7D7D7D7D7D7D7D7D7D7D7D7D7D7D7D7D7D7D7D7D7D7D7D7D7D7D7D7D7D7D7D7D7D7D7D7D7D7D7D7D7D7D70000D7D7D7D7D7D7D7D7D7D7D7D7D7D7D7D7D7D7D7D7D7D7D7D7D7D7D7D7D7D7D7D7D7D7D7D7D7D7D7D7D7D7D7D7D7D7D7D7D7D7D7D7D7D7D7D7D7D7D7D7D7D7D7D7D7D7D7D7D7D7D7D7D7D7D7D7D7D7
310
D7D7D7D7D7D7D7D7D7D7D7D7D7D7D7D7D7D7D7D7D7D7D7D7D7D7D7D7D7D7D7D7D7D7D7D7D7D7D7D7D7D7D7D7D7D7D7D7D7D7D7D7D7D7D7D7D7D7D7D7D7D7D7D7D7D7D7D7D7D7D7D7D7D7D7D7D7D7D7D7D7D7D7D7D7D7D7D7D7D7D7D7D7D7D7D7D7D7D7D7D7D7D7D7D7D7D7D7D7D7D7D7D7D7D7D7D7D7D7D7D7D7D7D7D7D7D7
310
D7D7D7D7D70000D7D7D7D7D7D7D7D7D7D7D7D7D7D7D7D7D7D7D7D7D7D7D7D7D7D7D7D7D7D7D7D7D7D7D7D7D7D7D7D7D7D7D7D7D7D7D7D7D7D7D7D7D7D7D7D7D7D7D7D7D7D7D7D7D7D7D7D7D7D7D7D7D7D7D7D7D7D7D7D7D7D7D7D7D7D7D7D7D7D7D7D7D7D7D7D7D7D7D7D7D7D7D7D7D7D7D7D7D7D7D7D7D7D7D7D7D7D7D7D7
310
D7D7D7D7D7D7D7D7D7D7D7D7D7D7D7D7D7D7D7D7D7D7D7D7D7D7D7D7D7D7D7D7D7D7D7D7D7D7D7D7D7D7D7D7D7D7D7D7D7D7D7D7D7D7D7D7D7D7D7D7D7D7D7D7D7D7D7D7D7D7D7D7D7D7D7D7D7D7D7D7D7D7D7D7D7D7D7D7D7D70000D7D7D7D7D7D7D7D7D7D7D7D7D7D7D7D7D7D7D7D7D7D7D7D7D7D7D7D7D7D7D7D7D7D7D7
310
D7D7D7D7D7D7D7D7D7D7D7D7D7D7D7D7D7D7D7D7D7D7D7D7D7D7D7D7D7D7D7D7D7D7D7D7D7D7D7D7D7D7D7D7D7D7D7D7D7D7D7D7D7D7D7D7D7D7D7D7D7D7D7D7D7D7D7D7D7D7D7D7D7D7D7D7D7D7D7D7D7D7D7D7D7D7D7D7D7D7D7D7D7D7D7D7D7D7D7D7D7D7D7D7D7D7D7D7D7D7D7D7D7D7D7D7D7D7D7D7D7D7D7D7D7D7D7
310
D7D7D7D7D7D7D7D7D7D7D7D7D7D7D7D7D7D7D7D7D7D7D7D7D7D7D7D7D7D7D7D7D7D7D7D7D7D7D7D7D7D7D7D7D7D7D7D70000D7D7D7D7D7D7D7D7D7D7D7D7D7D7D7D7D7D7D7D7D7D7D7D7D7D7D7D7D7D7D7D7D7D7D7D7D7D7D7D7D7D7D7D7D7D7D7D7D7D7D7D7D7D7D7D7D7D7D7D7D7D7D7D7D7D7D7D7D7D7D7D7D7D7D7D7D7
310
D7D7D7D7D7D7D7D7D7D7D7D7D7D7D7D7D7D7D7D7D7D7D7D7D7D7D7D7D7D7D7D7D7D7D7D7D7D7D7D7D7D7D7D7D7D7D7D7D7D7D7D7D7D7D7D7D7D7D7D7D7D7D7D7D7D7D7D7D7D7D7D7D7D7D7D7D7D7D7D7D7D7D7D7D7D7D7D7D7D7D7D7D7D7D7D7D7D7D7D7D7D7D7D7D7D7D7D7D7D7D7D7D7D7D7D7D7D7D7D7D7D7D7D7D7D7D7
310
D7D7D7D7D7D70000D7D7D7D7D7D7D7D7D7D7D7D7D7D7D7D7D7D7D7D7D7D7D7D7D7D7D7D7D7D7D7D7D7D7D7D7D7D7D7D7D7D7D7D7D7D7D7D7D7D7D7D7D7D7D7D7D7D7D7D7D7D7D7D7D7D7D7D7D7D7D7D7D7D7D7D7D7D7D7D7D7D7D7D7D7D7D7D7D7D7D7D7D7D7D7D7D7D7D7D7D7D7D7D7D7D7D7D7D7D7D7D7D7D7D7D7D7D7D7
310
D7D7D7D7D7D7D7D7D7D7D7D7D7D7D7D7D7D7D7D7D7D7D7D7D7D7D7D7D7D7D7D7D7D7D7D7D7D7D7D7D7D7D7D7D7D7D7D7D7D7D7D7D7D7D7D7D7D7D7D7D7D7D7D7D7D7D7D7D7D7D7D7D7D7D7D7D7D7D7D7D7D7D7D7D7D7D7D7D7D7D70000D7D7D7D7D7D7D7D7D7D7D7D7D7D7D7D7D7D7D7D7D7D7D7D7D7D7D7D7D7D7D7D7D7D7
310
D7D7D7D7D7D7D7D7D7D7D7D7D7D7D7D7D7D7D7D7D7D7D7D7D7D7D7D7D7D7D7D7D7D7D7D7D7D7D7D7D7D7D7D7D7D7D7D7D7D7D7D7D7D7D7D7D7D7D7D7D7D7D7D7D7D7D7D7D7D7D7D7D7D7D7D7D7D7D7D7D7D7D7D7D7D7D7D7D7D7D7D7D7D7D7D7D7D7D7D7D7D7D7D7D7D7D7D7D7D7D7D7D7D7D7D7D7D7D7D7D7D7D7D7D7D7D7
310
D7D7D7D7D7D7D7D7D7D7D7D7D7D7D7D7D7D7D7D7D7D7D7D7D7D7D7D7D7D7D7D7D7D7D7D7D7D7D7D7D7D7D7D7D7D7D7D7D70000D7D7D7D7D7D7D7D7D700000000000000000000000000000000000000000000000000000000000000000000000000000000000000000000000000000000000000000000000000000000000000
310
0000000000000000000000000000000000000000000000000000000000000000000000000000000000000000000000000000000000000000000000000000000000000000000000000000000000000000000000000000000000000000000000000000000000000000000000000000000000000000000000000000000000D7D7
310
D7D7D7D7D7D7D70000D7D7D7D7D7D7D7D7D700D7D7D7D7D7D7D7D7D7D7D7D7D7D7D7D7D7D7D7D7D7D7D7D7D7D7D7D7D7D7D7D7D7D7D7D7D7D7D7D7D7D7D7D7D7D7D7D7D7D7D7D7D7D7D7D7D7D7D7D7D7D7D7D7D7D7D7D7D7D7D7D7D7D7D7D7D7D7D7D7D7D7D7D7D7D7D7D7D7D7D7D7D7D7D7D7D7D7D7D7D7D7D7D7D7D7D7D7
310
D7D7D7D7D7D7D7D7D7D7D7D7D7D7D7D7D7D7D7D7D7D7D7D7D7D7D7D7D7D7D7D7D7D7D7D7D7D7D7D7D7D7D7D7D7D7D7D7D7D7D7D7D7D7D7D7D7D7D7D7D7D7D7D7D7D7D7D7D7D7D7D7D7D7D7D7D7D7D7D7D7D700D7D7D7D7D7D7D7D7D70000D7D7D7D7D7D7D7D7D700D7D7D7D7D7D7D7D7D7D7D7D7D7D7D7D7D7D7D7D7D7D7D7
310
D7D7D7D7D7D7D7D7D7D7D7D7D7D7D7D7D7D7D7D7D7D7D7D7D7D7D7D7D7D7D7D7D7D7D7D7D7D7D7D7D7D7D7D7D7D7D7D7D7D7D7D7D7D7D7D7D7D7D7D7D7D7D7D7D7D7D7D7D7D7D7D7D7D7D7D7D7D7D7D7D7D7D7D7D7D7D7D7D7D7D7D7D7D7D7D7D7D7D7D7D7D7D7D7D7D7D7D7D7D7D7D7D7D7D7D7D7D7D7D7D7D7D7D7D7D7D7
310
D7D7D7D7D7D7D7D7D7D7D7D7D7D7D7D7D7D7D7D7D7D7D7D7D7D7D7D7D7D7D7D7D7D7D7D7D7D7D7D700D7D7D7D7D7D7D7D7D70000D7D7D7D7D7D7D7D7D700D7D7D7D7D7D7D7D7D7D7D7D7D7D7D7D7D7D7D7D7D7D7D7D7D7D7D7D7D7D7D7D7D7D7D7D7D7D7D7D7D7D7D7D7D7D7D7D7D7D7D7D7D7D7D7D7D7D7D7D7D7D7D7D7D7
310
D7D7D7D7D7D7D7D7D7D7D7D7D7D7D7D7D7D7D7D7D7D7D7D7D7D7D7D7D7D7D7D7D7D7D7D7D7D7D7D7D7D7D7D7D7D7D7D7D7D7D7D7D7D7D7D7D7D7D7D7D7D7D7D7D7D7D7D7D7D7D7D7D7D7D7D7D7D7D7D7D7D7D7D7D7D7D7D7D7D7D7D7D7D7D7D7D7D7D7D7D7D7D7D7D7D7D7D7D7D7D7D7D7D7D7D7D7D7D7D7D7D7D7D7D700D7
310
D7D7D7D7D7D7D7D70000D7D7D7D7D7D7D7D7D700D7D7D7D7D7D7D7D7D7D7D7D7D7D7D7D7D7D7D7D7D7D7D7D7D7D7D7D7D7D7D7D7D7D7D7D7D7D7D7D7D7D7D7D7D7D7D7D7D7D7D7D7D7D7D7D7D7D7D7D7D7D7D7D7D7D7D7D7D7D7D7D7D7D7D7D7D7D7D7D7D7D7D7D7D7D7D7D7D7D7D7D7D7D7D7D7D7D7D7D7D7D7D7D7D7D7D7
310
D7D7D7D7D7D7D7D7D7D7D7D7D7D7D7D7D7D7D7D7D7D7D7D7D7D7D7D7D7D7D7D7D7D7D7D7D7D7D7D7D7D7D7D7D7D7D7D7D7D7D7D7D7D7D7D7D7D7D7D7D7D7D7D7D7D7D7D7D7D7D7D7D7D7D7D7D7D7D7D7D7D7D700D7D7D7D7D7D7D7D7D70000D7D7D7D7D7D7D7D7D700D7D7D7D7D7D7D7D7D7D7D7D7D7D7D7D7D7D7D7D7D7D7
310
D7D7D7D7D7D7D7D7D7D7D7D7D7D7D7D7D7D7D7D7D7D7D7D7D7D7D7D7D7D7D7D7D7D7D7D7D7D7D7D7D7D7D7D7D7D7D7D7D7D7D7D7D7D7D7D7D7D7D7D7D7D7D7D7D7D7D7D7D7D7D7D7D7D7D7D7D7D7D7D7D7D7D7D7D7D7D7D7D7D7D7D7D7D7D7D7D7D7D7D7D7D7D7D7D7D7D7D7D7D7D7D7D7D7D7D7D7D7D7D7D7D7D7D7D7D7D7
310
D7D7D7D7D7D7D7D7D7D7D7D7D7D7D7D7D7D7D7D7D7D7D7D7D7D7D7D7D7D7D7D7D7D7D7D7D7D7D7D7D700D7D7D7D7D7D7D7D7D70000D7D7D7D7D7D7D7D7D700D7D7D7D7D7D7D7D7D7D7D7D7D7D7D7D7D7D7D7D7D7D7D7D7D7D7D7D7D7D7D7D7D7D7D7D7D7D7D7D7D7D7D7D7D7D7D7D7D7D7D7D7D7D7D7D7D7D7D7D7D7D7D7D7
310
D7D7D7D7D7D7D7D7D7D7D7D7D7D7D7D7D7D7D7D7D7D7D7D7D7D7D7D7D7D7D7D7D7D7D7D7D7D7D7D7D7D7D7D7D7D7D7D7D7D7D7D7D7D7D7D7D7D7D7D7D7D7D7D7D7D7D7D7D7D7D7D7D7D7D7D7D7D7D7D7D7D7D7D7D7D7D7D7D7D7D7D7D7D7D7D7D7D7D7D7D7D7D7D7D7D7D7D7D7D7D7D7D7D7D7D7D7D7D7D7D7D7D7D7D7D700
310
D7D7D7D7D7D7D7D7D70000D7D7D7D7D7D7D7D7D700D7D7D7D7D7D7D7D7D7D7D7D7D7D7D7D7D7D7D7D7D7D7D7D7D7D7D7D7D7D7D7D7D7D7D7D7D7D7D7D7D7D7D7D7D7D7D7D7D7D7D7D7D7D7D7D7D7D7D7D7D7D7D7D7D7D7D7D7D7D7D7D7D7D7D7D7D7D7D7D7D7D7D7D7D7D7D7D7D7D7D7D7D7D7D7D7D7D7D7D7D7D7D7D7D7D7
310
D7D7D7D7D7D7D7D7D7D7D7D7D7D7D7D7D7D7D7D7D7D7D7D7D7D7D7D7D7D7D7D7D7D7D7D7D7D7D7D7D7D7D7D7D7D7D7D7D7D7D7D7D7D7D7D7D7D7D7D7D7D7D7D7D7D7D7D7D7D7D7D7D7D7D7D7D7D7D7D7D7D7D7D700D7D7D7D7D7D7D7D7D70000D7D7D7D7D7D7D7D7D700D7D7D7D7D7D7D7D7D7D7D7D7D7D7D7D7D7D7D7D7D7
310
D7D7D7D7D7D7D7D7D7D7D7D7D7D7D7D7D7D7D7D7D7D7D7D7D7D7D7D7D7D7D7D7D7D7D7D7D7D7D7D7D7D7D7D7D7D7D7D7D7D7D7D7D7D7D7D7D7D7D7D7D7D7D7D7D7D7D7D7D7D7D7D7D7D7D7D7D7D7D7D7D7D7D7D7D7D7D7D7D7D7D7D7D7D7D7D7D7D7D7D7D7D7D7D7D7D7D7D7D7D7D7D7D7D7D7D7D7D7D7D7D7D7D7D7D7D7D7
310
D7D7D7D7D7D7D7D7D7D7D7D7D7D7D7D7D7D7D7D7D7D7D7D7D7D7D7D7D7D7D7D7D7D7D7D7D7D7D7D7D7D700D7D7D7D7D7D7D7D7D70000D7D7D7D7D7D7D7D7D700D7D7D7D7D7D7D7D7D7D7D7D7D7D7D7D7D7D7D7D7D7D7D7D7D7D7D7D7D7D7D7D7D7D7D7D7D7D7D7D7D7D7D7D7D7D7D7D7D7D7D7D7D7D7D7D7D7D7D7D7D7D7D7
310
D7D7D7D7D7D7D7D7D7D7D7D7D7D7D7D7D7D7D7D7D7D7D7D7D7D7D7D7D7D7D7D7D7D7D7D7D7D7D7D7D7D7D7D7D7D7D7D7D7D7D7D7D7D7D7D7D7D7D7D7D7D7D7D7D7D7D7D7D7D7D7D7D7D7D7D7D7D7D7D7D7D7D7D7D7D7D7D7D7D7D7D7D7D7D7D7D7D7D7D7D7D7D7D7D7D7D7D7D7D7D7D7D7D7D7D7D7D7D7D7D7D7D7D7D7D7D7
310
00D7D7D7D7D7D7D7D7D70000D7D7D7D7D7D7D7D7D700D7D7D7D7D7D7D7D7D7D7D7D7D7D7D7D7D7D7D7D7D7D7D7D7D7D7D7D7D7D7D7D7D7D7D7D7D7D7D7D7D7D7D7D7D7D7D7D7D7D7D7D7D7D7D7D7D7D7D7D7D7D7D7D7D7D7D7D7D7D7D7D7D7D7D7D7D7D7D7D7D7D7D7D7D7D7D7D7D7D7D7D7D7D7D7D7D7D7D7D7D7D7D7D7D7
310
D7D7D7D7D7D7D7D7D7D7D7D7D7D7D7D7D7D7D7D7D7D7D7D7D7D7D7D7D7D7D7D7D7D7D7D7D7D7D7D7D7D7D7D7D7D7D7D7D7D7D7D7D7D7D7D7D7D7D7D7D7D7D7D7D7D7D7D7D7D7D7D7D7D7D7D7D7D7D7D7D7D7D7D7D700D7D7D7D7D7D7D7D7D70000D7D7D7D7D7D7D7D7D700D7D7D7D7D7D7D7D7D7D7D7D7D7D7D7D7D7D7D7D7
310
D7D7D7D7D7D7D7D7D7D7D7D7D7D7D7D7D7D7D7D7D7D7D7D7D7D7D7D7D7D7D7D7D7D7D7D7D7D7D7D7D7D7D7D7D7D7D7D7D7D7D7D7D7D7D7D7D7D7D7D7D7D7D7D7D7D7D7D7D7D7D7D7D7D7D7D7D7D7D7D7D7D7D7D7D7D7D7D7D7D7D7D7D7D7D7D7D7D7D7D7D7D7D7D7D7D7D7D7D7D7D7D7D7D7D7D7D7D7D7D7D7D7D7D7D7D7D7
310
D7D7D7D7D7D7D7D7D7D7D7D7D7D7D7D7D7D7D7D7D7D7D7D7D7D7D7D7D7D7D7D7D7D7D7D7D7D7D7D7D7D7D700D7D7D7D7D7D7D7D7D70000D7D7D7D7D7D7D7D7D700D7D7D7D7D7D7D7D7D7D7D7D7D7D7D7D7D7D7D7D7D7D7D7D7D7D7D7D7D7D7D7D7D7D7D7D7D7D7D7D7D7D7D7D7D7D7D7D7D7D7D7D7D7D7D7D7D7D7D7D7D7D7
310
D7D7D7D7D7D7D7D7D7D7D7D7D7D7D7D7D7D7D7D7D7D7D7D7D7D7D7D7D7D7D7D7D7D7D7D7D7D7D7D7D7D7D7D7D7D7D7D7D7D7D7D7D7D7D7D7D7D7D7D7D7D7D7D7D7D7D7D7D7D7D7D7D7D7D7D7D7D7D7D7D7D7D7D7D7D7D7D7D7D7D7D7D7D7D7D7D7D7D7D7D7D7D7D7D7D7D7D7D7000000D7D7D7D7D7D7D7D7D7D7D7D7D7D7D7
310
D700D7D7D7D7D7D7D7D7D70000D7D7D7D7D7D7D7D7D700D7D7D7D7D7D7D7D7D7D7D7D7D7D7D7D7D7D7D7D7D7D7D7D7D7D7D7D7D7D7D7D7D7D7D7D7D7D7D7D7D7D7D7D7D7D7D7D7D7D7D7D7D7D7D7D7D7D7D7D7D7D7D7D7D7D7D7D7D7D7D7D7D7D7D7D7D7D7D7D7D7D7D7D7D7D7D7D7D7D7D7D7D7D7D7D7D7D7D7D7D7D7D7D7
310
D7D7D7D7D7D7D700000000D7D7D7D70000D7D7D7D7D7D7D7D7D7D7D7D7D700D7D7D7D7D7D7D70000D7D7D7D7D700D7D7D7D7D7D7D700D7D7D7D7000000D7D7D7D700D7D700D7D7D7D70000D7D700D7D7D7D7D7D7D7D700D7D7D7D7D7D7D7D7D70000D7D7D7D7D7D7D7D7D700D7D7D7D7D7D7D7D7D7D7D7D7D7D7D7D7D7D7D7
310
D7D7D7D7D7D7D7D7D7D7D7D7D7D7D7D7D7D7D7D7D7D7D7D7D7D7D7D7D7D7D7D7D7D7D7D7D7D7D7D7D7D7D7D7D7D7D7D7D7D7D7D7D7D7D7D7D7D7D7D7D7D7D7D7D7D7D7D7D7D7D7D7D7D7D7D7D7D7D7D7D7D7D7D7D7D7D7D7D7D7D7D700D7D7D7D7D7D700D7D700D7D7D7D7D7D700D7D7D7D7D700D7D7D7D7D7D700D7D7D7D7
310
D7D7D700D7D7D7D7D7D7D700D7D7D7D7D7D700D7D7D7D700D700D700D7D700D7D7D7D7D7D7D7D7D7D7D7D7D700D7D7D7D7D7D7D7D7D70000D7D7D7D7D7D7D7D7D700D7D7D7D7D7D7D7D7D7D7D7D7D7D7D7D7D7D7D7D7D7D7D7D7D7D7D7D7D7D7D7D7D7D7D7D7D7D7D7D7D7D7D7D7D7D7D7D7D7D7D7D7D7D7D7D7D7D7D7D7D7
310
D7D7D7D7D7D7D7D7D7D7D7D7D7D7D7D7D7D7D7D7D7D7D7D7D7D7D7D7D7D7D7D7D7D7D7D7D7D7D7D7D7D7D7D7D7D7D7D7D7D700D7D7D700D7D7D7D7D7D7D7D7D7D7D700D7D7D7D7D7D700D7D7D7D7D7D700D7D7D7D7D7D7D700D7D7D7D7D7D7D700D7D7D7D7000000D7D7D7D700D700D7D7D7D7000000D7D7D7D7D7D7D7D7D7
310
D7D700D7D7D7D7D7D7D7D7D70000D7D7D7D7D7D7D7D7D700D7D7D7D7D7D7D7D7D7D7D7D7D7D7D7D7D7D7D7D7D7D7D7D7D7D7D7D7D7D7D7D7D7D7D7D7D7D7D7D7D7D7D7D7D7D7D7D7D7D7D7D7D7D7D7D7D7D7D7D7D7D7D7D7D7D7D7D7D7D7D7D7D7D7D7D7D7D7D7D7D7D7D7D7D7D7D7D7D7D7D7D7D7D7D7D7D7D7D7D7D7D7D7
310
D7D7D7D7D7D7D7D700D7D7D700D7D7D7D7D7D7D7D7D7D700D7D7D7D7D7D7D700D7D7D7D7D7D700D700D7D700D7D700D7D7D7D7D7D7D700D7D7D7D7D7D700D7D700D700D700D700D7D700D7D7D7D7D7D7D7D7D7D7D7D7D700D7D7D7D7D7D7D7D7D70000D7D7D7D7D7D7D7D7D700D7D7D7D7D7D7D7D7D7D7D7D7D7D7D7D7D7D7
310
D7D7D7D7D7D7D7D7D7D7D7D7D7D7D7D7D7D7D7D7D7D7D7D7D7D7D7D7D7D7D7D7D7D7D7D7D7D7D7D7D7D7D7D7D7D7D7D7D7D7D7D7D7D7D7D7D7D7D7D7D7D7D7D7D7D7D7D7D7D7D7D7D7D7D7D7D7D7D7D7D7D7D7D7D7D7D7D7D7D7D7D7D700D7D7D700D7D7D7D7D7D7D7D7D7D700D7D7D7D700D7D700D7D7D7D7D7D7D700D7D7
310
D7D700D700D7D7D7D7D7D7D700D7D7D7D70000D7D7D7D700D7D7D700D7D7D7D70000D7D7D7D7D7D7D7D7D7D7D700D7D7D7D7D7D7D7D7D70000D7D7D7D7D7D7D7D7D700D7D7D7D7D7D7D7D7D7D7D7D7D7D7D7D7D7D7D7D7D7D7D7D7D7D7D7D7D7D7D7D7D7D7D7D7D7D7D7D7D7D7D7D7D7D7D7D7D7D7D7D7D7D7D7D7D7D7D7D7
310
D7D7D7D7D7D7D7D7D7D7D7D7D7D7D7D7D7D7D7D7D7D7D7D7D7D7D7D7D7D7D7D7D7D7D7D7D7D7D7D7D7D7D7D7D7D7D7D7D7D7D700000000D7D7D7D70000D7D7D7D7D7D7D7D7D7D7000000000000D7D7D7D7D7D7D7D7D7D7D7D700D7D7D7D7D7D7D7D700D7D7D7D7D7D7D7D7D7D7D7D7D7D7D7D7D7D7D7D7D7D7D7D7D7D7D7D7
310
D7D7D700D7D7D7D7D7D7D7D7D70000D7D7D7D7D7D7D7D7D700D7D7D7D7D7D7D7D7D7D7D7D7D7D7D7D7D7D7D7D7D7D7D7D7D7D7D7D7D7D7D7D7D7D7D7D7D7D7D7D7D7D7D7D7D7D7D7D7D7D7D7D7D7D7D7D7D7D7D7D7D7D7D7D7D7D7D7D7D7D7D7D7D7D7D7D7D7D7D7D7D7D7D7D7D7D7D7D7D7D7D7D7D7D7D7D7D7D7D7D7D7D7
310
D7D7D7D7D7D7D7D7D7D7D7D7D7D7D7D7D7D7D7D7D7D7D7D7D7D7D7D7D7D7D7D7D7D7D7D7D7D7D7D7D7D7D7D7D7D7D7D7D7D7D7D7D7D7D7D7D7D7D7D7D7D7D7D7D7D7D7D7D7D7D7D7D7D7D7D7D7D7D7D7D7D7D7D7D7D7D7D700D7D7D7D7D7D7D7D7D70000D7D7D7D7D7D7D7D7D700D7D7D7D7D7D7D7D7D7D7D7D7D7D7D7D7D7
310
D7D7D7D7D7D7D7D7D7D7D7D7D7D7D7D7D7D7D7D7D7D7D7D7D7D7D7D7D7D7D7D7D7D7D7D7D7D7D7D7D7D7D7D7D7D7D7D7D7D7D7D7D7D7D7D7D7D7D7D7D7D7D7D7D7D7D7D7D7D7D7D7D7D7D7D7D7D7D7D7D7D7D7D7D7D7D7D7D7D7D7D7D7D7D7D7D7D7D7D7D7D7D7D7D7D7D7D7D7D7D7D7D7D7D7D7D7D7D7D7D7D7D7D7D7D7D7
310
D7D7D7D7D7D7D7D7D7D7D7D7D7D7D7D7D7D7D7D7D7D7D7D7D7D7D7D7D7D7D7D7D7D7D7D7D7D7D7D7D7D7D7D7D7D700D7D7D7D7D7D7D7D7D70000D7D7D7D7D7D7D7D7D700D7D7D7D7D7D7D7D7D7D7D7D7D7D7D7D7D7D7D7D7D7D7D7D7D7D7D7D7D7D7D7D7D7D7D7D7D7D7D7D7D7D7D7D7D7D7D7D7D7D7D7D7D7D7D7D7D7D7D7
310
D7D7D7D7D7D7D7D7D7D7D7D7D7D7D7D7D7D7D7D7D7D7D7D7D7D7D7D7D7D7D7D7D7D7D7D7D7D7D7D7D7D7D7D7D7D7D7D7D7D7D7D7D7D7D7D7D7D7D7D7D7D7D7D7D7D7D7D7D7D7D7D7D7D7D7D7D7D7D7D7D7D7D7D7D7D7D7D7D7D7D7D7D7D7D7D7D7D7D7D7D7D7D7D7D7D7D7D7D7D7D7D7D7D7D7D7D7D7D7D7D7D7D7D7D7D7D7
310
D7D7D7D700D7D7D7D7D7D7D7D7D70000D7D7D7D7D7D7D7D7D700D7D7D7D7D7D7D7D7D7D7D7D7D7D7D7D7D7D7D7D7D7D7D7D7D7D7D7D7D7D7D7D7D7D7D7D7D7D7D7D7D7D7D7D7D7D7D7D7D7D7D7D7D7D7D7D7D7D7D7D7D7D7D7D7D7D7D7D7D7D7D7D7D7D7D7D7D7D7D7D7D7D7D7D7D7D7D7D7D7D7D7D7D7D7D7D7D7D7D7D7D7
310
D7D7D7D7D7D7D7D7D7D7D7D7D7D7D7D7D7D7D7D7D7D7D7D7D7D7D7D7D7D7D7D7D7D7D7D7D7D7D7D7D7D7D7D7D7D7D7D7D7D7D7D7D7D7D7D7D7D7D7D7D7D7D7D7D7D7D7D7D7D7D7D7D7D7D7D7D7D7D7D7D7D7D7D7D7D7D7D7D700D7D7D7D7D7D7D7D7D70000D7D7D7D7D7D7D7D7D700D7D7D7D7D7D7D7D7D7D7D7D7D7D7D7D7
310
D7D7D7D7D7D7D7D7D7D7D7D7D7D7D7D7D7D7D7D7D7D7D7D7D7D7D7D7D7D7D7D7D7D7D7D7D7D7D7D7D7D7D7D7D7D7D7D7D7D7D7D7D7D7D7D7D7D7D7D7D7D7D7D7D7D7D7D7D7D7D7D7D7D7D7D7D7D7D7D7D7D7D7D7D7D7D7D7D7D7D7D7D7D7D7D7D7D7D7D7D7D7D7D7D7D7D7D7D7D7D7D7D7D7D7D7D7D7D7D7D7D7D7D7D7D7D7
310
D7D7D7D7D7D7D7D7D7D7D7D7D7D7D7D7D7D7D7D7D7D7D7D7D7D7D7D7D7D7D7D7D7D7D7D7D7D7D7D7D7D7D7D7D7D7D700D7D7D7D7D7D7D7D7D70000D7D7D7D7D7D7D7D7D700D7D7D7D7D7D7D7D7D7D7D7D7D7D7D7D7D7D7D7D7D7D7D7D7D7D7D7D7D7D7D7D7D7D7D7D7D7D7D7D7D7D7D7D7D7D7D7D7D7D7D7D7D7D7D7D7D7D7
310
D7D7D7D7D7D7D7D7D7D7D7D7D7D7D7D7D7D7D7D7D7D7D7D7D7D7D7D7D7D7D7D7D7D7D7D7D7D7D7D7D7D7D7D7D7D7D7D7D7D7D7D7D7D7D7D7D7D7D7D7D7D7D7D7D7D7D7D7D7D7D7D7D7D7D7D7D7D7D7D7D7D7D7D7D7D7D7D7D7D7D7D7D7D7D7D7D7D7D7D7D7D7D7D7D7D7D7D7D7D7D7D7D7D7D7D7D7D7D7D7D7D7D7D7D7D7D7
310
D7D7D7D7D700D7D7D7D7D7D7D7D7D70000D7D7D7D7D7D7D7D7D700D7D7D7D7D7D7D7D7D7D7D7D7D7D7D7D7D7D7D7D7D7D7D7D7D7D7D7D7D7D7D7D7D7D7D7D7D7D7D7D7D7D7D7D7D7D7D7D7D7D7D7D7D7D7D7D7D7D7D7D7D7D7D7D7D7D7D7D7D7D7D7D7D7D7D7D7D7D7D7D7D7D7D7D7D7D7D7D7D7D7D7D7D7D7D7D7D7D7D7D7
310
D7D7D7D7D7D7D7D7D7D7D7D7D7D7D7D7D7D7D7D7D7D7D7D7D7D7D7D7D7D7D7D7D7D7D7D7D7D7D7D7D7D7D7D7D7D7D7D7D7D7D7D7D7D7D7D7D7D7D7D7D7D7D7D7D7D7D7D7D7D7D7D7D7D7D7D7D7D7D7D7D7D7D7D7D7D7D7D7D7D700D7D7D7D7D7D7D7D7D70000D7D7D7D7D7D7D7D7D700D7D7D7D7D7D7D7D7D7D7D7D7D7D7D7
310
D7D7D7D7D7D7D7D7D7D7D7D7D7D7D7D7D7D7D7D7D7D7D7D7D7D7D7D7D7D7D7D7D7D7D7D7D7D7D7D7D7D7D7D7D7D7D7D7D7D7D7D7D7D7D7D7D7D7D7D7D7D7D7D7D7D7D7D7D7D7D7D7D7D7D7D7D7D7D7D7D7D7D7D7D7D7D7D7D7D7D7D7D7D7D7D7D7D700D7D7D7D7D7D7D7D7D7D7D7D7D7D7D7D7D7D7D7D7D7D7D7D7D7D7D7D7
310
D7D7D7D700D7D7D7D7D7D7D7D7D7D7D7D7D7D7D7D7D7D7D7D7D7D7D7D7D7D7D7D7D7D7D7D7D7D7D7D7D7D7D7D7D7D7D700D7D7D7D7D7D7D7D7D70000D7D7D7D7D7D7D7D7D700D7D7D7D7D7D7D7D7D7D7D7D7D7D7D7D7D7D7D7D7D7D7D7D7D7D7D7D7D7D7D7D7D7D7D7D7D7D7D7D7D7D7D7D7D7D7D7D7D7D7D7D7D7D7D7D7D7
310
D7D7D7D7D7D7D7D7D7D7D7D7D7D7D7D7D7D7D7D7D7D7D7D7D7D7D7D7D7D7D7D7D7D7D7D7D7D7D7D7D7D7D7D7D7D7D7D7D7D7D7D7D7D700D700D700D7D7D7D7D7D7D7D7D7D7D7D7D7D7D7D7D7D7D7D7D7D7D7D7D7D7D7D7D7D7D7D7D7D7D7D7D7D7D7D7D7D7D7D7D7D7D7D7D7D7D7D7D7D7D7D7D7D7D7D7D7D7D7D7D7D7D7D7
310
D7D7D7D7D7D700D7D7D7D7D7D7D7D7D70000D7D7D7D7D7D7D7D7D700D7D7D7D7D7D7D7D7D7D7D7D7D7D7D7D7D7D7D7D7D7D7D7D7D7D7D7D7D7D7D7D7D7D7D7D7D7D7D7D7D7D7D7D7D7D7D7D7D7D7D7D7D7D7D7D7D7D7D7D7D7D7D7D7D7D7D7D7D7D7D7D7D7D7D7D7D7D7D7D7D7D7D7D7D7D7D7D7D7D7D7D7D7D7D7D7D7D7D7
310
D7D7D7D7D7D7D7D7D7D70000D7D700D7D700D7D7D7D7D7D7D7D7D7D7D7D7D7D7D7D7D7D7D7D7D7D7D7D7D7D7D7D7D7D7D7D7D7D7D7D7D7D7D7D7D7D7D7D7D7D7D7D7D7D7D7D7D7D7D7D7D7D7D7D7D7D7D7D7D7D7D7D7D7D7D7D7D700D7D7D7D7D7D7D7D7D70000D7D7D7D7D7D7D7D7D700D7D7D7D7D7D7D7D7D7D7D7D7D7D7
310
D7D7D7D7D7D7D7D7D7D7D7D7D7D7D7D7D7D7D7D7D7D7D7D7D7D7D7D7D7D7D7D7D7D7D7D7D7D7D7D7D7D7D7D7D7D7D7D7D7D7D7D7D7D7D7D7D7D7D7D7D7D7D7D7D7D7D7D7D7D7D7D7D7D7D7D7D7D7D7D7D7D7D7D7D7D7D7D7D7D7D7D7D7D700D7D7D7D700D7D7D700D7D7D7D7D7D7D7D7D7D7D7D7D7D7D7D7D7D7D7D7D7D7D7
310
D7D7D7D7D7D7D7D7D7D7D7D7D7D7D7D7D7D7D7D7D7D7D7D7D7D7D7D7D7D7D7D7D7D7D7D7D7D7D7D7D7D7D7D7D7D7D7D7D700D7D7D7D7D7D7D7D7D70000D7D7D7D7D7D7D7D7D700D7D7D7D7D7D7D7D7D7D7D7D7D7D7D7D7D7D7D7D7D7D7D7D7D7D7D7D7D7D7D7D7D7D7D7D7D7D7D7D7D7D7D7D7D7D7D7D7D7D7D7D7D7D7D7D7
310
D7D7D7D7D7D7D7D7D7D7D7D7D7D7D7D7D7D7D7D7D7D7D7D7D7D7D7D7D7D7D7D7D7D70505050505050505050505D7D7D7D700D7D7D7D7D7D7D700D7D7D700D7D7D7D7D7D7D7D7D7D7D7D7D7D7D7D7D7D7D7D7D7D7D7D7D7D7D700D7D7D7D7D7D7D7D7D7D7D7D7D7D7D7D7D7D7D7D7D7D7D7D7D7D7D7D7D7D7D7D7D7D7D7D7D7
310
D7D7D7D7D7D7D700D7D7D7D7D7D7D7D7D70000D7D7D7D7D7D7D7D7D700D7D7D7D7D7D7D7D7D7D7D7D7D7D7D7D7D7D7D7D7D7D7D7D7D7D7D7D7D7D7D7D7D7D7D7D7D7D7D7D7D7D7D7D7D7D7D7D7D7D7D7D7D7D7D7D7D7D7D7D7D7D7D7D7D7D7D7D7D7D7D7D7D7D7D7D7D7D7D7D7D7D7D7D7050505050505D7D7D7D7D7D7D7D7
310
D7D7D7050505050505D7D7D7D7D7D700D7D7D700D7D7D7D7D7D7D7D7D7D7D7D7D7D7D7D7D7D7D7D7D7D7D7D7D7D7D700D7D7D7D7D7D7D7D7D7D7D7D7D7D7D7D7D7D7D7D7D7D7D7D7D7D7D7D7D7D7D7D7D7D7D7D7D7D7D7D7D7D7D7D700D7D7D7D7D7D7D7D7D70000D7D7D7D7D7D7D7D7D700D7D7D7D7D7D7D7D7D7D7D7D7D7
310
D7D7D7D7D7D7D7D7D7D7D7D7D7D7D7D7D7D7D7D7D7D7D7D7D7D7D7D7D7D7D7D7D7D7D7D7D7D7D7D7D7D7D7D7D7D7D7D7D7D7D7D7D7D7D7D7D7D7D7D7D7D7D7D7D7050505D7D7D7D7D7D7D7D7D7D7D7D7D7D7D7D7D7D7D7D7D700D7D7D7D7D7D7D7D7050500D7D7D700D7D7D7D7D7D7D7D7D7D7D7D7D7D7D7D7D7D7D7D7D7D7
310
D7D7D7D700D7D7D7D7D7D7D7D7D7D7D7D7D7D7D7D7D7D7D7D7D7D7D7D7D7D7D7D7D7D7D7D7D7D7D7D7D7D7D7D7D7D7D7D7D700D7D7D7D7D7D7D7D7D70000D7D7D7D7D7D7D7D7D700D7D7D7D7D7D7D7D7D7D7D7D7D7D7D7D7D7D7D7D7D7D7D7D7D7D7D7D7D7D7D7D7D7D7D7D7D7D7D7D7D7D7D7D7D7D7D7D7D7D7D7D7D7D7D7
310
D7D7D7D7D7D7D7D7D7D7D7D7D7D7D7D7D7D7D7D7D7050516D7D7D7D716D7D7D7D70FD7D7D7D7D7D7D7D7D7D7D7D700D7D7D7D7D7D7D7D7D7D7D70505D7D700D7D7D7D7D7D7D7D7D7D7D7D7D7D7D7D7D7D7D7D7D7D7D7D7D7D700D7D7D7D7D7D7D7D7D7D7D7D7D7D7D7D7D7D7D7D7D7D7D7D7D7D7D7D7D7D7D7D7D7D7D7D7D7
310
D7D7D7D7D7D7D7D700D7D7D7D7D7D7D7D7D70000D7D7D7D7D7D7D7D7D700D7D7D7D7D7D7D7D7D7D7D7D7D7D7D7D7D7D7D7D7D7D7D7D7D7D7D7D7D7D7D7D7D7D7D7D7D7D7D7D7D7D7D7D7D7D7D7D7D7D7D7D7D7D7D7D7D7D7D7D7D7D7D7D7D7D7D7D7D7D7D7D7D705D7D7D7D7D7D7D7D7D7D7D7D7D7D7D7D7D7D7D7D7D7D7D7
310
D7D700D7D7D7D7D7D7D7D7D7D7D7D7000000D7D705D7D7D7D7D7D7D7D7D7D7D7D7D7D7D7D7D7D7D7D7D7D7D7D7D7D7D7D7D7D7D7D7D7D7D7D7D7D7D7D7D7D7D7D7D7D7D7D7D7D7D7D7D7D7D7D7D7D7D7D7D7D7D7D7D7D7D7D7D7D7D7D700D7D7D7D7D7D7D7D7D70000D7D7D7D7D7D7D7D7D700D7D7D7D7D7D7D7D7D7D7D7D7
310
D7D7D7D7D7D7D7D7D7D7D7D7D7D7D7D7D7D7D7D7D7D7D7D7D7D7D7D7D7D7D7D7D7D7D7D7D7D7D7D7D7D7D7D7D7D7D7D7D7D7D7D7D7D7D7D7D70505D7D7D7D7D7D7D7D7D7D7D7D7D7D7D7D7D7D7D7D7D7D7D7D7D7D7D7D7D7D7D7D7D7D7D7D7D7D70000D7D700D7D70000D7D70505D7D7D7D7D7D7D7D7D7D7D7D7D7D7D7D7D7
310
D7D7D7D7D7D7D7D7D7D7D7D7D7D7D7D7D7D7D7D7D7D7D7D7D7D7D7D7D7D7D7D7D7D7D7D7D7D7D7D7D7D7D7D7D7D7D7D7D7D7D700D7D7D7D7D7D7D7D7D70000D7D7D7D7D7D7D7D7D700D7D7D7D7D7D7D7D7D7D7D7D7D7D7D7D7D7D7D7D7D7D7D7D7D7D7D7D7D7D7D7D7D7D7D7D7D7D7D7D7D7D7D7D7D7D7D7D7D7D7D7D7D7D7
310
D7D7D7D7D7D7D7D7D7D7D7D7D70505D7D7D7D7D7D7D7D7D7D7D7D7D7D7D7D7D7D7D7D7D7D7D7D7D7D70000D7D7D7D7D7D7D7D7D7D7D7D7D7D7D7D700D7D7D700D7D7D7D70505D7D7D7D7D7D7D7D7D7D7D7D7D7D7D7D7D7D7D7D7D7D7D7D7D7D7D7D7D7D7D7D7D7D7D7D7D7D7D7D7D7D7D7D7D7D7D7D7D7D7D7D7D7D7D7D7D7
310
D7D7D7D7D7D7D7D7D700D7D7D7D7D7D7D7D7D70000D7D7D7D7D7D7D7D7D700D7D7D7D7D7D7D7D7D7D7D7D7D7D7D7D7D7D7D7D7D7D7D7D7D7D7D7D7D7D7D7D7D7D7D7D7D7D7D7D7D7D7D7D7D7D7D7D7D7D7D7D7D7D7D7D7D7D7D7D7D7D7D7D7D705D7D7D7D7D7D7D7D7D7D7D7D7D7D7D7D7D7D7D7D7D7D7D7D7D7D7D700D7D7
310
D7D7D7D7D7D7D7D7D7D70000D7D7D7D7D700D7D7D7000000000000000005D7D7D7D7D7D7D7D7D7D7D7D7D7D7D7D7D700D7D7D7D7D7D7D7D7D7D7D7D7D7D7D7D7D7D7D7D7D7D7D7D7D7D7D7D7D7D7D7D7D7D7D7D7D7D7D7D7D7D7D7D7D7D700D7D7D7D7D7D7D7D7D70000D7D7D7D7D7D7D7D7D700D7D7D7D7D7D7D7D7D7D7D7
310
D7D7D7D7D7D7D7D7D7D7D7D7D7D7D7D7D7D7D7D7D7D7D7D7D7D7D7D7D7D7D7D7D7D7D7D7D7D7D7D7D7D7D7D7D7D7D7D7D7D7D7D7D705D7D716D7D7D7D7D7D7D7D7D7D7D7D7D7D7D716D7D7D7D7D7D7D7D700D7D7D7D7D7D7D7D7D7D7D7D700D7D7D7D7D7D7D700D7D7D700D7D7D7D7D7D7D7D705D7D7D7D7D7D7D7D7D7D7D7
310
D7D7D7D7D700D7D7D7D7D7D7D7D7D7D7D7D7D7D7D7D7D7D7D7D7D7D7D7D7D7D7D7D7D7D7D7D7D7D7D7D7D7D7D7D7D7D7D7D7D7D700D7D7D7D7D7D7D7D7D70000D7D7D7D7D7D7D7D7D700D7D7D7D7D7D7D7D7D7D7D7D7D7D7D7D7D7D7D7D7D7D7D7D7D7D7D7D7D7D7D7D7D7D7D7D7D7D7D7D7D7D7D7D7D7D7D7D7D7D7D7D7D7
310
D7D7D7D7D7D7D7D705D7D7D7D7D7D7D7D7D7D7D7D7D7D7D7D7D7D7D7D7D7D7D7D7D7D7D7D700D7D7D7D7D7D7D7D7D7D7D7D700D7D7D7D7D7D7D7D7D700D7D7D700D7D7D7D7D7D7D716D7D7D705D7D7D7D7D7D7D7D7D7D7D7D7D7D7D7D7D7D7D7D7D7D7D7D7D7D7D7D7D7D7D7D7D7D7D7D7D7D7D7D7D7D7D7D7D7D7D7D7D7D7
310
D7D7D7D7D7D7D7D7D7D700D7D7D7D7D7D7D7D7D70000D7D7D7D7D7D7D7D7D700D7D7D7D7D7D7D7D7D7D7D7D7D7D7D7D7D7D7D7D7D7D7D7D7D7D7D7D7D7D7D7D7D7D7D7D7D7D7D7D7D7D7D7D7D7D7D7D7D7D7D7D7D7D7D7D7D7D7D7D705D7D7D7D7D7D7D7D7D7D7D7D7D7D7D7D7D7D7D7D7D7D7D7D7D7D7D70000D7D7D7D7D7
310
D7D7D7D7D7D7D700D7D7D7D7D7D7D7D7D7D700D7D7D700D7D7D7D7D7D7D7D7D7D7D7D705D7D7D7D7D7D7D7D7D7D7D7D7D7D7D7D7D7D7D7D7D7D7D7D7D7D7D7D7D7D7D7D7D7D7D7D7D7D7D7D7D7D7D7D7D7D7D7D7D7D7D7D7D7D7D7D7D7D7D700D7D7D7D7D7D7D7D7D70000D7D7D7D7D7D7D7D7D700D7D7D7D7D7D7D7D7D7D7
310
D7D7D7D7D7D7D7D7D7D7D7D7D7D7D7D7D7D7D7D7D7D7D7D7D7D7D7D7D7D7D7D7D7D7D7D7D7D7D7D7D7D7D7D7D7D7D7D705D7D7D7D7D7D7D7D7D7D7D7D7D7D7D7D7D7D7D7D7D7D7D7D7D7D7D7D700D7D7D7D7D7D7D7D7D7D7D7D700D7D7D7D7D7D7D7D7D7D7D7D700D7D7D700D7D7D7D7D7D7D70000D7D7D7D7D705D7D7D7D7
310
D7D7D7D7D7D7D7D7D7D7D7D7D7D7D7D7D7D7D7D7D7D7D7D7D7D7D7D7D7D7D7D7D7D7D7D7D7D7D7D7D7D7D7D7D7D7D7D7D7D7D7D7D700D7D7D7D7D7D7D7D7D70000D7D7D7D7D7D7D7D7D700D7D7D7D7D7D7D7D7D7D7D7D7D7D7D7D7D7D7D7D7D7D7D7D7D7D7D7D7D7D7D7D7D7D7D7D7D7D7D7D7D7D7D7D7D7D7D7D7D7D7D7D7
310
D7D7D7D705D7D7D7D7D7D7D7D7D7D7D7D7D7D7D7D7D7D7D7D7D7D7D7D7D7D7D700D7D7D7D7D7D7D7D7D7D7D7D70000D7D7D7D7D7D7D7D7D7D7D7D7D7D700D7D7D700D7D7D7D7D7D7D7D7D7D7D7D7D7D7D7D705D7D7D7D7D7D7D700D7D7D7D7D7D7D7D7D7D7D7D7D7D7D7D7D7D7D7D7D7D7D7D7D7D7D7D7D7D7D7D7D7D7D7D7
310
D7D7D7D7D7D7D7D7D7D7D700D7D7D7D7D7D7D7D7D70000D7D7D7D7D7D7D7D7D700D7D7D7D7D7D7D7D7D7D7D7D7D7D7D7D7D7D7D7D7D7D7D7D7D7D7D7D7D7D7D7D7D7D7D7D7D7D7D7D7D7D7D7D7D7D7D7D7D7D7D7D7D7D7D705D7D7D7D7D7D716D7D7D7D715D7D7D7D7D7D7D7D7D7D7D7D7D7D7D700D7D7D7D7D7D7D7D7D7D7
310
D7D7D7D7D7D7D7D7D7D7D7D7D7D7D7D7D7D700D700D7D700D7D7D7D7D7D7D7D7D7D7D7D7D7D7D7D7D705D7D7D7D7D7D700D7D7D7D7D7D7D7D7D7D7D7D7D7D7D7D7D7D7D7D7D7D7D7D7D7D7D7D7D7D7D7D7D7D7D7D7D7D7D7D7D7D7D7D7D7D7D700D7D7D7D7D7D7D7D7D70000D7D7D7D7D7D7D7D7D700D7D7D7D7D7D7D7D7D7
310
D7D7D7D7D7D7D7D7D7D7D7D7D7D7D7D7D7D7D7D7D7D7D7D7D7D7D7D7D7D7D7D7D7D7D7D7D7D7D7D7D7D7D7D7D705D7D7D7D7D7D7D7D7D7D7D7D7D7D7D7D7D7D7D7D7D7D7D7D7D7D700D7D7D7D7D7D7D7D7D7D7D7D700D7D7D7D7D7D7D7D7D7D7D7D7D7D70000D7D7D7D7D70000D7D7D7D7D7D7D7D7D7D7D7D715D7D7D7D716
310
05D7D7D7D700D7D7D7D7D7D7D7D7D7D7D7D7D7D7D7D7D7D7D7D7D7D7D7D7D7D7D7D7D7D7D7D7D7D7D7D7D7D7D7D7D7D7D7D7D7D7D7D700D7D7D7D7D7D7D7D7D70000D7D7D7D7D7D7D7D7D700D7D7D7D7D7D7D7D7D7D7D7D7D7D7D7D7D7D7D7D7D7D7D7D7D7D7D7D7D7D7D7D7D7D7D7D7D7D7D7D7D7D7D7D7D7D7D7D7D7D7D7
310
D7D705D7D7D7D7D7D7D7D7D7D7D7D7D7D7D7D7D7D7D7D7D7D7D7D7D7D700D7D7D7D7D7050505050505050505050505050505D7D7D7D7D7D7D7D7D7D7D7D7D7D7D7D700D7D7D7D7D7D7D7D7D7D7D7D7D7D7D7D7D7D7D705D7D7D700D7D7D7D7D7D7D7D7D7D7D7D7D7D7D7D7D7D7D7D7D7D7D7D7D7D7D7D7D7D7D7D7D7D7D7D7
310
D7D7D7D7D7D7D7D7D7D7D7D700D7D7D7D7D7D7D7D7D70000D7D7D7D7D7D7D7D7D700D7D7D7D7D7D7D7D7D7D7D7D7D7D7D7D7D7D7D7D7D7D7D7D7D7D7D7D7D7D7D7D7D7D7D7D7D7D7D7D7D7D7D7D7D7D7D7D7D7D7D7D7D7D7D7D7D7D7D7D7D7D7D7D7D7D7D7D7D7D7D7D7D7D7D7D7D7D700D705D7D7D7D7D7D7D7D7D7D700D7
310
D7D7D7D7D7D7D7D7D7D7D7D7050505D7D7D7D7D7D7D70000000000D7D7D70000D7D7D7D7D7D7D7D7D7D7D7D7D7D7D7D7D7D7D7D7D7D7D7D7D7D7D7D7D7D7D7D7D7D7D7D7D7D7D7D7D7D7D7D7D7D7D7D7D7D7D7D7D7D7D7D7D7D7D7D7D7D7D7D7D700D7D7D7D7D7D7D7D7D70000D7D7D7D7D7D7D7D7D700D7D7D7D7D7D7D7D7
310
D7D7D7D7D7D7D7D7D7D7D7D7D7D7D7D7D7D7D7D7D7D7D7D7D7D7D7D7D7D7D7D7D7D7D7D7D7D7D7D7D7D7D705D7D7D7D7D7D7D7D7D7D7D7D7D7D7D7D7D7D7D7D7D7D7D7D700000505D7D7D7D7D7D7D7D7D7D700D7D7D7D7D7D7D7D7D7D7D7D7D7D700D7D70505D7D7D7D7D7D7D7D7D7D7D7D7D7D7D7D7D7D7D7D7D7D7D7D7D7
310
D7D7D7D70505D7D7D7D7D7D7D7D7D7D7D7D7D7D7D7D7D7D7D7D7D7D7D7D7D7D7D7D7D7D7D7D7D7D7D7D7D7D7D7D7D7D7D7D7D7D7D7D7D700D7D7D7D7D7D7D7D7D70000D7D7D7D7D7D7D7D7D700D7D7D7D7D7D7D7D7D7D7D7D7D7D7D7D7D7D7D7D7D7D7D7D7D7D7D7D7D7D7D7D7D7D7D7D7D7D7D7D7D7D7D7D7D7D7D7D7D7D7
310
D7D7D7D7D7D7D7D7D7D7D7D7D7D7D7D7D7D7D7D7D7D7D7D70505D7D7D7D7D7D7D7D7D7D7D7D7D7D7D7D7D7D7D7D7D7D7D7D7D7D7D700D7D7D7D7D7D7D7D7D7D7D7D7D7D7D7D7D7D7D700D7D7D7D7D7D7D7D7D7D7D7D7D7D7D7D7D705D7D7D7D7D7D7D7D7D7D7D7D7D7D7D7D7D7D7D7D7D7D7D7D7D7D7D7D7D7D7D7D7D7D7D7
310
D7D7D7D7D7D7D7D7D7D7D7D7D700D7D7D7D7D7D7D7D7D70000D7D7D7D7D7D7D7D7D700D7D7D7D7D7D7D7D7D7D7D7D7D7D7D7D7D7D7D7D7D7D7D7D7D7D7D7D7D7D7D7D7D7D7D7D7D7D7D7D7D7D7D7D7D7D7D7D705D7D7D7D7D7D7D7D7D7D7D7D7D7D7D7D7D7D7D7D7D7D70500D7D7D7D7D7D7D7D7D7D7D7D70000D7D7D7D7D7
310
D7D7D7D7D7D7D7D7D700D7D7D7D7D7D7D7D7D7D7D7D7D705D7D7D7D7D7D7D7D7D70000D7D7D716D7D7D7D716D7D7D7D700D7D7D7D7D7D7D7D7D7D7D7D7D7D7D7D7D7D7D7D7D7D7D7D7D7D7D7D7D7D7D7D7D7D7D7D7D7D7D7D7D7D7D7D7D7D7D7D7D700D7D7D7D7D7D7D7D7D70000D7D7D7D7D7D7D7D7D700D7D7D7D7D7D7D7
310
D7D7D7D7D7D7D7D7D7D7D7D7D7D7D7D7D7D7D7D7D7D7D7D7D7D7D7D7D7D7D7D7D7D7D7D7D7D7D7D7D7D7D7D7D7D7D7D7D7D7D7D7D7D7D7D7D7D7D7D7D7D7D70500D7D7D7D7D7D7D7D7D7D7D7D700D7D7D7D7D7D7D7D7D7D7D7D7D7D7D700D7D7D7D7D7D7D7D7D7D7D7D7D7D7D70505D7D7D7D7D7D7D7D7D7D7D7D7D7D7D7D7
310
D7D7D7D7D7D700D7D705D7D7D7D7D7D7D7D7D7D7D7D7D7D7D7D7D7D7D7D7D7D7D7D7D7D7D7D7D7D7D7D7D7D7D7D7D7D7D7D7D7D7D7D7D7D700D7D7D7D7D7D7D7D7D70000D7D7D7D7D7D7D7D7D700D7D7D7D7D7D7D7D7D7D7D7D7D7D7D7D7D7D7D7D7D7D7D7D7D7D7D7D7D7D7D7D7D7D7D7D7D7D7D7D7D7D7D7D7D7D705D7D7
310
D7D7D7D7D7D7D7D7D7D7D7D7D7D7D7D7D7D705D700D7D7D7D7D7D7D7D7D7D7D7D700D7D7D7D7D7D7D7D7D7D7D7D7D7D70000D7D7D7D7D7D7D7D7D7D7D7D7D7D7D7D7D7D7D7D705D7D7D7D700D7D7D7D7D7D7D7D7D7D7D7D7D7D700D7D7D7D7D7D7D7D7D7D7D7D7D7D7D7D7D7D7D7D7D7D7D7D7D7D7D7D7D7D7D7D7D7D7D7D7
310
D7D7D7D7D7D7D7D7D7D7D7D7D7D700D7D7D7D7D7D7D7D7D70000D7D7D7D7D7D7D7D7D700D7D7D7D7D7D7D7D7D7D7D7D7D7D7D7D7D7D7D7D7D7D7D7D7D7D7D7D7D7D7D7D7D7D7D7D7D7D7D7D7D7D7D7D7D7D7D7D7D7D7D7D7D7D7D7D7D7D7D7D7D7D7D7D7D7D7050000D7D7D7D7D7D7D7D7D7D7D7D700D7D7D7D7D7D7D7D7D7
310
D7D7D7D7D7D7D7D7D7D7D7D7D7D7D7D7D7D7D7D7D7D7D7D7D7D7D7D7D70505D700D7D7D7D7D7D7D7D7D7D7D7D7D7D7D700D7D7D7D70505D7D7D7D7D7D7D7D7D7D7D7D7D7D7D7D7D7D7D7D7D7D7D7D7D7D7D7D7D7D7D7D7D7D7D7D7D7D7D7D7D7D7D7D700D7D7D7D7D7D7D7D7D70000D7D7D7D7D7D7D7D7D700D7D7D7D7D7D7
310
D7D7D7D7D7D7D7D7D7D7D7D7D7D7D7D7D7D7D7D7D7D7D7D7D7D7D7D7D7D7D7D7D7D7D7D7D7D7D7D716D7D7D7D716D7D7D7D7D7D7D7D7D7D7D70505D700D7D7D7D7D7D7D7D7D7D7D7D700D7D7D7D7D7D7D7D7D7D7D7D7D7D700D7D7D7D7D7D7D7D7D7D7D7D7D7D7D7D7D7D7D7D7D7D7D7D7D7D700D7D7D7D7D7D7D7D7D7D7D7
310
D7D7D7D7D7D7D7D7D7D7D7D7D705D7D7D7D7D7D7D7D7D7D7D7D7D7D7D7D7D7D7D7D7D7D7D7D7D7D7D7D7D7D7D7D7D7D7D7D7D7D7D7D7D7D7D700D7D7D7D7D7D7D7D7D70000D7D7D7D7D7D7D7D7D700D7D7D7D7D7D7D7D7D7D7D7D7D7D7D7D7D7D7D7D7D7D7D7D7D7D7D7D7D7D7D7D7D7D7D7D7D7D7D7D7D7D7D705D7D7D7D7
310
D7D7D7D7D7D7D7D7D7D7D7D7D7D7D700D7D7D7D7D7D7D7D7D7D7D7D70000D7D7D7D7D7D7D7D7D7D7D7D7D7D700D7D7D7D7D7D7D7D7D7D7D7D7D7D7D7D7D7D7D7D7D7D7D7D7D70000D7D7D7D7D7D7D7D7D7D7D7D7D7D7D7D7D7D7D7D7D7D7D7D7D7D7D705D7D7D7D7D7D7D7D7D7D7D7D7D7D7D7D7D7D7D7D7D7D7D7D7D7D7D7
310
D7D7D7D7D7D7D7D7D7D7D7D7D7D7D700D7D7D7D7D7D7D7D7D70000D7D7D7D7D7D7D7D7D700D7D7D7D7D7D7D7D7D7D7D7D7D7D7D7D7D7D7D7D7D7D7D7D7D7D7D7D7D7D7D7D7D7D7D7D7D7D7D7D7D7D7D705D7D7D7D7D7D7D7D7D7D7D7D7D7D7D7D7050500D7D7D7D7D7D7D7D7D7D7D7D7D7D7D7D7D7D7D7D7D7D7D7D7D7D7D7
310
D700D7D7D7D7D7D7D7D7D7D7D7D7D7D7D7D7D7D7D7D7D7D7D7D7D7D7D7D7D7D7D7D7D70505D7D7D7D7D7D7D7D715D7D7D7D715D7D7D7D7D7D7D7D7D7D7D7D7D7D7D7D7D7D7D7D7D7D7D7D7D7D7D7D7D7D7D7D7D7D7D7D7D7D7D7D7D7D7D7D7D7D7D7D7D700D7D7D7D7D7D7D7D7D70000D7D7D7D7D7D7D7D7D700D7D7D7D7D7
310
D7D7D7D7D7D7D7D7D7D7D7D7D7D7D7D7D7D7D7D7D7D7D7D7D7D7D7D7D7D7D7D7D7D7D7D7D705D7D7D7D7D7D7D7D7D7D7D7D7D7D7D7D70500D7D7D7D7D7D7D7D7D7D7D7D700D7D7D7D7D7D7D7D7D7D7D7D7D7D70000D7D7D7D7D7D7D7D7D7D7D7D7D7D7D7D7D7D7D7D7D7D7D7D7D700D7D7D7D7D7D7D7D7D7D7D705D7D7D7D7
310
D7D7D7D7D7D700D7D7D7D7D7D7D7D7D705D7D7D7D7D7D7D7D7D7D7D7D7D7D7D7D7D7D7D7D7D7D7D7D7D7D7D7D7D7D7D7D7D7D7D7D7D7D7D7D7D700D7D7D7D7D7D7D7D7D70000D7D7D7D7D7D7D7D7D700D7D7D7D7D7D7D7D7D7D7D7D7D7D7D7D7D7D7D7D7D7D7D7D7D7D7D7D7D7D7D7D7D7D7D7D7D7D7D7D7D7D705D7D7D7D7
310
D7D7D7D7D7D7D7D7D7D7D7D700D7D7D7D7D7D7D7D7D7D7D7D700D7D7D7D7D7D7D7D7D7D7D7D7D7D7D7D7D7D7D7D7D7D7D7D7D7D7D7D7D7D7D7D7D7D7D7D7D7D7D7D7D700D7D7D7D7D7D7D7D7D7D7D7D7D705D7D7D7D7D7D7D7D7D700D7D7D7D7D7D7D7D7D7D705D7D7D7D7D7D7D7D7D7D7D7D7D7D7D7D7D7D7D7D7D7D7D7D7
310
D7D7D7D7D7D7D7D7D7D7D7D7D7D7D7D700D7D7D7D7D7D7D7D7D70000D7D7D7D7D7D7D7D7D700D7D7D7D7D7D7D7D7D7D7D7D7D7D7D7D7D7D7D7D7D7D7D7D7D7D7D7D7D7D7D7D7D7D7D7D7D7D7D7D7D7D7D7D7D7D7D7D7D7D7D7D7D7D7D7D7D700D7D7D705D7D7D7D7D7D7D7D700D7D7D7D7D7D7D7D7D7D7D7D7D7D70000D7D7
310
D7D7D7D7D7D7D7D7D7D7D7D7D7D7D7D7D7D7D7D7D7D7D700D7D7D7D7D7D7D7D7D7D7D7D7D7D7D7D7D7D7D7D7D7D7D7D700D7D7D7D7D7D7D7D7D7D7D7D705D7D7D7D7D7D7D7D7D7D7D7D7D7D7D7D7D7D7D7D7D7D7D7D7D7D7D7D7D7D7D7D7D7D7D7D7D7D7D700D7D7D7D7D7D7D7D7D70000D7D7D7D7D7D7D7D7D700D7D7D7D7
310
D7D7D7D7D7D7D7D7D7D7D7D7D7D7D7D7D7D7D7D7D7D7D7D7D7D7D7D7D7D7D7D7D7D7D7D7D7D7D7D7D7D7D7D7D7D7D715D7D7D70000D7D7D7D7D7D7D7D7D7D7D7D700D7D7D7D7D7D7D7D7D7D7D7D7D7D700D7D7D7D7D7D7D7D7D7D7D7D7D7D7D7D7D7D7D7D7D7D7D7D7D7D700D7D7D7D7D7D7D7D7D7D7D7D7D7D7D7D7D7D705
310
D7D7D7D7D7D700D7D7D7D7D7D7D7D7D7D7D7D7D7D7D7D7D7D7D7D7D7D7D7D7D7D7D7D7D7D7D7D7D7D7D7D7D7D7D7D7D7D7D7D7D7D7D7D7D7D7D7D700D7D7D7D7D7D7D7D7D70000D7D7D7D7D7D7D7D7D700D7D7D7D7D7D7D7D7D7D7D7D7D7D7D7D7D7D7D7D7D7D7D7D7D7D7D7D7D7D7D7D7D7D7D7D7D7D7D705D7D7D7D7D7D7
310
D7D7D7D7D7D7D70000D7D7D7D7D7D7D7D705D7D7D7D7D7D7D7D7D7D7D7D7D7D7D7D7D7D700D7D7D7D7D7D7D7D7D7D7D7D7D7D7D7D7D7D7D7D7D7D7D7D7D7D7D7D7D7D7D7D7D7D7D7D7D7D7D7D7D7D7D7D7D7D7D7D7D7D7D7D716D7D7D7D716D7D7D7D7D7D7D7D7D7D705D7D7D7D7D7D7D7D7D7D7D7D7D7D7D7D7D7D7D7D7D7
310
D7D7D7D7D7D7D7D7D7D7D7D7D7D7D7D7D700D7D7D7D7D7D7D7D7D70000D7D7D7D7D7D7D7D7D700D7D7D7D7D7D7D7D7D7D7D7D7D7D7D7D7D7D7D7D7D7D7D7D7D7D7D7D7D7D7D7D7D7D7D7D7D7D7D7D7D7D7D7D7D7D7D7D7D7D7D700D7D7D7D7D7D7D7D7D7D7D7D70500D7D7D7D7D7D7D7D7D7D7D7D7D7D700D7D7D7D7D7D7D7
310
D7D7D7D7D7D7D7D7D7D7D7D7D7D7D7D7D7D70000D7D7D7D7D7D7D7D7D7D7D7D7D7D7D7D7D7D7D7D7D7D7D7D7D705D7D7D7D7D7D7D7D7D7D7D7D7D7D7D7D7D7D705D7D7D7D7D7D7D7D7D7D7D7D7D7D7D7D7D7D7D7D7D7D7D7D7D7D7D7D7D7D7D7D7D7D7D7D7D700D7D7D7D7D7D7D7D7D70000D7D7D7D7D7D7D7D7D700D7D7D7
310
D7D7D7D7D7D7D7D7D7D7D7D7D7D7D7D7D7D7D7D7D7D7D7D7D7D7D7D7D7D7D7D7D7D7D705D7D7D7D7D7D7D7D7D7D7D700D7D7D7D7D7D7D7D7D7D7D7D700D705D7D7D7D7D7D7D7D7D7D7D7D7D700D7D7D7D7D7D7D7D7D7D7D7D7D7D7D7D7D7D7D7D7D7D7D7D7D7D7D7D7D7D7D7D7D7D7D7D7D7D7D7D7D7D7D7D7D7D7D7D7D7D7
310
D7D7D7D7D7D7D7D7D7D7D7D7D7D7D7D7D7D7D7D7D7D7D7D7D7D7D7D7D7D7D7D7D7D7D7D7D7D7D7D7D7D7D7D7D7D7D7D7D7D7D7D7D7D7D7D7D7D7D7D700D7D7D7D7D7D7D7D7D70000D7D7D7D7D7D7D7D7D700D7D7D7D7D7D7D7D7D7D7D7D7D7D7D7D7D7D7D7D7D7D7D7D7D7D7D7D7D7D7D7D7D7D7D7D7D7D7D7D7D7D7D7D7D7
310
D7D7D7D7D700D7D7D7D7D7D7D7D7D7D700D7D7D7D705D7D7D7D7D7D7D7D7D70000D7D7D7D7D7D7D7D7D7D7D7D7D7D7D7D7D7D7D7D7D7D7D7D7D700D7D7D7D7D7D7D7D7D7D7D7D7D7D7D7D7D7D7D7D7D7D7D7D7D7D7D7D7D7D7D70500D7D7D7D7D7D7D7D7D7D7D7D7D7D7D7D705D7D7D7D7D7D7D7D7D7D7D7D7D7D7D7D7D7D7
310
D7D7D7D7D7D7D7D7D7D7D7D7D7D7D7D7D7D700D7D7D7D7D7D7D7D7D70000D7D7D7D7D7D7D7D7D700D7D7D7D7D7D7D7D7D7D7D7D7D7D7D7D7D7D7D7D7D7D7D7D7D7D7D7D7D7D7D7D7D7D7D7D7D705D7D7D7D7D7D7D7D7D7D7D7D70016D7D7D7D716D7D7D700D7D7D7D7D7D7D7D7D7D7D7D7D7D7D7D7D7D7D7D7D7D7D7D7D7D7
310
D7D7D7D7D7D7D7D7D7D7D7D7D7D7D700D7D7D7D7D7D7D7D7D7D7D7D7D7D7D7D7D7D7D7D7D7D7D7D7D7D7D7D7D7D7D7D7D700D7D7D7D7D7D7D7D7D7D7D7D7D7D7D7D7D705D7D7D7D7D7D7D7D7D7D7D7D7D7D7D7D7D7D7D7D7D7D7D7D7D7D7D7D7D7D7D7D7D7D7D700D7D7D7D7D7D7D7D7D70000D7D7D7D7D7D7D7D7D700D7D7
310
D7D7D7D7D7D7D7D7D7D7D7D7D7D7D7D7D7D7D7D7D7D7D7D7D7D7D7D7D7D7D7D7D7D705D7D7D7D7D7D7D7D7D7D7D7D7D70005D7D7D7D7D7D700D7D7D7D7D7D7D7D7D705D7D7D7D7000000D7D7D7D7D7D7D7D7D7D7D7D7D7D7D7D7D7D7D7D7D7D7D7D700D7D7D7D7D7D7D7D7D7D7D7D7D7D7D7D7D7D7D7D7D7D7D7D7D7D7D7D7
310
D7D7D7D7D7D7D705D7D7D70FD7D7D7D716D7D7D7D7D7D7D7D7D7D7D7D7D7D7D7D7D7D7D7D7D7D7D7D7D7D7D7D7D7D7D7D7D7D7D7D7D7D7D7D7D7D7D7D700D7D7D7D7D7D7D7D7D70000D7D7D7D7D7D7D7D7D700D7D7D7D7D7D7D7D7D7D7D7D7D7D7D7D7D7D7D7D7D7D7D7D7D7D7D7D7D7D7D7D7D7D7D7D705D7D7D7D7D7D7D7
310
D7D7D7D7D7D705D7D705D7D7D700D7D7D7D7D7D7D7D7D7D7D7D7D7D700D700D70000D7D7D7D7D7D7D7D7D7D7D7D7D7D7D7D7D7D7D7D7D700D7D7D7D7D7D7D7D7D7D7D7D7D7D7D7D7D7D7D7D7D7D7D7D7D7D7D7D7D7D7D7D7D7D7D7D7D7D7D7D7D7D7D7D7D7D7D7D7D7D7D7D7D7D7D705D7D7D7D7D7D7D7D7D7D7D7D7D7D7D7
310
D7D7D7D7D7D7D7D7D7D7D7D7D7D7D7D7D7D7D700D7D7D7D7D7D7D7D7D70000D7D7D7D7D7D7D7D7D700D7D7D7D7D7D7D7D7D7D7D7D7D7D7D7D7D7D7D7D7D7D7D7D7D7D7D7D7D7D7D7D7D7D7D705D7D7D7D7D7D7D7D7D7D7D7D7D7D700D7D7D7D7D7D7D7D7D7D7D7D7D7D7D7D7D7D7D705D7D7D700D7D7D7D700D7D7D7D7D7D7
310
D7D7D7D7D7D7D7D7D7D7D7D7D7D7D7D7D7D7D7D7D7D7D7D7D7D7D7D7D7D7D7D7D7D7D7D7D7D7D7D7D7D7D7D7D7D7D7D7D700D705D7D7D7D7D7D7D7D7D7D7D7D7D7D7D7D7D705D7D7D7D7D7D7D7D7D7D7D7D7D7D7D7D7D7D7D7D7D7D7D7D7D7D7D7D7D7D7D7D7D7D700D7D7D7D7D7D7D7D7D70000D7D7D7D7D7D7D7D7D700D7
310
D7D7D7D7D7D7D7D7D7D7D7D7D7D7D7D7D7D7D7D7D7D7D7D7D7D7D7D7D7D7D7D7D705D7D7D7D7D7D7D7D7D7D7D7D7D7D70500D700D7D7D705D7D7D7D7D7D7D7D7D7D70000D7D705D7D700D7D7D7D7D7D700D7D7D7D7D7D7D7D7D7D7D7D700D7D7D7D7D7D7D7D7D7D7D7D7D7D7D7D7D7D7D7D7D7D7D7D7D7D7D7D7D7D7D7D7D7
310
D7D7D7D7D7D7D700D7D7D7D7D7D7D7D7D7D7D7D7D7D7D7D7D7D7D7D705D7D7D7D7D7D7D7D7D7D7D7D7D7D7D7D7D7D7D7D7D7D7D7D7D7D7D7D7D7D7D7D7D700D7D7D7D7D7D7D7D7D70000D7D7D7D7D7D7D7D7D700D7D7D7D7D7D7D7D7D7D7D7D7D7D7D7D7D7D7D7D7D7D7D7D7D7D7D7D7D7D7D7D7D7D70516D7D7D7D70FD7D7
310
D7D7D7D7D705D70000D7D7D7D7D7D7D7D7D716D7D7D7D7D7D700D7D7D705D700D7D7D7D7D7D7D700D7D7D7D7D7D7D7D7D7D700D7D7D7D7D7D7D7D7D7D7D7D7D7D7D7D7D7D7D7D7D7D7D7D7D7D7D7D7D7D7D7D7D7D7D7D7D7D7D7D7D700D7D7D705D7D7D7D7D7D7D7D7D7D7D7D7D7D7D7D7D7D7D7D7D7D7D7D7D7D7D7D7D7D7
310
D7D7D7D7D7D7D7D7D7D7D7D7D7D7D7D7D7D7D7D700D7D7D7D7D7D7D7D7D70000D7D7D7D7D7D7D7D7D700D7D7D7D7D7D7D7D7D7D7D7D7D7D7D7D7D7D7D7D7D7D7D7D7D7D7D7D7D7D7D7D7D7D7D7D7D7D7D7D7D7D7D7D7D7D7D7D7D7D700D7D7D7D7D7D7D705D7D7D7D7D70000D7D700D7D700000500D7D7D7D7D7D7D7D7D700
310
D7D7D7D7D7D700D7D7D7D7D7D7D7D7D7D7D7D7D7D7D7D7D7D7D7D7D7D7D7D7D7D7D7D7D7D7D7D7D7D7D7D7D7D7D7D7D7D700D7D7D7D7D705D7D7D7D7D7D7D7D7D7D7D7D7D7D7D7D705D7D7D7D7D7D7D7D7D7D7D7D7D7D7D7D7D7D7D7D7D7D7D7D7D7D7D7D7D7D7D7D700D7D7D7D7D7D7D7D7D70000D7D7D7D7D7D7D7D7D700
310
D7D7D7D7D7D7D7D7D7D7D7D7D7D7D7D7D7D7D7D7D7D7D7D7D7D7D7D7D7D7D7D7D7D7D7D7D7D7D7D7D7D7D7D7D7D7D705D7D700D7D7D7D7D7D7D7D7D7D7D7D700D7D7D7D700D7D7D700D700D7D7D7D7D7D7D7D7D7D70000D7D7D700D7D7D7D7D7D7D7D7D7D7D7D7D7D7D7D7D7D7D7D7D7D7D7D7D7D7D7D7D7D7D7D7D7D7D7D7
310
D7D7D7D7D7D7D700D7D7D7D7D715D7D7D7D716D7D7D7D716D7D7D7D7D715D7D7D7D7D7D7D7D7D7D7D7D7D7D7D7D7D7D7D7D7D7D7D7D7D7D7D7D7D7D7D7D7D700D7D7D7D7D7D7D7D7D70000D7D7D7D7D7D7D7D7D700D7D7D7D7D7D7D7D7D7D7D7D7D7D7D7D7D7D7D7D7D7D7D7D7D7D7D7D7D7D7D7D7D705D7D7D7D7D7D7D7D7
310
D7D7D7D705D7D7D700D7D7D7D7D7D7D7D7D7D700D7D7D7D7D7D700D7D7D70000D705D7D7D7D7D7D7D7D7D7D7D700D7D7D7D7D7D7D7D7D7D7D7D7D7D7D7D7D7D7D7D7D7D7D7D7D7D7D7D7D7D7D7D7D7D7D7D7D7D7D7D7D7D7D7D7D7D7D7D7D7D7D7D7D705D7D7D7D7D7D7D7D7D7D7D7D7D7D7D7D7D7D7D7D7D7D7D7D7D7D7D7
310
D7D7D7D7D7D7D7D7D7D7D7D7D7D7D7D7D7D7D7D7D700D7D7D7D7D7D7D7D7D70000D7D7D7D7D7D7D7D7D700D7D7D7D7D7D7D7D7D7D7D7D7D7D7D7D7D7D7D7D7D7D7D7D7D7D7D7D7D7D7D7D7D7D7D7D7D7D7D7D7D7D7D7D7D7D7D7D7D7D700D7D7D7D7D7D7D7D700D705D7D7D7D7D7D700D7D7D70000D7D705D700D7D7D7D7D7
310
D7D7D7D7D7D700D7D7D7D7D7D7D7D7D7D7D7D7D7D7D7D7D7D7D7D7D7D7D7D7D7D7D7D7D7D7D7D7D7D7D7D7D7D7D7D7D7D7D7D7D7D7D7D7D7D7D705D7D7D7D7D7D7D7D7D7D7D7D7D7D7D705D7D7D7D7D7D7D7D7D7D7D7D7D7D7D7D7D7D7D7D7D7D7D7D7D7D7D7D7D7D7D700D7D7D7D7D7D7D7D7D70000D7D7D7D7D7D7D7D7D7
310
00D7D7D7D7D7D7D7D7D7D7D7D7D7D7D7D7D7D7D7D7D7D7D7D7D7D7D7D7D7D7D7D7D7D7D716D7D7D7D716D7D7D7D7D7D7D7D7D700D7D7D7D7D7D7D700D7D7D7D7D7D7D7D7D7000000D700D700D7D705D700D7D7D7D7D7D7D7D7D7D7D700D7D7D7D7D7D7D7D7D7D7D7D7D7D7D7D7D7D7D7D7D7D7D7D7D7D7D7D7D7D7D7D7D7D7
310
D7D7D7D7D7D7D700D7D7D7D7D7D7D7D705D7D7D7D7D7D7D7D7D7D7D7D7D7D7D7D705D7D7D7D7D7D7D7D7D7D7D7D7D7D7D7D7D7D7D7D7D7D7D7D7D7D7D7D7D7D700D7D7D7D7D7D7D7D7D70000D7D7D7D7D7D7D7D7D700D7D7D7D7D7D7D7D7D7D7D7D7D7D7D7D7D7D7D7D7D7D7D7D7D7D7D7D7D7D7D7D7D7D7D7D7D7D7D7D7D7
310
D7D7D7D7D7D7D7D7D700D7D7D7D70000D7D7D7D7D7D705D7D7D7D700D7D7D700D7D7D700D705D7D700D7D7D7D7D7D7D7D7D7D7D700D7D7D7D7D7D7D7D7D7D7D7D7D7D7D7D7D7D7D7D7D7D7D7D7D7D7D7D7D7D7D7D7D7D7D7D7D7D7D700D7D7D7D7D7D7D7D7D705D7D7D7D7D7D7D7D7D7D7D7D7D7D7D705D7D7D7D7D7D7D7D7
310
D7D7D7D7D7D7D7D7D7D7D7D7D7D7D7D7D7D7D7D7D7D700D7D7D7D7D7D7D7D7D70000D7D7D7D7D7D7D7D7D700D7D7D7D7D7D7D7D7D7D7D7D7D7D7D7D7D7D7D7D7D7D7D7D7D7D7D7D7D7D7D705D7D7D7D7D7D7D7D7D7D7D7D7D7D7D7D7D7D700D7D7D7D7D7D7D7D7D7D7D7D7D7D7D7D7D7D70000D700D7D7D7D700D705D7D700
310
D7D7D7D7D7D7D7D7D7D7D700D7D7D7D7D7D7D7D7D7D7D7D7D7D7D7D7D7D7D7D7D7D7D7D7D7D7D7D7D7D7D7D7D7D7D7D7D7D700D7D7D7D7D7D7D7D7D705D715D7D7D7D715D7D7D7D7D716D7D705D7D7D7D7D7D7D7D7D7D7D7D7D7D7D7D7D7D7D7D7D7D7D7D7D7D7D7D7D7D700D7D7D7D7D7D7D7D7D70000D7D7D7D7D7D7D7D7
310
D700D7D7D7D7D7D7D7D7D7D7D7D7D7D7D7D7D7D7D7D7D7D7D7D7D7D7D7D7D7D7D705D7D7D7D7D7D7D7D7D7D7D7D705D7D7D7D7D700D700D7D7D7D7D7D7D7D7D7D7D7D705D7D7D7D7D7D700D7D7D7D7D7D7D705D7D7D700D7D7D7D7D7D7D7D7D7D7D700D7D7D7D7D7D7D7D7D7D7D7D7D7D7D7D7D7D7D7D7D7D7D7D7D7D7D7D7
310
D7D7D7D7D7D7D700D7D7D7D7D7D7D7D7D7D7D7D7D7D7D7D7D7D7D7D7D7D7D7D7D7D7D7D7D7D7D7D7D7D7D7D7D7D7D7D7D7D7D7D7D7D7D7D7D7D7D7D7D7D7D7D7D700D7D7D7D7D7D7D7D7D70000D7D7D7D7D7D7D7D7D700D7D7D7D7D7D7D7D7D7D7D7D7D7D7D7D7D7D7D7D7D7D7D7D7D7D7D7D7D7D7D7D7D7D7D7D7D7D7D7D7
310
D7D7D7D705D7D7D7D7D70000D7D7D7D7D7D7D7D7D7D7D7D7D7D7D7D7D7D7D7D700D7D7D7D7D7D7D7D7D7D7D7D70000D7D7D7D7D7D7D7D7D7D70000D7D7D7D7D7D7D7D7D7D7D7D7D7D7D7D7D7D7D7D7D7D7D7D7D7D7D7D7D7D7D7D7D700D7D7D7D7D7D7D7D7D7D7D7D7D7D7D7D7D7D7D7D7D7D7D7D7D7D7D7D7D7D7D7D7D7D7
310
D7D7D7D7D7D7D7D7D7D7D7D7D7D7D7D7D7D7D7D7D7D7D700D7D7D7D7D7D7D7D7D70000D7D7D7D7D7D7D7D7D700D7D7D7D7D7D7D7D7D7D7D7D7D7D7D7D7D7D7D7D7D7D7D7D7D7D7D7D7D7D705D7D7D7D715D7D7D7D715D7D705D7D7D7D7D7D7D700D7D7D7D7D7D7D7D7D7D7D7D7D7D7D7D7D7D7D7D700D7D7D7D7D7D7D7D7D7
310
0500D7D7D700D7D7D7D7D7D7D7D7D7D7D70000D7D7D7D7D7D7D7D7D7D7D7D7D7D7D7D7D7D7D7D7D7D7D7D7D7D7D7D7D7D7D7D7D7D7D7D7D7D7D7D7D7D7D7D705D7D7D7D7D7D7D7D7D7D7D7D7D7D705D7D7D7D7D7D7D7D7D7D7D7D7D7D7D7D7D7D7D7D7D7D7D7D7D7D7D7D7D700D7D7D7D7D7D7D7D7D70000D7D7D7D7D7D7D7
310
D7D700D7D7D7D7D7D7D7D7D7D7D7D7D7D7D7D7D7D7D7D7D7D7D7D7D7D7D7D7D7D705D7D7D7D7D7D7D7D7D7D7D7D7D7D7D7D7D7D7D7D7D7000000D7D7D7D7D7D7D7D7D7D7D7D7D705D7D7D700D7D7D7D7D7D7D7D7D7D705D700D7D7D7D700D7D7D7D7D7D7D7D7D7D7D7D7D7D7D7D7D7D7D7D7D7D7D7D7D7D7D7D7D7D7D7D7D7
310
D7D7D7D7D7D7D7D7D7D7D7D7D7D7D7D7D7D7D7D7D705D7D7D7D7D7D7D7D7D7D7D7D7D7D705D7D7D7D7D7D7D7D7D7D7D7D7D7D7D7D7D7D7D7D7D7D7D7D7D7D7D7D7D700D7D7D7D7D7D7D7D7D70000D7D7D7D7D7D7D7D7D700D7D7D7D7D7D7D7D7D7D7D7D7D7D7D7D7D7D7D7D7D7D7D7D7D7D7D7D7D7D705D7D7D7D7D7D7D7D7
310
D7D7D7D7D7D7D7D7D7D7D7D7D700D700D7D7D7D7D7D7D7D7D7D7D7D7D7D7D7D7D700D7D7D7D7D7D7D7D7D7D7D705D700D7D7D7D700D7D7D7D7D7D7D7D7D7D70000D7D7D7D7D7D7D7D7D7D7D7D7D7D7D7D7D7D7D7D7D7D7D7D7D7D7D700D7D7D7D7D7D7D7D7D7D7D7D7D7D7D7D7D7D716D7D7D7D7160FD7D7D7D705D7D7D7D7
310
D7D7D7D7D7D7D7D7D7D7D7D7D7D7D7D7D7D7D7D7D7D7D7D700D7D7D7D7D7D7D7D7D70000D7D7D7D7D7D7D7D7D700D7D7D7D7D7D7D7D7D7D7D7D7D7D7D7D7D7D7D7D7D7D7D7D7D7D7D7D7D7D705D7D7D7D7D7D7D7D7D7D7D705D7D7D7D7D7D7D7D7D700000000000000000000D7D7D7D7D7D7D7D705D700D7D7D7D7D7D7D7D7
310
D7D7D7D705D7D700D7D7D7D700D7D7D7D7D7D7D7D7D7D7D700D7D7D7D7D7D7D7D7D7D7D7D7D7D7D7D7D7D7D7D7D7D7D7D7D700D7D7D7D7D7D7D7D7D7D7D7D7D7D7D7D7D7D7D7D7D7D7D7D7D7D7D7D7D705D7D7D7D7D7D7D7D7D7D7D7D7D7D7D7D7D7D7D7D7D7D7D7D7D7D7D7D700D7D7D7D7D7D7D7D7D70000D7D7D7D7D7D7
310
D7D7D700D7D7D7D7D7D7D7D7D7D7D7D7D7D7D7D7D7D7D7D7D7D7D7D7D7D7D7D7D705D7D7D7D7D7D7D7D7D7D7D7D705D7D7D7D7D7D7D7D7D7D7D7D7D7D7D7D70000D7D7D7D7D7D7D7D70000D700D7D7D7D7D7D7D7D7D7D7D7D7D705D7D700D7D7D7D700D7D7D7D7D7D7D7D7D7D7D700D7D7D7D7D7D7D7D7D7D7D7D7D7D7D7D7
310
D7D7D7D7D7D7D7D700D7D7D7D7D7D7D7D7D7D7D7D7D7D7D7D7D7D7D7D7D7D7D7D7D7D7D7D7D705D7D7D7D7D7D7D7D7D7D7D7D7D7D7D7D7D7D7D7D7D7D7D7D7D7D7D7D700D7D7D7D7D7D7D7D7D70000D7D7D7D7D7D7D7D7D700D7D7D7D7D7D7D7D7D7D7D7D7D7D7D7D7D7D7D7D7D7D7D7D7D7D7D7D7D7050FD7D7D7D716D7D7
310
D7D7D7D705D7D7D7D7D7D7D7D7D7D7D7D7D7D7D7D7D700D7D7D7D7D7D700D7D7D7D705D7D7D7D7D7D7D7D7D7D7D7D7D7D705D7D7D7D700D7D7D700D7D7D7D7D7D7D7D7D7D7D700D7D7D7D7D7D7D7D7D7D7D7D7D7D7D7D7D7D7D7D7D700D7D7D7D7D7D7D7D7D7D7D7D7D7D7D705D7D7D7D7D7D7D7D7D7D7D7D7D7D7D7D7D7D7
310
D7D7D7D7D7D7D7D7D7D7D7D7D7D7D7D7D7D7D7D7D7D7D7D7D700D7D7D7D7D7D7D7D7D70000D7D7D7D7D7D7D7D7D700D7D7D7D7D7D7D7D7D7D7D7D7D7D7D7D7D7D7D7D7D7D7D7D7D7D7D7D7D7D7D7D7D7D7D7D7D7D7D7D70F05D7D7D7D7D7D7D7D7D7D7D7D7D7D7D7D7D7D7D700D7D7D7D700D7D7D7D7D700D7D7D7D7D7D7D7
310
D7D7D7D7D7D7D7D7D7D7D7D7D700D7D7D70000D7D7D7D7D7D7D7D7D7D70000D7D7D7D7D7D7D7D7D7D7D7D7D7D7D7D7D7D7D700D7D7D7D7D7D7D7D7D7D7D7D7D7D7D705D7D7D7D7D7D7D7D7D7D7D7D7D7D7D7D7D7D7D7D7D7D7D7D7D7D7D7D7D7D7D7D7D7D7D7D7D7D7D7D7D7D7D700D7D7D7D7D7D7D7D7D70000D7D7D7D7D7
310
D7D7D7D700D7D7D7D7D7D7D7D7D7D7D7D7D7D7D7D7D7D7D7D7D7D7D7D7D7D7D7D7D7D7D7D7D7D7D7D7D7D7D7D7D705D7D7D7D7D7D7D7D7D7D7D7D7D7D7D7D7D7D7D7D7D7D7D7D7D7D7D7D7D7D700D7D7D7D7D7D7D7D7D7D7D7D7D7D7D7D705D7D7D7D7D700D7D7D70000D7D7D7D7D7D7D7D7D7D70000D7D7D7D7D7D7D7D7D7
310
D7D7D7D7D7D7D7D7D7D7D7D7D7D7D7D7D7D7D7D7D7D7D7D7D705D7D7D7D7D7D7D7D7D7D7D7D7D7D7D7D7D7D7D7D7D7D7D7D7D7D7D7D7D7D7D7D7D7D7D7D7D7D7D7D7D7D700D7D7D7D7D7D7D7D7D70000D7D7D7D7D7D7D7D7D700D7D7D7D7D7D7D7D7D7D7D7D7D7D7D7D7D7D7D7D7D7D7D7D7D7D7D7D7D7D7D7D7D7D7D7D7D7
310
D7D7D7D705D7D7D7D7D7D7D7D7D7D7D7D7D7D7D7D7D7D7D7D7D7D7D7D7D7D7D7D7D7D700D7D705D7D7D7D7D7D7D7D7D7D7D7D7D7D705D7D7D7D7D7D700D7D7D7D7D7D7D7D7D7D7D7D7D7D7D7D700D7D7D7D7D7D7D7D7D7D7D7D7D7D7D7D7D7D7D7D7D7D7D7D7D7D7D7D7D7D7D7D705D7D7D7D7D7D7D7D7D7D7D7D7D7D705D7
310
D7D7D7D7D7D7D7D7D7D7D7D7D7D7D7D7D7D7D7D7D7D7D7D7D7D700D7D7D7D7D7D7D7D7D70000D7D7D7D7D7D7D7D7D700D7D7D7D7D7D7D7D7D7D7D7D7D7D7D7D7D7D7D7D7D7D7D7D7D7D7D7D7D7D7D7D7D7D7D7D7D7D7D7D7D7D7D7D7D7D7D7D7D7D7D7D7D7D7D7D7D7D7D7D7D7D7D7D7D7D7D7D7D7D7D7D700D7D7D7D7D7D7
310
D7D7D7D7D7D7D7D7D7D7D7D705D7D7D7D7D7D700D7D7D70000D7D7D7D7D7D7D7D7D7D7D700D7D7D7D7D7D7D7D7D7D7D7D7D7D7D7D7D7D7D7D7D7D7D7D7D7D7D7D7D7D7D705D7D7D7D7D7D7D7D7D7D7D7D7D7D705D7D7D7D7D7D7D7D7D7D7D7D7D7D7D7D7D7D7D7D7D7D7D7D7D7D7D700D7D7D7D7D7D7D7D7D70000D7D7D7D7
310
D7D7D7D7D700D7D7D7D7D7D7D7D7D7D7D7D7D7D7D7D7D7D7D7D7D7D7D7D7D7D7D7D7051616D7D7D7D7D7D7D7D7D7D7D7D7D7D7D7D7D7D7D7D7D7D7D7D7D7D7D7D7D7D7D7D7D7D7D7D7D7D7D7D7D700D7D7D7D705D7D7D7D7D7D7D7D7D7D7D7D7D7D705D7D7D7D7D7D7D7D700D7D7D700D7D7D7D7D7D7D7D7D7D7D700D7D7D7
310
D7D7D7D7D7D7D7D700D7D7D7D7D7D7D7D7D7D7D7D7D7D7D7D7D7D7D7D7D7D7D7D7D7D7D7D7D7D7D7D705D7D7D7D7D7D7D7D7D7D7D7D7D7D7D7D7D7D7D7D7D7D7D7D7D7D7D700D7D7D7D7D7D7D7D7D70000D7D7D7D7D7D7D7D7D700D7D7D7D7D7D7D7D7D7D7D7D7D7D7D7D7D7D7D7D7D7D7D7D7D7D7D7D705D7D7D7D7D7D716
310
D7D7D7D716D7D7D7D7D7D7D7D7D7D7D7D7D7D7D7D7D7D7D7D7D7D7D7D7D7D7D7D7D7D7D700D7D7D7D7D7D7D7D7D7D7D7D7D7D7D7D7D7D7D7D705D7D7D7D7D7D7D7D7D7D7D7D700D7D7D7D7D7D7D7D7D7D7D700D7D7D7D7D7D7D7D7D7D700D7D7D7D7D7D7D7D7D7D7D7D7D7D7D7D7D7D7D7D7D7D7D7D7D7D7D7D7D7D7D7D705
310
D7D7D7D7D7D7D7D7D7D7D7D7D7D7D7D7D7D7D7D7D7D7D7D7D7D7D700D7D7D7D7D7D7D7D7D70000D7D7D7D7D7D7D7D7D700D7D7D7D7D7D7D7D7D7D7D7D7D7D7D7D7D7D7D7D7D7D7D7D7D7D7D7D705D7D7D7D7D7D7D7D7D7D7D7D7D7D7D7D7D7D7D7D7D7D7D7D7D7D7D7D7D7D7D7D7D7D7D7D7D7D7D7D7D7D7D700D7D7D7D7D7
310
D705D7D7D7D7D7D7D7D7D7D7D7D7D7D705D7D7D7D7D7D7D7D7D700D7D7D700D7D7D7D7D7D7D7D7D7D7D70000D7D7D7D7D7D7D7D7D7D7D7D7D7D7D7D7D7D7D7D7D7D7D7D7D7D7D7D7D7D7D7D7D7D7D7D7D7D7D7D7D705D7D7D7D7D7D7D7D7D7D7D7D7D7D7D7D7D7D7D7D7D7D7D7D7D7D700D7D7D7D7D7D7D7D7D70000D7D7D7
310
D7D7D7D7D7D700D7D7D7D7D7D7D7D7D7D7D7D7D7D7D7D7D7D7D7D7D7D7D7D7D7D7D7D705D7D7D7D7D7D7D7D7D7D7D705D7D7D7D7D7D7D7D7D7D7D7D7D7D7D7D7D7D7D7D7D7D7D7D7D7D7D7D7D7D7D700D7D7D7D7D7D7D705D7D7D7D7D7D7D7D7D7D7D7D7D7D705D7D7D7D7D7D7D7D7D7D700D7D7D7D7D7D7D7D7D7D7D7D7D7
310
D7D7D7D7D7D7D7D7D7D7D7D7D7D7D7D7D7D7D7D7D7D7D7D7D7D7D7D705D7D7D7D7D7D7D7D7D7D7D7D7D7D705D7D7D7D7D7D7D7D7D7D7D7D7D7D7D7D7D7D7D7D7D7D7D7D7D7D700D7D7D7D7D7D7D7D7D70000D7D7D7D7D7D7D7D7D700D7D7D7D7D7D7D7D7D7D7D7D7D7D7D7D7D7D7D7D7D7D7D7D7D7D7D7D705D7D7D7D7D7D7
310
D7D7D7D7D705D7D7D7D7D7D7D7D7D7D7D7D7D7D7D7D7D7D7D7D7D7D7D7D7D7D7D7D7D7D7D700D7D7D7D7D7D7D7D7D7D7D7D7D7D7D7D7D7D7D7D7D7D7D705D7D7D7D7D7D7D7D7D7D700D7D7D70000D7D7D7D7D7D7D7D7D7D70000D7D7D700D7D7D7D7D7D7D7D7D7D7D7D7D7D7D7D7D7D7D705D7D7D7D7D7D7D7D7D7D7D7D7D7
310
D705D7D7D7D7D7D7D7D7D7D7D7D7D7D7D7D7D7D7D7D7D7D7D7D7D7D700D7D7D7D7D7D7D7D7D70000D7D7D7D7D7D7D7D7D700D7D7D7D7D7D7D7D7D7D7D7D7D7D7D7D7D7D7D7D7D7D7D7D7D7D7D7D705D7D7D7D7D7D7D7D7D7D7D705D7D7D7D7D7D7D7D7D7D7D7D7D7D7D7D7D7D7D7D7D7D7D7D7D7D7D7D7D7D7D700D7D7D7D7
310
D7D7D7D7D705D7D7D7D7D7D7D7D7D7D7D7D7D7D705D7D7D7D7D7D7D7D7D7D7D700D7D7D7D700D7D7D7D7D7D7D7D7D7D7D700D700D7D7D7D7D7D7D7D7D7D7D7D7D7D7D7D7D7D7D705D7D7D7D7D7D7D7D7D7D7D7D7D7D705D7D7D7D7D7D7D7D7D7D7D7D7D7D7D7D7D7D7D7D7D7D7D7D7D7D700D7D7D7D7D7D7D7D7D70000D7D7
310
D7D7D7D7D7D7D700D7D7D7D7D7D7D7D7D7D7D7D7D7D7D7D7D7D7D7D7D7D7D7D7D7D7D7D7051616D7D7D7D715D7D7D7D705D7D7D7D7D7D7D7D7D7D7D7D7D7D7D7D7D7D7D7D7D7D7D7D7D7D7D7D7D7D7D700D7D7D7D7D7D7D7D7D7D7D7D7D7D7D7D7D7D7D7D7D7D7D7D7D705D7D7D7D7D7D7D7D7D7D7D700D7D7D7D700D7D7D7
310
D7D7D7D7D70000000000D7D7D7D7D7D7D7D7D7D7D7D7D7D7D7D7D7D7D705D7D7D7D7D7D7D7D7D7D7D7D7D7D705D7D7D7D7D7D7D7D7D7D7D7D7D7D7D7D7D7D7D7D7D7D7D7D7D7D700D7D7D7D7D7D7D7D7D70000D7D7D7D7D7D7D7D7D700D7D7D7D7D7D7D7D7D7D7D7D7D7D7D7D7D7D7D7D7D7D7D7D7D7D7D705D7D7D7D7D7D7
310
D7D7D7D7D7D705D7D7D7D7D7D7D7D7D7D7D7D7D7D7D7D7D7D7D7D7D7D7D7D7D7D7D7D7D7D7D700D7D7D7D7D7D7D7D7D7D7D705D7D7D7D7D7D7D7D7D7D7D7D7151505D7D7D7D7D7D7D7D7D7D7D7D7D700D7D7D700D7D7D7D7D70000000000D700D7D7D7D7D7D7D7D7D7D7D7D7D7D7D7D7D7D705D7D7D7D7D7D7D7D7D7D7D7D7
310
D7D705D7D7D7D7D7D7D7D7D7D7D7D7D7D7D7D7D7D7D7D7D7D7D7D7D7D700D7D7D7D7D7D7D7D7D70000D7D7D7D7D7D7D7D7D700D7D7D7D7D7D7D7D7D7D7D7D7D7D7D7D7D7D7D7D7D7D7D7D7D7D7D705D7D7D7D7D7D7D7D7D7D7D7D705D7D7D7D7D7D7D7D7D7D7D7D7D7D7D7D7D7D7D7D7D7D7D7D7D7D7D7D7D7D7D700D7D7D7
310
D7D7D7D7D7D7D7D7D7D7D7D7D7D7D7D7D7D7D7D7D7D7D7D705D7D7D7D7D7D7D7D7D7D7D7D7D700D7D7D700D7D7D7D7000000000000D700D7D7D7D7D7D7D7D7D7D7D7D7D7D7D7D7D705D716D7D7D7D716D7D7D7D70F16D705D7D7D7D7D7D7D7D7D7D7D7D7D7D7D7D7D7D7D7D7D7D7D7D7D7D700D7D7D7D7D7D7D7D7D70000D7
310
D7D7D7D7D7D7D7D700D7D7D7D7D7D7D7D7D7D7D7D7D7D7D7D7D7D7D7D7D7D7D7D7D7D7D705D7D7D7D7D7D7D7D7D7D7D7D705D7D7D7D7D7D7D7D7D7D7D7D7D7D7D7D7D7D7D7D7D7D7D7D7D7D7D7D7D7D7D700D7D7D7D7D7D7D7D7D7D7D7D7D705D7D7D7D7D7D7D7D7D7D7D7D7D7D705D7D7D7D7D7D7D7D7D7D7D7D7D7D700D7
310
D7D70000D7D70000000000D7D7D70000D7D7D7D7D7D7D7D7D7D7D7D7D7D705D7D7D7D7D7D7D7D7D7D7D7D7D7D705D7D7D7D7D7D7D7D7D7D7D7D7D7D7D7D7D7D7D7D7D7D7D7D7D7D700D7D7D7D7D7D7D7D7D70000D7D7D7D7D7D7D7D7D700D7D7D7D7D7D7D7D7D7D7D7D7D7D7D7D7D7D7D7D7D7D7D7D7D7D7D705D7D7D7D7D7
310
D7D7D7D7D7D7D705D7D7D7D7D7D7D7D7D7D7D7D7D7D7D7D7D7D7D7D7D7D7D7D7D7D7D7D7D7D7D700D7D7D7D7D7D7D7D7D7D7D7D7D7D705D7D7D7D7D7D7D7D7D7D7D7D7D7D705D7D7D7D7D7D7D7D7D7D7D7D7D7D7D700D7D7D7D7D7D700000000D7D7D7D7D70000D7D7D7D7D7D7D7D7D7D7D7D705D7D7D7D7D7D7D7D7D7D7D7
310
D7D7D705D7D7D7D7D7D7D7D7D7D7D7D7D7D7D7D7D7D7D7D7D7D7D7D7D7D700D7D7D7D7D7D7D7D7D70000D7D7D7D7D7D7D7D7D700D7D7D7D7D7D7D7D7D7D7D7D7D7D7D7D7D7D7D7D7D7D7D7D7D7D7D705D7150FD7D7D71516D7D7D7D705D7D7D7D7D7D7D7D7D7D7D7D7D7D7D7D7D7D7D7D7D7D7D7D7D7D7D7D7D7D7D700D7D7
310
D7D7D7D7D7D7D7D7D7D7D7D7D7D7D7D7D7D7D7D7D7D7D7D7D7D7D7D705D7D7D7D7D7D7D7D7D7D7D7D7D7D7D700D7D7D7000000000000D7D7D7D7D7D7D700D7D7D7D7D7D7D7D7D7D7D705D7D7D7D7D7D7D7D7D7D7D7D7D7D705D7D7D7D7D7D7D7D7D7D7D7D7D7D7D7D7D7D7D7D7D7D7D7D7D7D700D7D7D7D7D7D7D7D7D70000
310
D7D7D7D7D7D7D7D7D700D7D7D7D7D7D7D7D7D7D7D7D7D7D7D7D7D7D7D7D7D7D7D7D7D7D7D7D705D7D7D7D7D7D7D7D7D7D7D705D7D7D7D7D7D7D7D7D7D7D7D7D7D7D7D7D7D7D7D7D7D7D7D7D7D7D7D7D7D7D700D7D7D7D7D7D7D7D7D7D7D7D7D7D7D7D705D7D70FD7D7D7D71616D7D7D7161605D7D7D7D7D7D7D7D7D7D7D7D7
310
D7D7D7D7D7D7D7D7D700D7D7D7D7D7D7D7D7D7D7D700D7D7D7D7D7D7D7D7D705D7D7D7D7D7D7D7D7D7D7D7D7D7D705D7D7D7D7D7D7D7D7D7D7D7D7D7D7D7D7D7D7D7D7D7D7D7D7D7D700D7D7D7D7D7D7D7D7D70000D7D7D7D7D7D7D7D7D700D7D7D7D7D7D7D7D7D7D7D7D7D7D7D7D7D7D7D7D7D7D7D7D7D7D7D7D705D7D7D7
310
D7D7D7D7D7D7D7D705D7D7D7D7D7D7D7D7D7D7D7D7D7D7D7D7D7D7D7D7D7D7D7D7D7D7D7D7D7D7D700D7D7D7D7D7D7D7D7D7D7D7D7D7D7D7D7D7D7D7D7D7D7D7D7D7D7D7D7D7D7D7D705D7D7D7D7D7D7D7D7D7D7D7D7D7D7D7D700D7D7D7D700D7D7D7D7D7D7D7D7D7D700D7D7D7D7D7D7D7D7D705D70FD7D7D7D716D7D7D7
310
D7D7D7D705D7D7D7D7D7D7D7D7D7D7D7D7D7D7D7D7D7D7D7D7D7D7D7D7D7D700D7D7D7D7D7D7D7D7D70000D7D7D7D7D7D7D7D7D700D7D7D7D7D7D7D7D7D7D7D7D7D7D7D7D7D7D7D7D7D7D7D7D7D7D7D7D705D7D7D7D7D7D7D7D7D7D7D705D7D7D7D7D7D7D7D7D7D7D7D7D7D7D7D7D7D7D7D7D7D7D7D7D7D7D7D7D7D7D700D7
310
D7D7D7D7D7D7D7D7D7D7D7D7D7D7D7D7D705D7D7D7D7D7D7D7D7D7D7D7D7D7D705D7D7D7D7D7D7D7D7D7D7D7D7D7D7D7D7D7D7D7D7D7D700D7D7D7D7D7D7D7D700D7D7D7D7D7D7D7D7D705D7D7D7D7D7D7D7D7D7D7D7D7D7D705D7D7D7D7D7D7D7D7D7D7D7D7D7D7D7D7D7D7D7D7D7D7D7D7D7D700D7D7D7D7D7D7D7D7D700
310
00D7D7D7D7D7D7D7D7D700D7D7D7D7D7D7D7D7D7D7D7D7D7D7D7D7D7D7D7D7D7D7D7D7D7D7D7D705D7D7D7D7D7D7D7D7D7D7D7D7D7D7D7D7D7D7D7D7D7D7D7D7D7D7D7D7D7D7D7D7D7D7D7D7D7D7D7D7D7D7D700D7D7D7D7D7D7D7D7D7D7D7D7D7D7D7D7D7D7D7D7D7D7D7D7D7D7D7D7D7D7D7D7D7D705D7D7D7D7D7D7D7D7
310
D7D7D7D7D7D7D7D7D70000D7D7D700D7D7D7D7D7D7D700D7D7D7D7D7D7D7D7D705D7D7D7D7D7D7D7D7D7D7D7D7D7D705D7D7D7D7D7D7D7D7D7D7D7D7D7D7D7D7D7D7D7D7D7D7D7D7D7D700D7D7D7D7D7D7D7D7D70000D7D7D7D7D7D7D7D7D700D7D7D7D7D7D7D7D7D7D7D7D7D7D7D7D7D7D7D7D7D7D7D7D7D7D7D7D70516D7
310
D7D7D71616D7D7D7160FD7D7D7D7D7D7D7D7D7D7D7D7D7D7D7D7D7D7D7D7D7D7D7D7D7D7D7D7D7D7D700D7D7D7D7D7D7D7D7D7D7D7D7D7D7D7D7D7D7D7D705D7D7D7D7D7D7D7D7D7D7D7D7D7D705D7D7D7D7D7D7D7D7D7D7D7D7D7D7D7D7D7D7D700D7D7D70000D7D7D7D700D7D7D7D7D7D7D7D7D705D7D7D7D7D7D7D7D7D7
310
D7D7D7D705D7D7D7D7D7D7D7D7D7D7D7D7D7D7D7D7D7D7D7D7D7D7D7D7D7D7D700D7D7D7D7D7D7D7D7D70000D7D7D7D7D7D7D7D7D700D7D7D7D7D7D7D7D7D7D7D7D7D7D7D7D7D7D7D7D7D7D7D7D7D7D7D7D705D7D7D7D7D7D7D7D7D7D7D7D7D7D7D7D7D7D7D7D7D7D7D7D7D7D7D7D7D7D7D7D7D7D7D7D7D7D7D7D7D7D7D700
310
D7D7D7D7D7D7D7D7D7D7D7D7D7D7D7D7D7D7D7D7D705D7D7160FD7D7D70F16D7D7D7D71605D7D7D7D7D7D7D7D7D7D7D7D7D7D7D7D7D7D7D7D700D7D7D70000D7D700D7D7D7D7D7D7D7D7D705D7D7D7D7D7D7D7D7D7D7D7D7D705D7D7D7D7D7D7D7D7D7D7D7D7D7D7D7D7D7D7D7D7D7D7D7D7D7D7D700D7D7D7D7D7D7D7D7D7
310
0000D7D7D7D7D7D7D7D7D700D7D7D7D7D7D7D7D7D7D7D7D7D7D7D7D7D7D7D7D7D7D7D7D7D7D7D7D705D7D7D7D7D7D7D7D7D7D7D7D7D7D7D7D7D7D7D7D7D7D7D7D7D7D7D7D7D7D7D7D7D7D7D7D7D7D7D7D7D7D7D700D7D7D7D7D7D7D7D7D7D7D7D7D7D7D7D7D7D7D7D7D7D7D7D7D7D7D7D7D7D7D7D7D7D7D7D7D705D7D7D7D7
310
D7D7D7D7D7D7D7D7D7D7D7D7D7D7D7D700D7D7D7D700D700D7D7D7D7D7D7D7D7D705D7D7D7D7D7D7D7D7D7D7D7D7D705D7D7D7D7D7D7D7D7D7D7D7D7D7D7D7D7D7D7D7D7D7D7D7D7D7D7D700D7D7D7D7D7D7D7D7D70000D7D7D7D7D7D7D7D7D700D7D7D7D7D7D7D7D7D7D7D7D7D7D7D7D7D7D7D7D7D7D7D7D7D7D7D7D7D7D7
310
D7D7D7D7D7D7D7D7D7D7D705D7D7D7D7D7D7D7D7D7D7D7D7D7D7D7D7D7D7D7D7D7D7D7D7D7D7D7D7D7D700D7D7D7D7D7D7D7D7D7D7D7D7D7D7D7D7D7D7D7D7D7D7D705D7D7D7D7D7D7D7D7D7D7D7D7D7D705D7D7D7D7D7D7D7D7D7D7D7D7D7D7D7D7D7D7D7D7D700D7D7D70000D7D7D7D7D7D7D7D7D705D7D7D7D7D7D7D7D7
310
D7D7D7D7D705D7D7D7D7D7D7D7D7D7D7D7D7D7D7D7D7D7D7D7D7D7D7D7D7D7D7D700D7D7D7D7D7D7D7D7D70000D7D7D7D7D7D7D7D7D700D7D7D7D7D7D7D7D7D7D7D7D7D7D7D7D7D7D7D7D7D7D7D7D7D7D7D7D7D7D7D7D7D7D7D7D7D7D7D7D7D705D7D7D7D7D7D7D7D7D7D7D7D7D7D7D7D7D7D7D7D7D7D7D7D7D7D7D7D7D7D7
310
00D7D7D7D7D7D7D7D7D7D7D7D7D7D7D7D7D7D7D7D7D7D7D7D7D7D7D7D7D7D7D7D7D7D7D7D7D7D7D705D7D7D7D7D7D7D7D7D7D7D7D7D7D7D7D7D7D7D7D7D7000000D7D7D7D7D7D7D7D7D7D7D7D7D7D7D7D7D7D7D7D7D7D7D7D7D705D7D7D7D7D7D7D7D7D7D7D7D7D7D7D7D7D7D7D7D7D7D7D7D7D7D7D700D7D7D7D7D7D7D7D7
310
D70000D7D7D7D7D7D7D7D7D700D7D7D7D7D7D7D7D7D7D7D7D7D7D7D7D7D7D7D7D7D7D7D7D7D7D7D7D7D715D7D7D7D7D7D7D7D7D7D7D705D7D7D7D7D7D7D7D7D7D7D7D7D7D7D7D7D7D7D7D7D7D7D7D7D7D7D7D7D7D700000000D7D7D7D7D7D7D7D7D7D7D7D7D7D7D7D7D7D7D7D7D7D705D7D7D7D7D7D7D7D7D7D7D7D7D7D705
310
D7D7D7D7D7D7D7D7D7D7D7D7D7D7D7D7D7D7D7D7D7D7D7D7D7D7D7D7D7D7D7D7D7D7D7D7D7D7D7D7D7D7D7D7D7D7D7D7D7D7D7D7D7D7D7D7D7D7D7D7D7D7D7D7D7D7D7D7D7D7D7D7D7D7D7D700D7D7D7D7D7D7D7D7D70000D7D7D7D7D7D7D7D7D700D7D7D7D7D7D7D7D7D7D7D7D7D7D7D7D7D7D7D7D7D7D7D7D7D7D7D7D7D7
310
05D7D7D7D7D7D7D7D7D7D7D7D705D7D7D7D7D7D7D7D7D7D7D7D7D7D7D7D7D7D7D7D7D7D7D7D7D7D7D7D7D700D700D7D7D700D7D7D7D7D7D7D7D7D7D7D7D7D7D7D7D7D7D7D7D705D7D71615D7D7D7D7D7D7D7D7D7D7D7D7D7D7D7D7D7D7D7D7D7D7D7D7D7D7D7D7D7D7D7D7D7D7D7D7D7D7D7D7D7D7D7D7D7D7D7D7D7D7D7D7
310
D7D7D7D7D7D7D7D7D7D7D7D7D7D7D7D7D7D7D7D7D7D7D7D7D7D7D7D7D7D7D7D7D7D700D7D7D7D7D7D7D7D7D70000D7D7D7D7D7D7D7D7D700D7D7D7D7D7D7D7D7D7D7D7D7D7D7D7D7D7D7D7D7D7D7D7D7D7D7D7D7D705D7D7D7D7D7D7D7D7D7D7D7D705D7D7D7D7D7D7D7D7D7D7D7D7D7D7D7D7D7D7D7D7D7D7D7D7D7D7D700
310
D700D700D7D7D7D700D7D7D7D7D7D7D7D7D7D7D7D7D7D7D7D7D7D7D7D705D7D7D7D7D7D7D716D7D7D7D715D705D7D7D7D7D7D7D7D7D7D7D7D7D7D7D7D7D7D7D7D7D7D7D7D7D7D7D7D7D7D7D705D7D7D7D7D7D7D7D7D7D7D7D7D7D7D7D7D7D7D7D7D7D7D7D7D7D7D7D7D7D7D7D7D7D7D7D7D7D7D7D7D7D700D7D7D7D7D7D7D7
310
D7D70000D7D7D7D7D7D7D7D7D700D7D7D7D7D7D7D7D7D7D7D7D7D7D7D7D7D7D7D7D7D7D7D7D7D7D7D7D7D7D705D7D7D7D7D7D7D7D7D7D7D7D7D7D7D7D7D7D7D7D7D7D7D7D7D7D7D7D7D7D7D7D7D7D7D7D7D700D7D7D700D700D7D7D7D7D7D700D7D7D7D7D7D7D7D7D7D7D7D7D7D7D7D7D7D7D705D7D7D7D7D7D7D7D7D7D7D7
310
D7D7D705D7D7D7D7D7D7D7D7D7D7D7D7D7D7D7D7D7D7D7D7D7D7D7D7D7D7D7D7D7D705D7D7D7D7D7D7D7D7D7D7D7D7D705D7D7D7D7D7D7D7D7D7D7D7D7D7D7D7D7D7D7D7D7D7D7D7D7D7D7D7D700D7D7D7D7D7D7D7D7D70000D7D7D7D7D7D7D7D7D700D7D7D7D7D7D7D7D7D7D7D7D7D7D7D7D7D7D7D7D7D7D7D7D7D7D7D7D7
310
D7D705D7D7D7D7D7D7D7D7D7D7D7D7D7D7D7D7D7D7D7D7D7D7D7D7D7D7D7D7D7D7D7D7D7D7D7D7D700D7D70000D700D7D7D7D7D7D7D700D7D7D7D7D7D7D7D7D7D7D7D7D7D7D7D7D7D7D7D7D7D7D7D7D7D7D7D7D7D7D7D7D7D705D7D7D7D7D7D7D7D7D7D7D7D7D7D7D7D7D7D7D7D7D7D7D7D7D7D7D7D7D705D7D7D7D7D7D7D7
310
D7D7D7D7D7D705D7D7D7D7D7D7D7D7D7D7D7D7D7D7D7D7D7D7D7D7D7D7D7D7D7D7D7D700D7D7D7D7D7D7D7D7D70000D7D7D7D7D7D7D7D7D700D7D7D7D7D7D7D7D7D7D7D7D7D7D7D7D7D7D7D7D7D7D7D7D7D7D7D7D7D7D705D7D7D7D7D7D7D7D7D7D7D7D705D7D7D7D7D7D7D7D7D7D7D7D7D7D7D7D7D7D7D7D7D7D7D7D700D7
310
D7D7D7D700D7D7D7D7D7D7D7D7D700D7D7D7D7D7D7D7D7D7D7D7D7D7D7D7D7D7D705D7D7D7D7D7D7D7D7D7D7D7D7D7D705D7D7D7D7D7D7D7D7D7D7D7D7D7D7D7D7D7D7D7D7D7D7D7D7D7D7D705D7D7D7D7D7D7D7D7D7D7D7D7D705D7D7D7D7D7D7D7D7D7D7D7D7D7D7D7D7D7D7D7D7D7D7D7D7D7D7D7D7D700D7D7D7D7D7D7
310
D7D7D70000D7D7D7D7D7D7D7D7D700D7D7D7D7D7D7D7D7D7D7D7D7D7D7D7D7D7D7D7D7D7D7D7D7D7D7D7D7D7D705D7D7D715D7D7D7D71616D7D705D7D7D7D7D7D7D7D7D7D7D7D7D7D7D7D7D7D7D7D7D7D7D7D700D7D7D7D7D700D7D7D7D7D7D7D7D7D7D70000D7D7D7D7D7D7D7D7D7D7D7D7D7D7D7D7D7D7D7D7D7D7D7D7D7
310
D7D7D7D7D7D7D705D7D7D7D7D7D7D7D7D7D7D7D7D7D7D7D7D7D7D7D7D7D7D7D7D7D705D7D7D7D7D7D7D7D7D7D7D7D7D705D7D7D7D7D7D7D7D7D7D7D7D7D7D7D7D7D7D7D7D7D7D7D7D7D7D7D7D7D700D7D7D7D7D7D7D7D7D70000D7D7D7D7D7D7D7D7D700D7D7D7D7D7D7D7D7D7D7D7D7D7D7D7D7D7D7D7D7D7D7D7D7D7D7D7
310
D7D7D7D7D7D7D7D7D7D7D7D7D7D7D7D705D7D7D7D7D7D7D7D7D7D7D7D7D7D7D7D7D7D7D7D7D7D7D7D700D7D7D7D700D700D7D7D7D7D7D7D7D7D7D7D700D7D7D7D7D7D7D7D7D7D7D7D7D7D7D7D7D705D7D70FD7D7D7D716D7D7D7D716D705D7D7D7D7D7D7D7D7D7D7D7D7D7D7D7D7D7D7D7D7D7D7D7D7D7D7D7D7D7D7D7D7D7
310
D7D7D7D7D7D705D7D7D7D7D7D7D7D7D7D7D7D7D7D7D7D7D7D7D7D7D7D7D7D7D7D7D7D7D700D7D7D7D7D7D7D7D7D70000D7D7D7D7D7D7D7D7D700D7D7D7D7D7D7D7D7D7D7D7D7D7D7D7D7D7D7D7D7D7D7D7D7D7D7D7D7D7D7D705D7D7D7D7D7D7D7D7D7D7D7D705D7D7D7D7D7D7D7D7D7D7D7D7D7D7D7D7D7D7D7D7D7D7D700
310
D7D700D7D7D7D7D7D7D7D7D7D7D7D7D7D7D7D7D7D7D7D7D7D7D7D7D7D7D7D7D7D7D7D7D7D705D7D7D7D7D7D7D7D7D7D7D7D7D7D7D7D7D7D7D7D7D7D7D7D7D7D7D7D7D7D7D7D7D7D7D7D7D7D7D7D7D7D7D7D7D7D7D7D7D7D7D7D7D7D7D7D7D7D7D7D7D7D7D7D7D7D7D7D7D7D7D7D7D7D7D7D7D7D7D7D7D7D7D700D7D7D7D7D7
310
D7D7D7D70000D7D7D7D7D7D7D7D7D700D7D7D7D7D7D7D7D7D7D7D7D7D7D7D7D7D7D7D7D7D7D7D7D7D7D7D7D7D7D7D705D7D7D7D7D7D7D7D7D7D7D7D705D7D7D7D7D7D7D7D7D7D7D7D7D7D7D7D7D7D7D7D7D7D7D700D700D7D7D7D7D7D7D70000D7D7D7D7D7D7D7D7D7D70000D7D7D7D7D7D7D7D7D7D7D7D7D7D7D705D7D7D7
310
D7D7D7D7D7D7D7D7D7D7D705D7D7D7D7D7D7D7D7D7D7D7D7D7D7D7D7D7D7D7D7D7D705D7D7D7D7D7D7D7D7D7D7D7D7D7D7D7D7D7D7D7D7D7D7D7D7D7D7D7D7D7D7D7D7D7D7D7D7D7D7D7D7D7D7D7D700D7D7D7D7D7D7D7D7D70000D7D7D7D7D7D7D7D7D700D7D7D7D7D7D7D7D7D7D7D7D7D7D7D7D7D7D7D7D7D7D7D7D7D7D7
310
D7D7D7D7D7D7D7D7D7D7D7D7D7D7D7D7D7D7D705D7D7D7D7D7D7D7D7D7D7D7D7D7D7D7D7D7D7D7D7D7D700D7D7D7D7D7D7D7D7D7D7D7D700D7D7D7D7D7D7D7D7D7D7D700D7D7D7D7D7D7D7D7D7D7D7D7D7D705D7D7D7D7D7D7D7D7D7D7D7D7D7D705D7D7D7D7D7D7D7D7D7D7D7D7D7D7D7D7D7D7D7D705D7D7D7D7D7D7D7D7
310
D7D7D7D7D7D705D7D7D7D7D7D7D7D7D7D7D7D7D7D7D7D7D7D7D7D7D7D7D7D7D7D7D7D7D7D700D7D7D7D7D7D7D7D7D70000D7D7D7D7D7D7D7D7D700D7D7D7D7D7D7D7D7D7D7D7D7D7D7D7D7D7D7D7D7D7D7D7D7D7D7D7D7D7D7D7D7D7D716D7D7D7D716D7D7D7D7D705D7D7D7D7D7D7D7D7D7D7D7D7D7D7D7D7D7D7D7D7D7D7
310
D700D7D7D7D7D7D7D7D7D7D7D7D700D7D7D7D7D7D7D7D7D7D7D700D7D7D7D7D7D7D7D7D7D7D7D7D7D7D7D7D7D7D7D7D7D7D7D7D7D7D7D7D705D7D7D7D7D7D7D7D7D7D7D7D7D7D7D7D7D7D7D705D7D7D7D7D7D7D7D7D7D7D7D7D7D705D7D7D7D7D7D7D7D7D7D7D7D7D7D7D7D7D7D7D7D7D7D7D7D7D7D7D7D7D7D700D7D7D7D7
310
D7D7D7D7D70000D7D7D7D7D7D7D7D7D700D7D7D7D7D7D7D7D7D7D7D7D7D7D7D7D7D7D7D7D7D7D7D7D7D7D7D7D7D7D7D7D7D7D7D7D7D7D7D7D7D7D7D7D7D7D7D7D7D7D7D7D7D7D7D7D7D7D7D7D7D7D7D7D7D7D7D7D7D7D7D70000D7D7D7D7D7D7D7D7D7D7D700D7D7D7D7D7D7D7D7D7D7D700D7D7D7D7D7D7D7D7D7D7D7D7D7
310
05D7D716D7D7D7D70FD7D7D7D7D7D705D7D7D7D7D7D7D7D7D7D7D7D7D7D7D7D7D7D7D7D7D7D7D7D7D7D7D7D7D7D7D7D705D7D7D7D7D7D7D7D7D7D7D7D7D7D7D7D7D7D7D7D7D7D7D7D7D7D7D7D7D7D7D700D7D7D7D7D7D7D7D7D70000D7D7D7D7D7D7D7D7D700D7D7D7D7D7D7D7D7D7D7D7D7D7D7D7D7D7D7D7D7D7D7D7D7D7
310
D7D7D7D7D7D7D705D7D7D7D7D7D7D7D7D7D7D7D7D7D7D7D7D7D7D7D7D7D7D7D7D7D7D7D7D7D7D7D7D7D7D7D7D7D7D7D7D7D7D7D7D7D7D7D7D7D7D7D700D7D7D7D7D7D7D7D7D7D7D700D7D7D7D7D7D7D7D7D7D7D7D7D7D7D7D7D7D7D7D7D7D7D7D7D715D7D705D7D7D7D7D7D7D7D7D7D7D7D7D7D7D7D70515D7D7D7D7D7D7D7
310
D7D7D715D7D7D7D7D7D7D7D7D7D7D7D7D7D7D7D7D7D7D7D7D7D7D7D7D7D7D7D7D7D7D7D7D7D700D7D7D7D7D7D7D7D7D70000D7D7D7D7D7D7D7D7D700D7D7D7D7D7D7D7D7D7D7D7D7D7D7D7D7D7D7D7D7D7D7D7D7D7D7D7D7D7D7D7D7D705D7D7D7D7D7D7D7D7D7D7D7D7D705D7D7D7D7D7D7D7D7D7D7D7D7D7D7D7D7D7D7D7
310
D7D7D7D7D7D7D70000D7D7D7D7D7D7D7D7D7D7D700D7D7D7D7D7D7D7D7D7D7D70000D7D7D7D7D7D7D7D7D7D7D705D7D7D7D7D7D7D7D7D7D7D7D7D7D705D7D7D7D7D7D7D7D7D7D7D7D7D7D7D705D7D7D7D7D7D7D7D7D7D7D7D7D7D7D7D7D7D7D7D7D7D7D7D7D7D7D7D7D7D7D7D7D7D7D7D7D7D7D7D7D7D7D7D7D7D700D7D7D7
310
D7D7D7D7D7D70000D7D7D7D7D7D7D7D7D700D7D7D7D7D7D7D7D7D7D7D7D7D7D7D7D7D7D7D7D7D7D7D7D7D7D7D7D7D7D7D7D7D7D7D7D7D7D7D7D7D7D7D7D7D7D7D7D7D7D7D7D7D7D7D7D7D7D7D7D7D7D7D7D7D7D7D7D7D7D7D7D7D7D7D7D7D700D7D7D7D7D7D7D7D7D7D7D700D7D7D7D7D7D7D7D7D7D7D7D7D7D7D7D7D7D7D7
310
D7D7D7D705D7D7D7D7D7D7D7D7D7D7D7D7D7D7D7D7D7D7D7D7D7D7D7D7D7D7D7D7D7D7D7D7D7D7D7D7D7D7D7D7D7D7D705D7D7D7D7D7D7D7D7D7D7D7D7D7D7D7D7D7D7D7D7D7D7D7D7D7D7D7D7D7D7D7D700D7D7D7D7D7D7D7D7D70000D7D7D7D7D7D7D7D7D700D7D7D7D7D7D7D7D7D7D7D7D7D7D7D7D7D7D7D7D7D7D7D7D7
310
D7D7D7D7D7D7D7D7D7D70FD7D7D7D716D7D7D7D7D7D7D7D7D7D7D7D7D7D7D7D7D7D7D7D7D7D7D7D7D7D7D7D7D7D7D7D7D7D7D7D7D7D700D7D7D7D7D7D7D7D7D7D7D70000D7D7D7D7D7D7D7D7D7D70000D7D7D7D7D7D7D7D7D7D705D7D7D7D7D7D7D7D7D7D7D7D7D7D705D7D7D7D7D7D7D7D7D7D7D7D705D7D7D7D7D7D7D7D7
310
D7D7D7D7D7D7D7D7D7D7D7D7D7D7D7D7D7D7D7D7D7D7D7D7D7D7D7D7D7D7D7D7D7D7D7D7D7D7D700D7D7D7D7D7D7D7D7D70000D7D7D7D7D7D7D7D7D700D7D7D7D7D7D7D7D7D7D7D7D7D7D7D7D7D7D7D7D7D7D7D7D7D7D7D7D7D7D7D7D7D7D705D7D7D7D7D7D7D7D7D7D7D7D7D705D7D7D7D7D7D7D7D7D7D7D7D7D7D7D7D7D7
310
D7D7D7D7D7D7D7D7D7D7D7D7D7D700D7D7D7D7D7D7D7D7D7D7D70000D7D7D7D7D7D7D7D7D7D7D700D7D7D7D7D7D7D7D7D705000000D7D7D7D7D7D7D7D7D7D7D705D7D700D7D7D7D7D7D7D705D7D7D7D7D7D7D7D7D7D7D7D7D7D705D7D7D7D7D7D7D7D7D7D7D7D7D7D7D7D7D7D7D7D7D7D7D7D7D7D7D7D7D7D7D7D7D700D7D7
310
D7D7D7D7D7D7D70000D7D7D7D7D7D7D7D7D700D7D7D7D7D7D7D7D7D7D7D7D7D7D7D7D7D7D7D7D7D7D7D7D7D7D7D7D7D7D7D7D7D7D7D705D7D7D7D7D7D7D7D7D7D7D7D7D705D7D7D7D7D7D7D7D7D7D7D7D7D7D7D7D7D7D7D7D7D7D7D7D7D7D7D7D7D7D7D70000D7D7D7D7D7D7D7D7D7D7D700D7D7D7D7D7D7D7D7D7D7D700D7
310
D7D7D7D7D7D7D70000D70F00D7D7D716D7D7D7D7D7D7D705D7D70000D7D7D7D7D705D7D716D7D7D7D7D7D7D7D7D7D7D705D7D7D7D7D7D7D7D7D7D7D7D7D7D7D7D7D7D7D7D7D7D7D7D7D7D7D7D7D7D7D7D7D700D7D7D7D7D7D7D7D7D70000D7D7D7D7D7D7D7D7D700D7D7D7D7D7D7D7D7D7D7D7D7D7D7D7D7D7D7D7D7D7D7D7
310
D7D7D7D7D7D7D7D7D7D7D7D7D7D7D7D7D7D7D7D7D7D7D7D7D7D7D7D7D7D7D7D7D7D7D7D7D7D7D7D7D7D7D7D7D7D7D7D7D7D7D7D7D7D7D7D7D7D7D7D70000D7D7D7D7D7D7D7D7D7D7D700D7D7D7D7D7D7D7D7D7D7D700D7D7D7D70000D7D705D7D70000D7D7D7D7D7D7D7D7D7D705D700D7D7D7D7D705D7D7D7D7D7D7D7D7D7
310
D7D7D7D7D705D7D7D7D7D7D7D7D7D7D7D7D7D7D7D7D7D7D7D7D7D7D7D7D7D7D7D7D7D7D7D7D7D7D700D7D7D7D7D7D7D7D7D70000D7D7D7D7D7D7D7D7D700D7D7D7D7D7D7D7D7D7D7D7D7D7D7D7D7D7D7D7D7D7D7D7D7D7D7D7D7D7D7D7D7D7D7D7D705D7D7D7D7D7D7D7D7D7D7D7D7D7D705D7D7D7D7D7D7D7D7D7D7D7D7D7
310
D7D7D7D7D7D7D7D7D7D7D7D7D7D7D7D7D7D7D7D7D700D7D7D7D7D7D7D7D7D7D7D700D7D7D70000D7D7D7D7D7D7000000D7D7D7D7D70500D7D7D7D7D7D7D7D7D7D7D7D7D7D7D700D7D7D705D7D7D7D7D7D7D7D7D7D7D7D7D7D7D7D7D7D7D7D7D7D7D7D7D7D7D7D7D7D7D7D7D7D7D7D7D7D7D7D7D7D7D7D7D7D7D7D7D7D700D7
310
D7D7D7D7D7D7D7D70000D7D7D7D7D7D7D7D7D700D7D7D7D7D7D7D7D7D7D7D7D7D7D7D7D7D7D7D7D7D7D7D7D7D7D7D7D7D7D7D7D7D7D7D7D7D705D7D7D7D7D7D7D7D7D7D7D7D7D705D7D7D7D7D7D7D7D7D7D7D7D7D7D7D7D7D7D7D7D7D7D7D7D7D7D7D7D7D7D7D7D7D7D7D700D7D7D7D7D7D7D7D7D7D7D700D7D700D70000D7
310
D7D7D7000000D7D7D7D7D70005D7D7D7D7D7D7D7D7D7D7D7D7D7D70500D7D7D7D7D7D7D7D7D7D7D7D7D7D7D7D7D7D7D7D7D7D7D7D7D7D7D7D7D7D7D7D7D7D7D7D7D7D7D7D7D7D7D7D7D7D7D7D7D7D7D7D7D7D700D7D7D7D7D7D7D7D7D70000D7D7D7D7D7D7D7D7D700D7D7D7D7D7D7D7D7D7D7D7D7D7D7D7D7D7D7D7D7D7D7
310
D7D7D7D7D7D7D7D7D7D7D7D7D7D7D7D7D7D7D7D7D7D7D7D7D7D7D7D7D7D705D7D7D7D7D7D7D7D7D7D7D7D7D7D7D7D7D7D7D7D7D7D7D7D7D7D7D7D7D7D7D7D7D7D7D7D700D7D7D7D7D7D7D7D7D7D7D70000D7D7D7D700D700D7D7D7D700D7D700D7D705D7D7D7D7D7D7D7D7D7D7D7D7D7D7D7D7D705D7D7D7D7D7D7D7D7D7D7
310
D7D7D7D705D7D7D7D7D7D7D7D7D7D7D7D7D7D7D7D7D7D7D7D7D7D7D7D7D7D7D7D7D7D7D7D7D7D7D7D700D7D7D7D7D7D7D7D7D70000D7D7D7D7D7D7D7D7D700D7D7D7D7D7D7D7D7D7D7D7D7D7D7D7D7D7D7D7D7D7D7D7D7D7D7D7D7D7D7D7D7D7D7D7D7D7D705D7D7D7D7D7D7D7D7D7D7D7D7D7D7D7D7D7D7D7D7D7D7D7D7D7
310
D7D7D7D7D7D7D7D7D7D7D7D7D7D7D7D7D7D7D7D7D7D7D7D7D7D70000D7D7D7D7D7D7D7D7D7D700D7D7D7D7D700D7D7D7D7D7D7000000D7D7D705D716D7D7D7D7D7D7D7D7D7D7D7D70505D716D7D7D7D7D7D7D7D7D7D7D7D7D705D7D7D7D7D7D7D7D7D7D7D7D7D7D7D7D7D7D7D7D7D7D7D7D7D7D7D7D7D7D7D7D7D7D7D7D700
310
D7D7D7D7D7D7D7D7D70000D7D7D7D7D7D7D7D7D700D7D7D7D7D7D7D7D7D7D7D7D7D7D7D7D7D7D7D7D7D7D7D7D7D7D7D7D7D7D7D7D7D7D7D7D7D7D7D7D7D7D7D7D7D7D7D7D7D7D7D7D7D705D7D7D7D7D7D7D7D7D7D7D7D7D7D7D7D7D7D7D7D7D7D7D7D7D7D7D7D7D7D7D7D7D7D7D7D7D7D70000D7D7D7D7D70000D7D7D7D7D7
310
0000D70000D7D7D7D700D700D7D7D7D705D7D7D7D7D7D7D7D7D7D7D7D7D7D7D7D7D7D7D7D7D7D7D7D7D7D7D7D7D705D7D7D7D7D7D7D7D7D7D7D7D7D7D7D7D7D7D7D7D7D7D7D7D7D7D7D7D7D7D7D7D7D7D7D7D7D700D7D7D7D7D7D7D7D7D70000D7D7D7D7D7D7D7D7D700D7D7D7D7D7D7D7D7D7D7D7D7D7D7D7D7D7D7D7D7D7
310
D7D7D7D7D7D7D7D7D7D7D7D7D7D7D7D7D7D705D7D7D7D7D7D7D7D7D7D7D7D7D7D705D7D7D7D7D7D7D7D7D7D7D7D7D7D7D7D7D7D7D7D7D7D7D7D7D7D7D7D7D7D7D7D7D7D7D7D7D7D7D700D7D7D700D7D7D7D7D7D700D7D700D700D7D7D7D700D7D700D7D7D7D7D7D7D7D7D7D7D7D7D7D7D7D7D700D7D7D7D7D7D7D7D7D7D7D7
310
D7D7D7D705D7D7D7D7D7D7D7D7D7D7D7D7D7D7D7D7D7D7D7D7D7D7D7D7D7D7D7D7D7D7D7D7D7D7D7D7D700D7D7D7D7D7D7D7D7D70000D7D7D7D7D7D7D7D7D700D7D7D7D7D7D7D7D7D7D7D7D7D7D7D7D7D7D7D7D7D7D7D7D7D7D7D7D7D7D7D7D7D7D7D7D7D7D7D7D705D7D7D7D7D7D7D7D7D7D7D7D7D7D7D705D7D7D7D7D7D7
310
D7D7D7D7D7D7D7D7D7D7D7D7D7D7D7D7D7D7D7D7D7D7D7D7D7D7D7D7D7D7D7D7D700D7D7D7D7000000D7D7D7D7D7D700D7D70000D7D7D7D7D70000D7D705D7D7D7D7D7D7D7D7D7D7D7D7D7D7D7D7D7D7D7D7D7D7D7D7D7D705D7D7D7D7D7D7D7D7D7D7D7D7D7D7D7D7D7D7D7D7D7D7D7D7D7D7D7D7D7D7D7D7D7D7D7D7D7D7
310
00D7D7D7D7D7D7D7D7D70000D7D7D7D7D7D7D7D7D700D7D7D7D7D7D7D7D7D7D7D7D7D7D7D7D7D7D7D7D7D7D7D7D7D7D7D7D7D7D7D7D7D7D7D7D7D7D7D7D7D7D7D7D7D7D7D7D7D7D7D7D7D7D7D7D7D7D7D7D7D7D7D7D7D7D7D7D7D7D7D7D7D7D7D7D7D7D7D7D7D7D7D7D7D7D7D7D7D7D7D7D7D7D7D7D7D7D7D7D7D700000000
310
D7D7D7D70000D700D7D7D7D7D7D7D7D7D700D7D705D7D7D7D7D7D7D7D7D7D7D7D7D7D7D7D7D7D7D7D7D7D7D7D705D7D7D7D7D7D7D7D7D7D7D7D7D7D7D7D7D7D7D7D7D7D7D7D7D7D7D7D7D7D7D7D7D7D7D7D7D7D7D700D7D7D7D7D7D7D7D7D70000D7D7D7D7D7D7D7D7D700D7D7D7D7D7D7D7D7D7D7D7D7D7D7D7D7D7D7D7D7
310
D7D7D7D7D7D7D7D7D7D7D7D7D7D7D7D7D7D7D7D7D705D7D7D7D7D7D7D7D7D7D7D7D7D7D7D705D7D7D7D7D7D7D7D7D7D7D7D7D7D7D7D7D7D7D7D7D7D7D7D7D7D7D7D7D7D7D7D7D7D7D7D7D7D7D7D7D7D70000D7D7D7D7D7D700D7D70000D7D7D7D7D7D7D7D7D7D70000D705D7D7D7D7D7D7D7D7D7D7D7D7D7D7D7D7D7D7D7D7
310
D7D7D705D7D7D7D7D7D7D7D7D7D7D7D7D7D7D7D7D7D7D7D7D7D7D7D7D7D7D7D7D7D7D7D7D7D7D7D7D7D7D700D7D7D7D7D7D7D7D7D70000D7D7D7D7D7D7D7D7D700D7D7D7D7D7D7D7D7D7D7D7D7D7D7D7D7D7D7D7D7D7D7D7D7D7D7D7D7D7D7D7D7D7D7D7D7D7D7D7D7D7D705D7D7D7D7D7D7D7D7D7D7D7D7D7D7D7D705D7D7
310
D7D7D7D7D7D7D7D7D7D7D7D7D7D7D7D7D7D7D7D7D7D7D7D7D7D7D7D7D7D7D7D7D7D7D7D70000D7D7D7D7D7D7D7D7D7D700D7D7D700D7D7D7D7D7D7D7D7D7D7D70005D7D7D7D7D7D7D7D7D7D7D7D7D7D7D7D7D7D7D7D705D7D7D7D7D7D7D7D7D7D7D7D7D7D7D7D7D7D7D7D7D7D7D7D7D7D7D7D7D7D7D7D7D7D7D7D7D7D7D7D7
310
D700D7D7D7D7D7D7D7D7D70000D7D7D7D7D7D7D7D7D700D7D7D7D7D7D7D7D7D7D7D7D7D7D7D7D7D7D7D7D7D7D7D7D7D7D7D7D7D7D7D7D7D7D7D7D7D7D7D7D7D7D7D7D7D7D7D7D7D7D7D7D7D7D7D7D7D7D7D7D7D7D7D7D7D7D7D7D7D7D7D7D7D7D7D7D7D7D7D7D7D7D7D7D7D7D7D7D7D7D7D7D7D7D7D7D7D70000D7D7D7D7D7
310
0000D7D7D70000D7D7D7D700D7D7D7D7D7D7D7D7D7D7D70005D7D7D7D7D7D7D7D7D7D7D7D7D7D7D7D7D7D7D7D7D7D7D7D7D7D7D7D7D7D7D7D7D7D7D7D7D7D7D7D7D7D7D7D7D7D7D7D7D7D7D7D7D7D7D7D7D7D7D7D7D700D7D7D7D7D7D7D7D7D70000D7D7D7D7D7D7D7D7D700D7D7D7D7D7D7D7D7D7D7D7D7D7D7D7D7D7D7D7
310
D7D7D7D7D7D7D7D7D7D7D7D7D7D7D7D7D7D7D7D7D7D7D7D705D7D7D7D7D7D7D7D7D7D7D7D7D7D7D7D7D705D7D7D7D7D7D7D7D7D7D7D7D7D7D7D7D7D7D7D7D7D7D7D7D7D7D7D7D7D7D7D7D7D70000D7D7D7D7D7D7D700D7D7D700D7D7D7D7D7D7D7D700D7D7D7D7D7D7D7D7D7D7D705D7D7D7D7D7D7D7D7D7D7D7D7D7D7D7D7
310
D705D7D7D7D7D7D7D7D7D7D7D7D7D7D7D7D7D7D7D7D7D7D7D7D7D7D7D7D7D7D7D7D7D7D7D7D7D7D7D7D7D7D700D7D7D7D7D7D7D7D7D70000D7D7D7D7D7D7D7D7D700D7D7D7D7D7D7D7D7D7D7D7D7D7D7D7D7D7D7D7D7D7D7D7D7D7D7D7D7D7D7D7D7D7D7D7D7D7D7D7D7D7D7D7D705D7D7D7D7D7D7D7D7D7D7D7D7D7D7D7D7
310
D705D7D7D7D7D7D7D7D7D7D7D7D7D7D7D7D7D7D7D7D7D7D7D7D7D7D7D7D7D7D7D70000D7D7D7D7D7D7D7D7D7D7D7D700D7D7D7D7D7D7D7D7D70000D7D7D7D7D7D7D7D7D7D700D7D7D7D7D7D7D7D7D7D7D7D7D7D7D705D7D7D7D7D7D7D7D7D7D7D7D7D7D7D7D7D7D7D7D7D7D7D7D7D7D7D7D7D7D7D7D7D7D7D7D7D7D7D7D7D7
310
D7D700D7D7D7D7D7D7D7D7D70000D7D7D7D7D7D7D7D7D700D7D7D7D7D7D7D7D7D7D7D7D7D7D7D7D7D7D7D7D7D7D7D7D7D7D7D7D7D7D7D7D7D7D7D7D7D7D7D7D7D7D7D7D7D705D7D7D7D7D7D7D7D7D7D7D7D7D7D7D7D7D7D705D7D7D7D7D7D7D7D7D7D7D7D7D7D7D7D7D7D7D7D7D7D7D7D7D7D7D70000D7D7D7D7D7D7D7D7D7
310
D7D7D70000D7D7D7D7D7D7D7D7D7D7D7D70000D7D7D7D7D7D7D7D7D7D70000D7D7D7D7D7D7D7D7D7D7D705D7D7D7D7D7D7D7D7D7D7D7D7D7D7D7D7D7D7D7D7D7D7D7D7D7D7D7D7D7D7D7D7D7D7D7D7D7D7D7D7D7D7D7D700D7D7D7D7D7D7D7D7D70000D7D7D7D7D7D7D7D7D700D7D7D7D7D7D7D7D7D7D7D7D7D7D7D7D7D7D7
310
D7D7D7D7D7D7D7D7D7D7D7D7D7D7D7D7D7D7D7D7D7D7D7D7D7D7D7D705D7D7D7D7D7D7D7D7D7D7D7D7D7D7D7D7D7D7D705D7D7D7D7D7D7D7D7D7D7D7D7D7D7D7D7D7D7D7D7D7D7D70000D7D7D7D7D7D7D7D7D7D7D7D7D700D7D7D70000D7D7D7D7D7D7D7D7D7D7D7D7D7D705D7D7D7D7D7D7D7D70000D7D7D7D7D7D7D7D7D7
310
D7D7D7D7D7D7D7D7D7D7D7D7D7D7D7D7D7D7D7D7D7D7D7D7D7D7D7D7D7D7D7D7D7D7D7D7D7D7D7D7D7D7D7D7D700D7D7D7D7D7D7D7D7D70000D7D7D7D7D7D7D7D7D700D7D7D7D7D7D7D7D7D7D7D7D7D7D7D7D7D7D7D7D7D7D7D7D7D7D7D7D7D7D7D7D7D7D7D7D7D7D7D7D7D7D7D7D7D7D7D705D7D7D7D7D7D7D7D7D7D7D7D7
310
D7D7D7D7D7D7D7D7D7D7D7D7D7D7D7D7D7D7D7D7D7D7D7D7D7D7D7D7D70000D7D7D7D7D7D7D7D7D7D7D7D7D70000D7D7D7D7D700D7D7D7D7D7D7D7D7D7D7D70505D7D7D7D7D7D7D7D7D7D7D700D7D7D7D7D7D7D7D7D7D7D7D7D7D7D7D7D7D7D7D7D7D7D7D7D7D7D7D7D7D7D7D7D7D7D7D7D7D7D7D7D7D7D7D7D7D7D7D7D7D7
310
D7D7D700D7D7D7D7D7D7D7D7D70000D7D7D7D7D7D7D7D7D700D7D7D7D7D7D7D7D7D7D7D7D7D7D7D7D7D7D7D7D7D7D7D7D7D7D7D7D7D7D7D7D7D7D7D7D7D7D7D7D7D7D7D7D7D7D7D7D705D7D7D7D7D7D7D7D7D7D7D7D7D7D7D7D7D7D7D7D70505D7D7D7D7D7D7D7D7D7D7D7D7D7D7D7D70000D7D7D7D7D7D7D7D7D7D7D7D7D7
310
D700D7D7D7D7D7D7D7D7D700D7D7D7D7D7D7D705D7D7D7D700D7D7D7D7D7D7D7D7D7D7D700D7D7D705D7D7D7D7D7D7D7D7D7D7D7D7D7D7D7D7D7D7D7D7D7D7D7D7D7D7D7D7D7D7D7D7D7D7D7D7D7D7D7D7D7D7D7D7D7D7D700D7D7D7D7D7D7D7D7D70000D7D7D7D7D7D7D7D7D700D7D7D7D7D7D7D7D7D7D7D7D7D7D7D7D7D7
310
D7D7D7D7D7D7D7D7D7D7D7D7D7D7D7D7D7D7D7D7D7D7D7D7D7D7D7D7D7D7D7D705D7D7D7D7D7D7D7D7D7D7D7D7D7D7D7D7D7D7D7D7D7D7D7D7D7D7D7D7D7D7D7D7D7D7D7D7D700D7D7D7D7D7D7D7D7D7D7D7D7D7D70000D7D7D7D7D7D7D7D7D7D700D7D7D7D7D705D7D7D7D7D7D700D7D7D7D7D7D7D7D7D7D700D7D705D7D7
310
D7D7D7D7D7D7D7D7D7D7D7D7D7D7D7D7D7D7D7D7D7D7D7D7D7D7D7D7D7D7D7D7D7D7D7D7D7D7D7D7D7D7D7D7D7D700D7D7D7D7D7D7D7D7D70000D7D7D7D7D7D7D7D7D700D7D7D7D7D7D7D7D7D7D7D7D7D7D7D7D7D7D7D7D7D7D7D7D7D7D7D7D7D7D7D7D7D7D7D7D7D7D7D7D7D7D7D7D7D7D7D7D7D7D705D7D7D7D7D7D7D7D7
310
D7D7D7D7D7D7D7D7D7D7D7D7D7D705D7D7D7D7D7D7D7D7D7D7D70000D7D7D7D7D7D7D7D7D7D7D7D7D7D700D7D7D7D7D7D7D7D7D7D7D7D7D7D70005D7D7D7D7D7D7D7D7D7D7D700D7D7D7D7D7D7D7D700D705D7D7D7D7D7D7D7D7D7D7D7D7D7D7D7D7D7D7D7D7D7D7D7D7D7D7D7D7D7D7D7D7D7D7D7D7D7D7D7D7D7D7D7D7D7
310
D7D7D7D700D7D7D7D7D7D7D7D7D70000D7D7D7D7D7D7D7D7D700D7D7D7D7D7D7D7D7D7D7D7D7D7D7D7D7D7D7D7D7D7D7D7D7D7D7D7D7D7D7D7D7D7D7D7D7D7D7D7D7D7D7D7D7D7D7D7D7D7D7D7D705D7D7D7D7D7D7D7D7D7D7D7D7D7D7D7D7D7D7D7D7D7D7D705D7D7D7D7D7D700D7D7D7D7D7D7D7D7D7D7D7D7D7D7D7D700
310
D7D7D7D7D7D7D7D7D7D7D7D70505D7D7D70000D7D7D7D7D7D7D7D7D7D7D700D7D7D7D7D7D700D7D7D7D7D7D7D7D7D7D7D7D7D7D7D7D7D7D7D7D7D7D7D7D7D7D7D7D7D7D7D7D7D7D7D7D7D7D7D7D7D7D7D7D7D7D7D7D7D7D7D700D7D7D7D7D7D7D7D7D70000D7D7D7D7D7D7D7D7D700D7D7D7D7D7D7D7D7D7D7D7D7D7D7D7D7
310
D7D7D7D7D7D7D7D7D7D7D7D7D7D7D7D7D7D7D7D7D7D7D7D7D7D7D7D7D7D7D7D7D7D7D7D7D7D7D7D7D7D7D7D7D7D7D7D7D7D7D7D7D7D7D7D7D7D7D7D7D70505D7D70000D7D7D7D7D7D7D7D7D7D7D7D7D7D7D7D70000D7D7D7D7D7D7D7D7D7D70505D7D7D7D7D7D7D7D7D7D7D7D7D7D7D7D7D7D7D70000D7D7D70505D7D7D7D7
310
D7D7D7D7D7D7D7D7D7D7D7D7D7D7D7D7D7D7D7D7D7D7D7D7D7D7D7D7D7D7D7D7D7D7D7D7D7D7D7D7D7D7D7D7D7D7D700D7D7D7D7D7D7D7D7D70000D7D7D7D7D7D7D7D7D700D7D7D7D7D7D7D7D7D7D7D7D7D7D7D7D7D7D7D7D7D7D7D7D7D7D7D7D7D7D7D7D7D7D7D7D7D7D7D7D7D7D7D7D7D7D7D7D7D7D7D7D7D7D7D7D7D7D7
310
D7D7D7D7D7D7D7D7D7D7D7D7D7D7D7D7D7D7D7D7D7D70005050505D7D7D7D7D7D7D7D7D7D7D7D7D700D7D7D7D7D7D7D7D70505D7D7D7D7D7D7D7D7D7D7D7D7D700D7D7D7D7D7D7D7D7D7D7D7D70005D700D7D7D7D7D7D7D7D7D7D7D7D7D7D7D7D7D7D7D7D7D7D7D7D7D7D7D7D7D7D7D7D7D7D7D7D7D7D7D7D7D7D7D7D7D7D7
310
D7D7D7D7D700D7D7D7D7D7D7D7D7D70000D7D7D7D7D7D7D7D7D700D7D7D7D7D7D7D7D7D7D7D7D7D7D7D7D7D7D7D7D7D7D7D7D7D7D7D7D7D7D7D7D7D7D7D7D7D7D7D7D7D7D7D7D7D7D7D7D7D7D7D7D7D7D7D705D7D7D7D7D7D7D7D7D7D7D7D7D7D7D7D7D7D7D7D7D7D7D70000D7D7D7D70505D7D7D7D7D7D7D7D7D7D70000D7
310
D7D7D705050505D7D7D7D7D7D7D7D7D7D7D7D7D7D7D7D700D7D7D7D7D7D7D7D7D7D7D7D700D700D7D7D7D7D7D7D7D7D7D7D7D7D7D7D7D7D7D7D7D7D7D7D7D7D7D7D7D7D7D7D7D7D7D7D7D7D7D7D7D7D7D7D7D7D7D7D7D7D7D7D700D7D7D7D7D7D7D7D7D70000D7D7D7D7D7D7D7D7D700D7D7D7D7D7D7D7D7D7D7D7D7D7D7D7
310
D7D7D7D7D7D7D7D7D7D7D7D7D7D7D7D7D7D7D7D7D7D7D7D7D7D7D7D7D7D7D7D7D7D7D7D7D7D7D7D7D7D7D7D7D7D7D7D7D7D7D7D7D7D7D7D7D7D7D7D7D7D7D700D7D7D7D7D7D7D716D7D7D7D7D7D7D7D7D700D7D7D7D7D7D7D7D7D7D7D7D7D7D7D7D7D7D7D7D7D7D7D7D7D7D7D7D700D7D7D7D7D7D7D7D705D7D7D700D7D7D7
310
D7D7D7D7D7D7D7D7D7D7D7D7D7D7D7D7D7D7D7D7D7D7D7D7D7D7D7D7D7D7D7D7D7D7D7D7D7D7D7D7D7D7D7D7D7D7D7D700D7D7D7D7D7D7D7D7D70000D7D7D7D7D7D7D7D7D700D7D7D7D7D7D7D7D7D7D7D7D7D7D7D7D7D7D7D7D7D7D7D7D7D7D7D7D7D7D7D7D7D7D7D7D7D7D7D7D7D7D7D7D7D7D7D7D7D7D7D7D7D7D7D7D7D7
310
0505D7D7D7D7D7D7D7D7D7D7D7D7D7D7D7D7D7D7D7000000D7D7D7D7D7D7D7D7D7D7D7D7D7D70000D7D7D7D7D7D7D7D7D7D716D7D7D7D7D7D7D7D7D7D7D7D7D7D7D7D7D7D700D716D7D7D7D705D7D7D700D7D7D7D7D7D7D7D7D7D7D7D7D7D7D7D7D7D7D7D7D7D7D7D7D7D7D7D7D7D7D7D7D7D7D7D7D7D7D7D7D7D7D7D7D7D7
310
D7D7D7D7D7D700D7D7D7D7D7D7D7D7D70000D7D7D7D7D7D7D7D7D700D7D7D7D7D7D7D7D7D7D7D7D7D7D7D7D7D7D7D7D7D7D7D7D7D7D7D7D7D7D7D7D7D7D7D7D7D7D7D7D7D7D7D7D7D7D7D7D7D7D7D7D7D7D7D7D7D7D7D705D7D7D7D7D7D7D7D7D7D7D7D7D7D7D7D7D700D7D70000D7D7D7D7D7D7D7D7D7D7D7D700D7D7D7D7
310
D7D7D7D7D7D7D7D7D7D7D7D7D7D7D7D7D7D7D7D7D7D7D7D7D7D7D7D7D700D70505D7D7D700D7D7D7D7D7D7D7D7D7D7D7D7D7D7D7D7D7D7D7D7D7D7D7D7D7D7D7D7D7D7D7D7D7D7D7D7D7D7D7D7D7D7D7D7D7D7D7D7D7D7D7D7D7D700D7D7D7D7D7D7D7D7D70000D7D7D7D7D7D7D7D7D700D7D7D7D7D7D7D7D7D7D7D7D7D7D7
310
D7D7D7D7D7D7D7D7D7D7D7D7D7D7D7D7D7D7D7D7D7D7D7D7D7D7D7D7D7D7D7D7D7D7D7D7D7D7D7D7D7D7D7D7D7D7D7D7D7D7D7D7D7D7D7D7D7D7D7D7D70000D70000D7D70000D7D7D7D7D7D7D7D7D700D7D7D7D7D7D7D7D7D7D7D7D7D7D7D7D7D7D7D7D7D7D7D7D7D7D7D7D7D7D7D7D7D7D7D70500000000D7D7D7D7D7D7D7
310
D7D7D7D7D7D7D7D7D7D7D7D7D7D7D7D7D7D7D7D7D7D7D7D7D7D7D7D7D7D7D7D7D7D7D7D7D7D7D7D7D7D7D7D7D7D7D7D7D700D7D7D7D7D7D7D7D7D70000D7D7D7D7D7D7D7D7D700D7D7D7D7D7D7D7D7D7D7D7D7D7D7D7D7D7D7D7D7D7D7D7D7D7D7D7D7D7D7D7D7D7D7D7D7D7D7D7D7D7D7D7D7D7D7D7D7D7D7D7D7D7D7D7D7
310
D7D7D7D7D7D70505D7D7D7D7D7D7D7D7D7D70000D7D7D700D7D7D70000D7D7D7D7D7D7D70000D7D7D7D7D7D7D7D7D7D7D7D7D7D7D7D7D7D7D7D7D7D7D7D7D7D7D7D7D7D7D7D7D70505D7D7D7D7D7D7D7D7D7D7D7D7D7D7D7D7D7D7D7D7D7D7D7D7D7D7D7D7D7D7D7D7D7D7D7D7D7D7D7D7D7D7D7D7D7D7D7D7D7D7D7D7D7D7
310
D7D7D7D7D7D7D700D7D7D7D7D7D7D7D7D70000D7D7D7D7D7D7D7D7D700D7D7D7D7D7D7D7D7D7D7D7D7D7D7D7D7D7D7D7D7D7D7D7D7D7D7D7D7D7D7D7D7D7D7D7D7D7D7D7D7D7D7D7D7D7D7D7D7D7D7D7D7D7D7D7D7D7D7D7D7D7D7D7D7D71505D7D7D70FD7D7D7D7D7000000D7D700000000D70FD7D7D7D700D7D7D7D7D7D7
310
D7D7D7D7D7D7D7D7D7D7D7D7D7D7D7D7D7D7D7D7D7D7D7D7D7D7D7D7D7D7D7D7D7D7D7D7D7D7D7D7D7D7D7D7D7D7D7D7D7D7D7D7D7D7D7D7D7D7D7D7D7D7D7D7D7D7D7D7D7D7D7D7D7D7D7D7D7D7D7D7D7D7D7D7D7D7D7D7D7D7D7D700D7D7D7D7D7D7D7D7D70000D7D7D7D7D7D7D7D7D700D7D7D7D7D7D7D7D7D7D7D7D7D7
310
D7D7D7D7D7D7D7D7D7D7D7D7D7D7D7D7D7D7D7D7D7D7D7D7D7D7D7D7D7D7D7D7D7D7D7D7D7D7D7D7D7D7D7D7D7D7D7D7D7D7D7D7D7D7D7D7D7D7D7D700D7D7000000D7D7D700D700D7D700D7D70000D7D7D7D7D7D7D7D7D7D7D7D7D7D7D715D7D7D7D715D7D7D7D7D7D7D7D7D7D70505D7D7D7D7D7D7D7D7D7D7D7D7D7D7D7
310
D7D7D7D7D7D7D7D7D7D7D7D7D7D7D7D7D7D7D7D7D7D7D7D7D7D7D7D7D7D7D7D7D7D7D7D7D7D7D7D7D7D7D7D7D7D7D7D7D7D700D7D7D7D7D7D7D7D7D70000D7D7D7D7D7D7D7D7D700D7D7D7D7D7D7D7D7D7D7D7D7D7D7D7D7D7D7D7D7D7D7D7D7D7D7D7D7D7D7D7D7D7D7D7D7D7D7D7D7D7D7D7D7D7D7D7D7D7D7D7D7D7D7D7
310
D7D7D7D7D7D7D7D7D7D7D7D7D7D7D705D7D7D700D70000D700D7D7D7D700000000D700D7D7D7D7D7D7D7D7D7D7D7D7D7D7D7D7D7D7D7D7D7D7D7D7D7D7D7D7D7D705D7D7D7D7D7D7D7D7D7D7D7D7D7D7D7D7D7D7D7D7D7D7D7D7D7D7D7D7D7D7D7D7D7D7D7D7D7D7D7D7D7D7D7D7D7D7D7D7D7D7D7D7D7D7D7D7D7D7D7D7D7
310
D7D7D7D7D7D7D7D700D7D7D7D7D7D7D7D7D70000D7D7D7D7D7D7D7D7D700D7D7D7D7D7D7D7D7D7D7D7D7D7D7D7D7D7D7D7D7D7D7D7D7D7D7D7D7D7D7D7D7D7D7D7D7D7D7D7D7D7D7D7D7D7D7D7D7D7D7D7D7D7D7D7D7D7D7D7D7D7D7D7D7D7D7D7D7D7D7D705D7D7D7D70000D7D7D7D7D7D7D7D7D7D70000D7D7D7D7D7D7D7
310
D7D7D7D7D7D7D7D7D7D7D7D7D7D7D7D7D7D7D7D7D7D705D7D7D7D7D7D7D7D7D7D7D7D7D7D7D7D7D7D7D7D7D7D7D7D7D7D7D7D7D7D7D7D7D7D7D7D7D7D7D7D7D7D7D7D7D7D7D7D7D7D7D7D7D7D7D7D7D7D7D7D7D7D7D7D7D7D7D7D7D7D700D7D7D7D7D7D7D7D7D70000D7D7D7D7D7D7D7D7D700D7D7D7D7D7D7D7D7D7D7D7D7
310
D7D7D7D7D7D7D7D7D7D7D7D7D7D7D7D7D7D7D7D7D7D7D7D7D7D7D7D7D7D7D7D7D7D7D7D7D7D7D7D7D7D7D7D7D7D7D7D7D7D7D7D7D7D7D7D7D7D7D7D7D7D70505D700D7D700D7D700D7D700D700D7D7D7D7D7D7D7D7D7D7D7D7D7D7D7D7D7D7D7D7D7D7D7D7D7D70505D7D7D7D7D7D7D7D7D7D7D7D7D7D7D7D7D7D7D7D7D7D7
310
D7D7D7D7D7D7D7D7D7D7D7D7D7D7D7D7D7D7D7D7D7D7D7D7D7D7D7D7D7D7D7D7D7D7D7D7D7D7D7D7D7D7D7D7D7D7D7D7D7D7D700D7D7D7D7D7D7D7D7D70000D7D7D7D7D7D7D7D7D700D7D7D7D7D7D7D7D7D7D7D7D7D7D7D7D7D7D7D7D7D7D7D7D7D7D7D7D7D7D7D7D7D7D7D7D7D7D7D7D7D7D7D7D7D7D7D7D7D7D7D7D7D7D7
310
D7D7D7D7D7D7D7D7D7D7D7D7D7D7D7D7D7D7D7D700D7D7D700050500D7D7D7D71600D7D7D7D7D7D7D7D7D7D7D7D7D7D7D7D7D7D7D7D7D7D70505D7D7D7D7D7D7D7D7D7D7D7D7D7D7D7D7D7D7D7D7D7D7D7D7D7D7D7D7D7D7D7D7D7D7D7D7D7D7D7D7D7D7D7D7D7D7D7D7D7D7D7D7D7D7D7D7D7D7D7D7D7D7D7D7D7D7D7D7D7
310
D7D7D7D7D7D7D7D7D700D7D7D7D7D7D7D7D7D70000D7D7D7D7D7D7D7D7D700D7D7D7D7D7D7D7D7D7D7D7D7D7D7D7D7D7D7D7D7D7D7D7D7D7D7D7D7D7D7D7D7D7D7D7D7D7D7D7D7D7D7D7D7D7D7D7D7D7D7D7D7D7D7D7D7D7D7D7D7D7D7D7D7D7D7D7D7D7D7D7D7D7D70000D7D70000D705050505D70000D7D7D716D7D7D7D7
310
D7D7D7D7D7D7D7D7D7D705050505D7D7D7D7D7D7D7D7D7D7D7D7D7D7D7D7D7D7D7D7D7D7D7D7D7D7D7D7D7D7D7D7D7D7D7D7D7D7D7D7D7D7D7D7D7D7D7D7D7D7D7D7D7D7D7D7D7D7D7D7D7D7D7D7D7D7D7D7D7D7D7D7D7D7D7D7D7D7D7D700D7D7D7D7D7D7D7D7D70000D7D7D7D7D7D7D7D7D700D7D7D7D7D7D7D7D7D7D7D7
310
D7D7D7D7D7D7D7D7D7D7D7D7D7D7D7D7D7D7D7D7D7D7D7D7D7D7D7D7D7D7D7D7D7D7D7D7D7D7D7D7D7D7D7D7D7D7D7D7D7D7D7D7D7D7D7D7D7D7D7D7D7D7D7D700D7D7D7D700D7D700D7D7D7D7D705050505050505050505050505D7D7D7D7D7D7D7D7D7D7D7D7D7D7D7D7D7D7D7D7D7D7D7D7D7D7D7D7D7D7D7D7D7D7D7D7
310
D7D7D7D7D7D7D7D7D7D7D7D7D7D7D7D7D7D7D7D7D7D7D7D7D7D7D7D7D7D7D7D7D7D7D7D7D7D7D7D7D7D7D7D7D7D7D7D7D7D7D7D700D7D7D7D7D7D7D7D7D70000D7D7D7D7D7D7D7D7D700D7D7D7D7D7D7D7D7D7D7D7D7D7D7D7D7D7D7D7D7D7D7D7D7D7D7D7D7D7D7D7D7D7D7D7D7D7D7D7D7D7D7D7D7D7D7D7D7D7D7D7D7D7
310
D7D7D7D7D7D7D7D7D7D7D7D7D7D7D7D7D7D7D7D7D7D7D700D7D7D7D7D700D7D7D7D7D7D7D7D7D7D7D7D7D7D7D7D7D7D7D7D7D7D7D7D7D7D7D7D7D7D7D7D7D7D7D7D7D7D7D7D7D7D7D7D7D7D7D7D7D7D7D7D7D7D7D7D7D7D7D7D7D7D7D7D7D7D7D7D7D7D7D7D7D7D7D7D7D7D7D7D7D7D7D7D7D7D7D7D7D7D7D7D7D7D7D7D7D7
310
D7D7D7D7D7D7D7D7D7D700D7D7D7D7D7D7D7D7D70000D7D7D7D7D7D7D7D7D700D7D7D7D7D7D7D7D7D7D7D7D7D7D7D7D7D7D7D7D7D7D7D7D7D7D7D7D7D7D7D7D7D7D7D7D7D7D7D7D7D7D7D7D7D7D7D7D7D7D7D7D7D7D7D7D7D7D7D7D7D7D7D7D7D7D7D7D7D7D7D7D7D7D7D7D7D700D7D700D7D7D7D7D7D7D7D7D7D7D7D7D7D7
310
D7D7D7D7D7D7D7D7D7D7D7D7D7D7D7D7D7D7D7D7D7D7D7D7D7D7D7D7D7D7D7D7D7D7D7D7D7D7D7D7D7D7D7D7D7D7D7D7D7D7D7D7D7D7D7D7D7D7D7D7D7D7D7D7D7D7D7D7D7D7D7D7D7D7D7D7D7D7D7D7D7D7D7D7D7D7D7D7D7D7D7D7D7D7D700D7D7D7D7D7D7D7D7D70000D7D7D7D7D7D7D7D7D700D7D7D7D7D7D7D7D7D7D7
310
D7D7D7D7D7D7D7D7D7D7D7D7D7D7D7D7D7D7D7D7D7D7D7D7D7D7D7D7D7D7D7D7D7D7D7D7D7D7D7D7D7D7D7D7D7D7D7D7D7D7D7D7D7D7D7D7D7D7D7D7D7D7D7D7D7D700D7D700D7D7D7D7D7D7D7D7D7D7D7D7D7D7D7D7D7D7D7D7D7D7D7D7D7D7D7D7D7D7D7D7D7D7D7D7D7D7D7D7D7D7D7D7D7D7D7D7D7D7D7D7D7D7D7D7D7
310
D7D7D7D7D7D7D7D7D7D7D7D7D7D7D7D7D7D7D7D7D7D7D7D7D7D7D7D7D7D7D7D7D7D7D7D7D7D7D7D7D7D7D7D7D7D7D7D7D7D7D7D7D700D7D7D7D7D7D7D7D7D70000D7D7D7D7D7D7D7D7D700D7D7D7D7D7D7D7D7D7D7D7D7D7D7D7D7D7D7D7D7D7D7D7D7D7D7D7D7D7D7D7D7D7D7D7D7D7D7D7D7D7D7D7D7D7D7D7D7D7D7D7D7
310
D7D7D7D7D7D7D7D7D7D7D7D7D7D7D7D7D7D7D7D7D7D7D7D700000000D7D7D7D7D7D7D7D7D7D7D7D7D7D7D7D7D7D7D7D7D7D7D7D7D7D7D7D7D7D7D7D7D7D7D7D7D7D7D7D7D7D7D7D7D7D7D7D7D7D7D7D7D7D7D7D7D7D7D7D7D7D7D7D7D7D7D7D7D7D7D7D7D7D7D7D7D7D7D7D7D7D7D7D7D7D7D7D7D7D7D7D7D7D7D7D7D7D7D7
310
D7D7D7D7D7D7D7D7D7D7D700D7D7D7D7D7D7D7D7D70000D7D7D7D7D7D7D7D7D700D7D7D7D7D7D7D7D7D7D7D7D7D7D7D7D7D7D7D7D7D7D7D7D7D7D7D7D7D7D7D7D7D7D7D7D7D7D7D7D7D7D7D7D7D7D7D7D7D7D7D7D7D7D7D7D7D7D7D7D7D7D7D7D7D7D7D7D7D7D7D7D7D7D7D7D7D7D7D7D7D7D7D7D7D7D7D7D7D7D7D7D7D7D7
310
D7D7D7D7D7D7D7D7D7D7D7D7D7D7D7D7D7D7D7D7D7D7D7D7D7D7D7D7D7D7D7D7D7D7D7D7D7D7D7D7D7D7D7D7D7D7D7D7D7D7D7D7D7D7D7D7D7D7D7D7D7D7D7D7D7D7D7D7D7D7D7D7D7D7D7D7D7D7D7D7D7D7D7D7D7D7D7D7D7D7D7D7D7D7D7D700D7D7D7D7D7D7D7D7D70000D7D7D7D7D7D7D7D7D700D7D7D7D7D7D7D7D7D7
310
D7D7D7D7D7D7D7D7D7D7D7D7D7D7D7D7D7D7D7D7D7D7D7D7D7D7D7D7D7D7D7D7D7D7D7D7D7D7D7D7D7D7D7D7D7D7D7D7D7D7D7D7D7D7D7D7D7D7D7D7D7D7D7D7D7D7D7D7D7D7D7D7D7D7D7D7D7D7D7D7D7D7D7D7D7D7D7D7D7D7D7D7D7D7D7D7D7D7D7D7D7D7D7D7D7D7D7D7D7D7D7D7D7D7D7D7D7D7D7D7D7D7D7D7D7D7D7
310
D7D7D7D7D7D7D7D7D7D7D7D7D7D7D7D7D7D7D7D7D7D7D7D7D7D7D7D7D7D7D7D7D7D7D7D7D7D7D7D7D7D7D7D7D7D7D7D7D7D7D7D7D7D700D7D7D7D7D7D7D7D7D70000D7D7D7D7D7D7D7D7D700D7D7D7D7D7D7D7D7D7D7D7D7D7D7D7D7D7D7D7D7D7D7D7D7D7D7D7D7D7D7D7D7D7D7D7D7D7D7D7D7D7D7D7D7D7D7D7D7D7D7D7
310
D7D7D7D7D7D7D7D7D7D7D7D7D7D7D7D7D7D7D7D7D7D7D7D7D7D7D7D7D7D7D7D7D7D7D7D7D7D7D7D7D7D7D7D7D7D7D7D7D7D7D7D7D7D7D7D7D7D7D7D7D7D7D7D7D7D7D7D7D7D7D7D7D7D7D7D7D7D7D7D7D7D7D7D7D7D7D7D7D7D7D7D7D7D7D7D7D7D7D7D7D7D7D7D7D7D7D7D7D7D7D7D7D7D7D7D7D7D7D7D7D7D7D7D7D7D7D7
310
D7D7D7D7D7D7D7D7D7D7D7D700D7D7D7D7D7D7D7D7D70000D7D7D7D7D7D7D7D7D700D7D7D7D7D7D7D7D7D7D7D7D7D7D7D7D7D7D7D7D7D7D7D7D7D7D7D7D7D7D7D7D7D7D7D7D7D7D7D7D7D7D7D7D7D7D7D7D7D7D7D7D7D7D7D7D7D7D7D7D7D7D7D7D7D7D7D7D7D7D7D7D7D7D7D7D7D7D7D7D7D7D7D7D7D7D7D7D7D7D7D7D7D7
310
D7D7D7D7D7D7D7D7D7D7D7D7D7D7D7D7D7D7D7D7D7D7D7D7D7D7D7D7D7D7D7D7D7D7D7D7D7D7D7D7D7D7D7D7D7D7D7D7D7D7D7D7D7D7D7D7D7D7D7D7D7D7D7D7D7D7D7D7D7D7D7D7D7D7D7D7D7D7D7D7D7D7D7D7D7D7D7D7D7D7D7D7D7D7D7D7D700D7D7D7D7D7D7D7D7D70000D7D7D7D7D7D7D7D7D700D7D7D7D7D7D7D7D7
310
D7D7D7D7D7D7D7D7D7D7D7D7D7D7D7D7D7D7D7D7D7D7D7D7D7D7D7D7D7D7D7D7D7D7D7D7D7D7D7D7D7D7D7D7D7D7D7D7D7D7D7D7D7D7D7D7D7D7D7D7D7D7D7D7D7D7D7D7D7D7D7D7D7D7D7D7D7D7D7D7D7D7D7D7D7D7D7D7D7D7D7D7D7D7D7D7D7D7D7D7D7D7D7D7D7D7D7D7D7D7D7D7D7D7D7D7D7D7D7D7D7D7D7D7D7D7D7
310
D7D7D7D7D7D7D7D7D7D7D7D7D7D7D7D7D7D7D7D7D7D7D7D7D7D7D7D7D7D7D7D7D7D7D7D7D7D7D7D7D7D7D7D7D7D7D7D7D7D7D7D7D7D7D700D7D7D7D7D7D7D7D7D70000D7D7D7D7D7D7D7D7D700D7D7D7D7D7D7D7D7D7D7D7D7D7D7D7D7D7D7D7D7D7D7D7D7D7D7D7D7D7D7D7D7D7D7D7D7D7D7D7D7D7D7D7D7D7D7D7D7D7D7
310
D7D7D7D7D7D7D7D7D7D7D7D7D7D7D7D7D7D7D7D7D7D7D7D7D7D7D7D7D7D7D7D7D7D7D7D7D7D7D7D7D7D7D7D7D7D7D7D7D7D7D7D7D7D7D7D7D7D7D7D7D7D7D7D7D7D7D7D7D7D7D7D7D7D7D7D7D7D7D7D7D7D7D7D7D7D7D7D7D7D7D7D7D7D7D7D7D7D7D7D7D7D7D7D7D7D7D7D7D7D7D7D7D7D7D7D7D7D7D7D7D7D7D7D7D7D7D7
310
D7D7D7D7D7D7D7D7D7D7D7D7D700D7D7D7D7D7D7D7D7D70000D7D7D7D7D7D7D7D7D700D7D7D7D7D7D7D7D7D7D7D7D7D7D7D7D7D7D7D7D7D7D7D7D7D7D7D7D7D7D7D7D7D7D7D7D7D7D7D7D7D7D7D7D7D7D7D7D7D7D7D7D7D7D7D7D7D7D7D7D7D7D7D7D7D7D7D7D7D7D7D7D7D7D7D7D7D7D7D7D7D7D7D7D7D7D7D7D7D7D7D7D7
310
D7D7D7D7D7D7D7D7D7D7D7D7D7D7D7D7D7D7D7D7D7D7D7D7D7D7D7D7D7D7D7D7D7D7D7D7D7D7D7D7D7D7D7D7D7D7D7D7D7D7D7D7D7D7D7D7D7D7D7D7D7D7D7D7D7D7D7D7D7D7D7D7D7D7D7D7D7D7D7D7D7D7D7D7D7D7D7D7D7D7D7D7D7D7D7D7D7D700D7D7D7D7D7D7D7D7D70000D7D7D7D7D7D7D7D7D700D7D7D7D7D7D7D7
310
D7D7D7D7D7D7D7D7D7D7D7D7D7D7D7D7D7D7D7D7D7D7D7D7D7D7D7D7D7D7D7D7D7D7D7D7D7D7D7D7D7D7D7D7D7D7D7D7D7D7D7D7D7D7D7D7D7D7D7D7D7D7D7D7D7D7D7D7D7D7D7D7D7D7D7D7D7D7D7D7D7D7D7D7D7D7D7D7D7D7D7D7D7D7D7D7D7D7D7D7D7D7D7D7D7D7D7D7D7D7D7D7D7D7D7D7D7D7D7D7D7D7D7D7D7D7D7
310
D7D7D7D7D7D7D7D7D7D7D7D7D7D7D7D7D7D7D7D7D7D7D7D7D7D7D7D7D7D7D7D7D7D7D7D7D7D7D7D7D7D7D7D7D7D7D7D7D7D7D7D7D7D7D7D700D7D7D7D7D7D7D7D7D70000D7D7D7D7D7D7D7D7D700D7D7D7D7D7D7D7D7D7D7D7D7D7D7D7D7D7D7D7D7D7D7D7D7D7D7D7D7D7D7D7D7D7D7D7D7D7D7D7D7D7D7D7D7D7D7D7D7D7
310
D7D7D7D7D7D7D7D7D7D7D7D7D7D7D7D7D7D7D7D7D7D7D7D7D7D7D7D7D7D7D7D7D7D7D7D7D7D7D7D7D7D7D7D7D7D7D7D7D7D7D7D7D7D7D7D7D7D7D7D7D7D7D7D7D7D7D7D7D7D7D7D7D7D7D7D7D7D7D7D7D7D7D7D7D7D7D7D7D7D7D7D7D7D7D7D7D7D7D7D7D7D7D7D7D7D7D7D7D7D7D7D7D7D7D7D7D7D7D7D7D7D7D7D7D7D7D7
310
D7D7D7D7D7D7D7D7D7D7D7D7D7D700D7D7D7D7D7D7D7D7D70000D7D7D7D7D7D7D7D7D700D7D7D7D7D7D7D7D7D7D7D7D7D7D7D7D7D7D7D7D7D7D7D7D7D7D7D7D7D7D7D7D7D7D7D7D7D7D7D7D7D7D7D7D7D7D7D7D7D7D7D7D7D7D7D7D7D7D7D7D7D7D7D7D7D7D7D7D7D7D7D7D7D7D7D7D7D7D7D7D7D7D7D7D7D7D7D7D7D7D7D7
310
D7D7D7D7D7D7D7D7D7D7D7D7D7D7D7D7D7D7D7D7D7D7D7D7D7D700D7D7D7D7D7D7D7D7D7D7D7D7D7D7D7D7D7D7D7D7D7D7D7D7D7D7D7D7D7D7D7D7D7D7D7D7D7D7D7D7D7D7D7D7D7D7D7D7D7D7D7D7D7D7D7D7D7D7D7D7D7D7D7D7D7D7D7D7D7D7D7D700D7D7D7D7D7D7D7D7D70000D7D7D7D7D7D7D7D7D700D7D7D7D700D7
310
D7D700D7D7D7D7D7D7D7D7D7D7D7D7D7000000D7D7D7D70000D7D7D7D700D7D7D7D7D7D7D7D7D7D7D7D7D7D7D7D700D7D7D7D70000D70000D7D7D7D70000D7D7D7D7D7D7D7D7D7D700D7D70000D7D7D700D7D700D7D7D700D700D7D7D7D700D700D7D700D700D700D7D700D7D700D700D7D70000D7D700D7D7D7D7D7D7D7D7
310
D7D7D7D7D7D7D7D7D7D7D7D7D7D7D7D7D7D7D7D7D7D7D7D7D7D7D7D7D7D7D7D7D7D7D7D7D7D7D7D7D7D7D7D7D7D7D7D7D7D7D7D7D7D7D7D7D700D7D7D7D7D7D7D7D7D70000D7D7D7D7D7D7D7D7D700D7D7D7D700D7D7D7D7D7D7000000D7D7D7D7D7D7D7D7D7D7D700D7D700D7D7D7D7D7D700D7D7D7D7D7D7D7D7D7D7D7D7
310
D7D7D7D7D7D7D7D700D7D7D700D7D7D7D7D7D7D700D7D7D7D7D7D7D7D7D700D7D7D7D700D7D700D700D7D7D7D700D700D7D7D7D700D700D700D7D700D700D7D700D7D7D7D700D7D7D7D7D7D7D7D7D7D7D7D7D7D7D7D7D7D7D7D7D7D7D7D7D7D7D7D7D7D7D7D7D7D7D7D7D7D7D7D7D7D7D7D7D7D7D7D7D7D7D7D7D7D7D7D7D7
310
D7D7D7D7D7D7D7D7D7D7D7D7D7D7D700D7D7D7D7D7D7D7D7D70000D7D7D7D7D7D7D7D7D700D7D7D7D700000000D7D7D700D7D7D7D7D7D7D7D7D7D7D7D7D700D7D700D7D7D7D7D7D700D700D7D7D7D7D7D7D7D7D7D7D7D7D7D7D7D7D7D700D7D7D700D7D7D7D7D7D7D700D7D7D7D7D7D7D7D7D700D7D7D7D700D7D700D700D7
310
D7D7D700D700D7D7D7D700D700D7D7D7D700D700D7D700D7D7D7D700D7D7D7D700D7D7D7D7D7D7D7D7D7D7D7D7D7D7D7D7D7D7D7D7D7D7D7D7D7D7D7D7D7D7D7D7D7D7D7D7D7D7D7D7D7D7D7D7D7D7D7D7D7D7D7D7D7D7D7D7D7D7D7D7D7D7D7D7D7D7D700D7D7D7D7D7D7D7D7D70000D7D7D7D7D7D7D7D7D700D7D7D7D700
310
D7D7D700D7D700D7D7D7D7D7D7D7D7D7D7D7D7D700D7D700D7D7D7D7D7D70000D7D7D7D7D7D7D7D7D7D7D7D7D7D7D7D700D7D700D7D7D700D7D7D7D7D7D7D700D7D700D7D7D7D700D700D7D7D7D700D7D700D700D700D7D700D700D7D7D7D700D700D700D7D700D70000D700D7D7D70000D7D7D7D700D7D7D7D7D7D7D7D7D7
310
D7D7D7D7D7D7D7D7D7D7D7D7D7D7D7D7D7D7D7D7D7D7D7D7D7D7D7D7D7D7D7D7D7D7D7D7D7D7D7D7D7D7D7D7D7D7D7D7D7D7D7D7D7D7D7D7D7D700D7D7D7D7D7D7D7D7D70000D7D7D7D7D7D7D7D7D700D7D7D7D700D7D7D700D7D7D700D7D7D7D7D7D7D7D7D7D7D7D7D7D7D7D7D7D700D7D7D700D7D7D7D7D700D7D7D7D7D7
310
D7D7D7D7D7D7D7D7D7D7D7D7D700D7D7D7D7D7D7D7D7D7D7D7D7D7D7D7D7D7D7D7D7D7D7D7D7D700D7D7D7D7D7D700D7D7D7D7D7D700D700D7D7D7D7D7D7D7D7D7D7D7D7D7D7D7D7D7D7D7D7D7D7D7D7D7D7D7D7D7D7D7D7D7D7D7D7D7D7D7D7D7D7D7D7D7D7D7D7D7D7D7D7D7D7D7D7D7D7D7D7D7D7D7D7D7D7D7D7D7D7D7
310
D7D7D7D7D7D7D7D7D7D7D7D7D7D7D7D700D7D7D7D7D7D7D7D7D70000D7D7D7D7D7D7D7D7D700D7D7D7D700000000D7D7D7D7D7D7D7D7D7D7D7D7D7D7000000D7D7D7D70000D7D7D7D700D7D7D7D7D700D700000000D7D7D7D7D7D7D7D7D7D7D7D7D700D7D7D7D7D7D7D7D7D7D7D7D7D7D7D7D7D7D7D7D7D7D7D7D7D700D7D7
310
D7D7D7D700D7D7D7D7D7D7D70000D7D7D7D7D7D7D7D7D7D7D7D7D7D7D7D7D7D7D7D7D7D7D7D7D7D7D7D7D7D7D7D7D7D7D7D7D7D7D7D7D7D7D7D7D7D7D7D7D7D7D7D7D7D7D7D7D7D7D7D7D7D7D7D7D7D7D7D7D7D7D7D7D7D7D7D7D7D7D7D7D7D7D7D7D7D7D700D7D7D7D7D7D7D7D7D70000D7D7D7D7D7D7D7D7D700D7D7D7D7
310
D7D7D7D7D7D7D7D7D7D7D7D7D7D7D7D7D7D7D7D7D7D7D7D7D7D7D7D7D7D7D7D7D7D7D7D7D7D7D7D7D7D7D7D7D7D7D7D7D7D7D7D7D7D7D7D7D7D7D7D7D7D7D7D7D7D7D7D7D7D7D7D7D7D7D7D7D7D7D7D7D7D7D7D7D7D7D7D7D7D7D7D7D7D7D7D7D7D7D7D7D7D7D7D7D7D7D7D7D7D7D7D7D7D7D7D7D7D7D7D7D7D7D7D7D7D7D7
310
D7D7D7D7D7D7D7D7D7D7D7D7D7D7D7D7D7D7D7D7D7D7D7D7D7D7D7D7D7D7D7D7D7D7D7D7D7D7D7D7D7D7D7D7D7D7D7D7D7D7D7D7D7D7D7D7D7D7D700D7D7D7D7D7D7D7D7D70000D7D7D7D7D7D7D7D7D700D7D7D7D7D7D7D7D7D7D7D7D7D7D7D7D7D7D7D7D7D7D7D7D7D7D7D7D7D7D7D7D7D7D7D7D7D7D7D7D7D7D7D7D7D7D7
310
D7D7D7D7D7D7D7D7D7D7D7D7D7D7D7D7D7D7D7D7D7D7D7D7D7D7D7D7D7D7D7D7D7D7D7D7D7D7D7D7D7D7D7D7D7D7D7D7D7D7D7D7D7D7D7D7D7D7D7D7D7D7D7D7D7D7D7D7D7D7D7D7D7D7D7D7D7D7D7D7D7D7D7D7D7D7D7D7D7D7D7D7D7D7D7D7D7D7D7D7D7D7D7D7D7D7D7D7D7D7D7D7D7D7D7D7D7D7D7D7D7D7D7D7D7D7D7
310
D7D7D7D7D7D7D7D7D7D7D7D7D7D7D7D7D700D7D7D7D7D7D7D7D7D70000D7D7D7D7D7D7D7D7D700D7D7D7D7D7D7D7D7D7D7D7D7D7D7D7D7D7D7D7D7D7D7D7D7D7D7D7D7D7D7D7D7D7D7D7D7D7D7D7D7D7D7D7D7D7D7D7D7D7D7D7D7D7D7D7D7D7D7D7D7D7D7D7D7D7D7D7D7D7D7D7D7D7D7D7D7D7D7D7D7D7D7D7D7D7D7D7D7
310
D7D7D7D7D7D7D7D7D7D7D7D7D7D7D7D7D7D7D7D7D7D7D7D7D7D7D7D7D7D7D7D7D7D7D7D7D7D7D7D7D7D7D7D7D7D7D7D7D7D7D7D7D7D7D7D7D7D7D7D7D7D7D7D7D7D7D7D7D7D7D7D7D7D7D7D7D7D7D7D7D7D7D7D7D7D7D7D7D7D7D7D7D7D7D7D7D7D7D7D7D7D700D7D7D7D7D7D7D7D7D70000D7D7D7D7D7D7D7D7D700D7D7D7
310
D7D7D7D7D7D7D7D7D7D7D7D7D7D7D7D7D7D7D7D7D7D7D7D7D7D7D7D7D7D7D7D7D7D7D7D7D7D7D7D7D7D7D7D7D7D7D7D7D7D7D7D7D7D7D7D7D7D7D7D7D7D7D7D7D7D7D7D7D7D7D7D7D7D7D7D7D7D7D7D7D7D7D7D7D7D7D7D7D7D7D7D7D7D7D7D7D7D7D7D7D7D7D7D7D7D7D7D7D7D7D7D7D7D7D7D7D7D7D7D7D7D7D7D7D7D7D7
310
D7D7D7D7D7D7D7D7D7D7D7D7D7D7D7D7D7D7D7D7D7D7D7D7D7D7D7D7D7D7D7D7D7D7D7D7D7D7D7D7D7D7D7D7D7D7D7D7D7D7D7D7D7D7D7D7D7D7D7D700D7D7D7D7D7D7D7D7D70000D7D7D7D7D7D7D7D7D700000000000000000000000000000000000000000000000000000000000000000000000000000000000000000000
310
00000000000000000000000000000000000000000000000000000000000000000000000000000000000000000000000000000000000000000000000000000000000000000000000000000000000000000000000000000000000000000000000000000000000000000000000000000000000000000000000000000000000000
310
00000000000000000000000000000000000000D7D7D7D7D7D7D7D7D70000D7D7D7D7D7D7D7D7D7D7D7D7D7D7D7D7D7D7D7D7D7D7D7D7D7D7D7D7D7D7D7D7D7D7D7D7D7D7D7D7D7D7D7D7D7D7D7D7D7D7D7D7D7D7D7D7D7D7D7D7D7D7D7D7D7D7D7D7D7D7D7D7D7D7D7D7D7D7D7D7D7D7D7D7D7D7D7D7D7D7D7D7D7D7D7D7D7
310
D7D7D7D7D7D7D7D7D7D7D7D7D7D7D7D7D7D7D7D7D7D7D7D7D7D7D7D7D7D7D7D7D7D7D7D7D7D7D7D7D7D7D7D7D7D7D7D7D7D7D7D7D7D7D7D7D7D7D7D7D7D7D7D7D7D7D7D7D7D7D7D7D7D7D7D7D7D7D7D7D7D7D7D7D7D7D7D7D7D7D7D7D7D7D7D7D7D7D7D7D7D7D7D7D7D7D7D7D7D7D7D7D70000D7D7D7D7D7D7D7D7D7D7D7D7
310
D7D7D7D7D7D7D7D7D7D7D7D7D7D7D7D7D7D7D7D7D7D7D7D7D7D7D7D7D7D7D7D7D7D7D7D7D7D7D7D7D7D7D7D7D7D7D7D7D7D7D7D7D7D7D7D7D7D7D7D7D7D7D7D7D7D7D7D7D7D7D7D7D7D7D7D7D7D7D7D7D7D7D7D7D7D7D7D7D7D7D7D7D7D7D7D7D7D7D7D7D7D7D7D7D7D7D7D7D7D7D7D7D7D7D7D7D7D7D7D7D7D7D7D7D7D7D7
310
D7D7D7D7D7D7D7D7D7D7D7D7D7D7D7D7D7D7D7D7D7D7D7D7D7D7D7D7D7D7D7D7D7D7D7D7D7D7D7D7D7D7D7D7D7D7D7D7D7D7D7D7D7D7D7D7D7D7D7D7D7D7D7D7D7D7D7D7D7D7D70000D7D7D7D7D7D7D7D7D7D7D7D7D7D7D7D7D7D7D7D7D7D7D7D7D7D7D7D7D7D7D7D7D7D7D7D7D7D7D7D7D7D7D7D7D7D7D7D7D7D7D7D7D7D7
310
D7D7D7D7D7D7D7D7D7D7D7D7D7D7D7D7D7D7D7D7D7D7D7D7D7D7D7D7D7D7D7D7D7D7D7D7D7D7D7D7D7D7D7D7D7D7D7D7D7D7D7D7D7D7D7D7D7D7D7D7D7D7D7D7D7D7D7D7D7D7D7D7D7D7D7D7D7D7D7D7D7D7D7D7D7D7D7D7D7D7D7D7D7D7D7D7D7D7D7D7D7D7D7D7D7D7D7D7D7D7D7D7D7D7D7D7D7D7D7D7D7D7D7D7D7D7D7
310
D7D7D7D7D7D7D7D7D7D7D7D7D7D7D7D7D7D7D7D7D7D7D7D7D7D7D7D7D70000D7D7D7D7D7D7D7D7D7D7D7D7D7D7D7D7D7D7D7D7D7D7D7D7D7D7D7D7D7D7D7D7D7D7D7D7D7D7D7D7D7D7D7D7D7D7D7D7D7D7D7D7D7D7D7D7D7D7D7D7D7D7D7D7D7D7D7D7D7D7D7D7D7D7D7D7D7D7D7D7D7D7D7D7D7D7D7D7D7D7D7D7D7D7D7D7
310
D7D7D7D7D7D7D7D7D7D7D7D7D7D7D7D7D7D7D7D7D7D7D7D7D7D7D7D7D7D7D7D7D7D7D7D7D7D7D7D7D7D7D7D7D7D7D7D7D7D7D7D7D7D7D7D7D7D7D7D7D7D7D7D7D7D7D7D7D7D7D7D7D7D7D7D7D7D7D7D7D7D7D7D7D7D7D7D7D7D7D7D7D7D7D7D7D7D7D7D7D7D7D7D7D7D7D7D7D7D7D7D7D7D70000D7D7D7D7D7D7D7D7D7D7D7
310
D7D7D7D7D7D7D7D7D7D7D7D7D7D7D7D7D7D7D7D7D7D7D7D7D7D7D7D7D7D7D7D7D7D7D7D7D7D7D7D7D7D7D7D7D7D7D7D7D7D7D7D7D7D7D7D7D7D7D7D7D7D7D7D7D7D7D7D7D7D7D7D7D7D7D7D7D7D7D7D7D7D7D7D7D7D7D7D7D7D7D7D7D7D7D7D7D7D7D7D7D7D7D7D7D7D7D7D7D7D7D7D7D7D7D7D7D7D7D7D7D7D7D7D7D7D7D7
310
D7D7D7D7D7D7D7D7D7D7D7D7D7D7D7D7D7D7D7D7D7D7D7D7D7D7D7D7D7D7D7D7D7D7D7D7D7D7D7D7D7D7D7D7D7D7D7D7D7D7D7D7D7D7D7D7D7D7D7D7D7D7D7D7D7D7D7D7D7D7D7D70000D7D7D7D7D7D7D7D7D7D7D7D7D7D7D7D7D7D7D7D7D7D7D7D7D7D7D7D7D7D7D7D7D7D7D7D7D7D7D7D7D7D7D7D7D7D7D7D7D7D7D7D7D7
310
D7D7D7D7D7D7D7D7D7D7D7D7D7D7D7D7D7D7D7D7D7D7D7D7D7D7D7D7D7D7D7D7D7D7D7D7D7D7D7D7D7D7D7D7D7D7D7D7D7D7D7D7D7D7D7D7D7D7D7D7D7D7D7D7D7D7D7D7D7D7D7D7D7D7D7D7D7D7D7D7D7D7D7D7D7D7D7D7D7D7D7D7D7D7D7D7D7D7D7D7D7D7D7D7D7D7D7D7D7D7D7D7D7D7D7D7D7D7D7D7D7D7D7D7D7D7D7
310
D7D7D7D7D7D7D7D7D7D7D7D7D7D7D7D7D7D7D7D7D7D7D7D7D7D7D7D7D7D70000D7D7D7D7D7D7D7D7D7D7D7D7D7D7D7D7D7D7D7D7D7D7D7D7D7D7D7D7D7D7D7D7D7D7D7D7D7D7D7D7D7D7D7D7D7D7D7D7D7D7D7D7D7D7D7D7D7D7D7D7D7D7D7D7D7D7D7D7D7D7D7D7D7D7D7D7D7D7D7D7D7D7D7D7D7D7D7D7D7D7D7D7D7D7D7
310
D7D7D7D7D7D7D7D7D7D7D7D7D7D7D7D7D7D7D7D7D7D7D7D7D7D7D7D7D7D7D7D7D7D7D7D7D7D7D7D7D7D7D7D7D7D7D7D7D7D7D7D7D7D7D7D7D7D7D7D7D7D7D7D7D7D7D7D7D7D7D7D7D7D7D7D7D7D7D7D7D7D7D7D7D7D7D7D7D7D7D7D7D7D7D7D7D7D7D7D7D7D7D7D7D7D7D7D7D7D7D7D7D7D7D70000D7D7D7D7D7D7D7D7D7D7
310
D7D7D7D7D7D7D7D7D7D7D7D7D7D7D7D7D7D7D7D7D7D7D7D7D7D7D7D7D7D7D7D7D7D7D7D7D7D7D7D7D7D7D7D7D7D7D7D7D7D7D7D7D7D7D7D7D7D7D7D7D7D7D7D7D7D7D7D7D7D7D7D7D7D7D7D7D7D7D7D7D7D7D7D7D7D7D7D7D7D7D7D7D7D7D7D7D7D7D7D7D7D7D7D7D7D7D7D7D7D7D7D7D7D7D7D7D7D7D7D7D7D7D7D7D7D7D7
310
D7D7D7D7D7D7D7D7D7D7D7D7D7D7D7D7D7D7D7D7D7D7D7D7D7D7D7D7D7D7D7D7D7D7D7D7D7D7D7D7D7D7D7D7D7D7D7D7D7D7D7D7D7D7D7D7D7D7D7D7D7D7D7D7D7D7D7D7D7D7D7D7D70000D7D7D7D7D7D7D7D7D7D7D7D7D7D7D7D7D7D7D7D7D7D7D7D7D7D7D7D7D7D7D7D7D7D7D7D7D7D7D7D7D7D7D7D7D7D7D7D7D7D7D7D7
310
D7D7D7D7D7D7D7D7D7D7D7D7D7D7D7D7D7D7D7D7D7D7D7D7D7D7D7D7D7D7D7D7D7D7D7D7D7D7D7D7D7D7D7D7D7D7D7D7D7D7D7D7D7D7D7D7D7D7D7D7D7D7D7D7D7D7D7D7D7D7D7D7D7D7D7D7D7D7D7D7D7D7D7D7D7D7D7D7D7D7D7D7D7D7D7D7D7D7D7D7D7D7D7D7D7D7D7D7D7D7D7D7D7D7D7D7D7D7D7D7D7D7D7D7D7D7D7
310
D7D7D7D7D7D7D7D7D7D7D7D7D7D7D7D7D7D7D7D7D7D7D7D7D7D7D7D7D7D7D700000000000000000000000000000000
  0
ENDSEC
  0
EOF
