  0
SECTION
  2
HEADER
  9
$ACADVER
  1
AC1014
  9
$ACADMAINTVER
 70
     9
  9
$DWGCODEPAGE
  3
ANSI_1252
  9
$INSBASE
 10
0.0
 20
0.0
 30
0.0
  9
$EXTMIN
 10
-7.260660000000001
 20
-7.254899999999999
 30
0.0
  9
$EXTMAX
 10
152.47386
 20
152.3529
 30
0.0
  9
$LIMMIN
 10
-7.260660000000001
 20
-7.254899999999999
  9
$LIMMAX
 10
152.47386
 20
152.3529
  9
$ORTHOMODE
 70
     0
  9
$REGENMODE
 70
     1
  9
$FILLMODE
 70
     1
  9
$QTEXTMODE
 70
     0
  9
$MIRRTEXT
 70
     1
  9
$DRAGMODE
 70
     2
  9
$LTSCALE
 40
1.0
  9
$OSMODE
 70
    37
  9
$ATTMODE
 70
     1
  9
$TEXTSIZE
 40
0.2
  9
$TRACEWID
 40
0.05
  9
$TEXTSTYLE
  7
STANDARD
  9
$CLAYER
  8
0
  9
$CELTYPE
  6
BYLAYER
  9
$CECOLOR
 62
   256
  9
$CELTSCALE
 40
1.0
  9
$DELOBJ
 70
     1
  9
$DISPSILH
 70
     0
  9
$DIMSCALE
 40
1.0
  9
$DIMASZ
 40
0.18
  9
$DIMEXO
 40
0.0625
  9
$DIMDLI
 40
0.38
  9
$DIMRND
 40
0.0
  9
$DIMDLE
 40
0.0
  9
$DIMEXE
 40
0.18
  9
$DIMTP
 40
0.0
  9
$DIMTM
 40
0.0
  9
$DIMTXT
 40
0.18
  9
$DIMCEN
 40
0.09
  9
$DIMTSZ
 40
0.0
  9
$DIMTOL
 70
     0
  9
$DIMLIM
 70
     0
  9
$DIMTIH
 70
     1
  9
$DIMTOH
 70
     1
  9
$DIMSE1
 70
     0
  9
$DIMSE2
 70
     0
  9
$DIMTAD
 70
     0
  9
$DIMZIN
 70
     0
  9
$DIMBLK
  1

  9
$DIMASO
 70
     1
  9
$DIMSHO
 70
     1
  9
$DIMPOST
  1

  9
$DIMAPOST
  1

  9
$DIMALT
 70
     0
  9
$DIMALTD
 70
     2
  9
$DIMALTF
 40
25.4
  9
$DIMLFAC
 40
1.0
  9
$DIMTOFL
 70
     0
  9
$DIMTVP
 40
0.0
  9
$DIMTIX
 70
     0
  9
$DIMSOXD
 70
     0
  9
$DIMSAH
 70
     0
  9
$DIMBLK1
  1

  9
$DIMBLK2
  1

  9
$DIMSTYLE
  2
STANDARD
  9
$DIMCLRD
 70
     0
  9
$DIMCLRE
 70
     0
  9
$DIMCLRT
 70
     0
  9
$DIMTFAC
 40
1.0
  9
$DIMGAP
 40
0.09
  9
$DIMJUST
 70
     0
  9
$DIMSD1
 70
     0
  9
$DIMSD2
 70
     0
  9
$DIMTOLJ
 70
     1
  9
$DIMTZIN
 70
     0
  9
$DIMALTZ
 70
     0
  9
$DIMALTTZ
 70
     0
  9
$DIMFIT
 70
     3
  9
$DIMUPT
 70
     0
  9
$DIMUNIT
 70
     2
  9
$DIMDEC
 70
     4
  9
$DIMTDEC
 70
     4
  9
$DIMALTU
 70
     2
  9
$DIMALTTD
 70
     2
  9
$DIMTXSTY
  7
STANDARD
  9
$DIMAUNIT
 70
     0
  9
$LUNITS
 70
     2
  9
$LUPREC
 70
     4
  9
$SKETCHINC
 40
0.1
  9
$FILLETRAD
 40
0.5
  9
$AUNITS
 70
     0
  9
$AUPREC
 70
     0
  9
$MENU
  1
.
  9
$ELEVATION
 40
0.0
  9
$PELEVATION
 40
0.0
  9
$THICKNESS
 40
0.0
  9
$LIMCHECK
 70
     0
  9
$CHAMFERA
 40
0.5
  9
$CHAMFERB
 40
0.5
  9
$CHAMFERC
 40
1.0
  9
$CHAMFERD
 40
0.0
  9
$SKPOLY
 70
     0
  9
$TDCREATE
 40
2456098.43328257
  9
$TDUPDATE
 40
2456098.433282581
  9
$TDINDWG
 40
0.0000000116
  9
$TDUSRTIMER
 40
0.0000000116
  9
$USRTIMER
 70
     1
  9
$ANGBASE
 50
0.0
  9
$ANGDIR
 70
     0
  9
$PDMODE
 70
     0
  9
$PDSIZE
 40
0.0
  9
$PLINEWID
 40
0.0
  9
$COORDS
 70
     1
  9
$SPLFRAME
 70
     0
  9
$SPLINETYPE
 70
     6
  9
$SPLINESEGS
 70
     8
  9
$ATTDIA
 70
     0
  9
$ATTREQ
 70
     1
  9
$HANDLING
 70
     1
  9
$HANDSEED
  5
1FA
  9
$SURFTAB1
 70
     6
  9
$SURFTAB2
 70
     6
  9
$SURFTYPE
 70
     6
  9
$SURFU
 70
     6
  9
$SURFV
 70
     6
  9
$UCSNAME
  2

  9
$UCSORG
 10
0.0
 20
0.0
 30
0.0
  9
$UCSXDIR
 10
1.0
 20
0.0
 30
0.0
  9
$UCSYDIR
 10
0.0
 20
1.0
 30
0.0
  9
$PUCSNAME
  2

  9
$PUCSORG
 10
0.0
 20
0.0
 30
0.0
  9
$PUCSXDIR
 10
1.0
 20
0.0
 30
0.0
  9
$PUCSYDIR
 10
0.0
 20
1.0
 30
0.0
  9
$USERI1
 70
     0
  9
$USERI2
 70
     0
  9
$USERI3
 70
     0
  9
$USERI4
 70
     0
  9
$USERI5
 70
     0
  9
$USERR1
 40
0.0
  9
$USERR2
 40
0.0
  9
$USERR3
 40
0.0
  9
$USERR4
 40
0.0
  9
$USERR5
 40
0.0
  9
$WORLDVIEW
 70
     1
  9
$SHADEDGE
 70
     3
  9
$SHADEDIF
 70
    70
  9
$TILEMODE
 70
     1
  9
$MAXACTVP
 70
    64
  9
$PINSBASE
 10
0.0
 20
0.0
 30
0.0
  9
$PLIMCHECK
 70
     0
  9
$PEXTMIN
 10
1.000000000000000E+20
 20
1.000000000000000E+20
 30
1.000000000000000E+20
  9
$PEXTMAX
 10
-1.000000000000000E+20
 20
-1.000000000000000E+20
 30
-1.000000000000000E+20
  9
$PLIMMIN
 10
0.0
 20
0.0
  9
$PLIMMAX
 10
12.0
 20
9.0
  9
$UNITMODE
 70
     0
  9
$VISRETAIN
 70
     1
  9
$PLINEGEN
 70
     0
  9
$PSLTSCALE
 70
     1
  9
$TREEDEPTH
 70
  3020
  9
$PICKSTYLE
 70
     1
  9
$CMLSTYLE
  2
STANDARD
  9
$CMLJUST
 70
     0
  9
$CMLSCALE
 40
1.0
  9
$PROXYGRAPHICS
 70
     1
  9
$MEASUREMENT
 70
     0
  0
ENDSEC
  0
SECTION
  2
CLASSES
  0
CLASS
  1
ACDBDICTIONARYWDFLT
  2
AcDbDictionaryWithDefault
  3
ObjectDBX Classes
 90
        0
280
     0
281
     0
  0
CLASS
  1
VISUALSTYLE
  2
AcDbVisualStyle
  3
ObjectDBX Classes
 90
     4095
280
     0
281
     0
  0
CLASS
  1
MATERIAL
  2
AcDbMaterial
  3
ObjectDBX Classes
 90
     1153
280
     0
281
     0
  0
CLASS
  1
DICTIONARYVAR
  2
AcDbDictionaryVar
  3
ObjectDBX Classes
 90
        0
280
     0
281
     0
  0
CLASS
  1
XRECORD
  2
AcDbXrecord
  3
AutoCAD 2000
 90
        0
280
     0
281
     0
  0
CLASS
  1
LWPOLYLINE
  2
AcDbPolyline
  3
AutoCAD 2000
 90
        0
280
     0
281
     1
  0
CLASS
  1
HATCH
  2
AcDbHatch
  3
AutoCAD 2000
 90
        0
280
     0
281
     1
  0
CLASS
  1
ACDBPLACEHOLDER
  2
AcDbPlaceHolder
  3
ObjectDBX Classes
 90
        0
280
     0
281
     0
  0
CLASS
  1
LAYOUT
  2
AcDbLayout
  3
ObjectDBX Classes
 90
        0
280
     0
281
     0
  0
ENDSEC
  0
SECTION
  2
TABLES
  0
TABLE
  2
VPORT
  5
8
330
0
100
AcDbSymbolTable
 70
     1
  0
VPORT
  5
29
330
8
100
AcDbSymbolTableRecord
100
AcDbViewportTableRecord
  2
*ACTIVE
 70
     0
 10
0.0
 20
0.0
 11
1.0
 21
1.0
 12
-7.260660000000001
 22
72.54899999999999
 13
0.0
 23
0.0
 14
0.5
 24
0.5
 15
0.5
 25
0.5
 16
0.0
 26
0.0
 36
1.0
 17
0.0
 27
0.0
 37
0.0
 40
159.6078
 41
0.1112524372596638
 42
50.0
 43
0.0
 44
0.0
 50
0.0
 51
0.0
 71
     0
 72
   100
 73
     1
 74
     3
 75
     0
 76
     0
 77
     0
 78
     0
  0
ENDTAB
  0
TABLE
  2
LTYPE
  5
5
330
0
100
AcDbSymbolTable
 70
    11
  0
LTYPE
  5
14
330
5
100
AcDbSymbolTableRecord
100
AcDbLinetypeTableRecord
  2
BYBLOCK
 70
     0
  3

 72
    65
 73
     0
 40
0.0
  0
LTYPE
  5
15
330
5
100
AcDbSymbolTableRecord
100
AcDbLinetypeTableRecord
  2
BYLAYER
 70
     0
  3

 72
    65
 73
     0
 40
0.0
  0
LTYPE
  5
16
330
5
100
AcDbSymbolTableRecord
100
AcDbLinetypeTableRecord
  2
CONTINUOUS
 70
     0
  3
Solid line
 72
    65
 73
     0
 40
0.0
  0
LTYPE
  5
53
330
5
100
AcDbSymbolTableRecord
100
AcDbLinetypeTableRecord
  2
HIDDEN
 70
     0
  3
Hidden __ __ __ __ __ __ __ __ __ __ __ __ __ _
 72
    65
 73
     2
 40
0.375
 49
0.25
 74
     0
 49
-0.125
 74
     0
  0
LTYPE
  5
54
330
5
100
AcDbSymbolTableRecord
100
AcDbLinetypeTableRecord
  2
DIVIDE
 70
     0
  3
Divide ____ . . ____ . . ____ . . ____ . . ____
 72
    65
 73
     6
 40
1.25
 49
0.5
 74
     0
 49
-0.25
 74
     0
 49
0.0
 74
     0
 49
-0.25
 74
     0
 49
0.0
 74
     0
 49
-0.25
 74
     0
  0
LTYPE
  5
56
330
5
100
AcDbSymbolTableRecord
100
AcDbLinetypeTableRecord
  2
ZIGZAG
 70
     0
  3
/\/\/\/\/\/\/\/\
 72
    65
 73
     4
 40
20.32254
 49
0.00254
 74
     0
 49
-5.08
 74
     4
 75
   131
340
55
 46
5.08
 50
0.0
 44
-5.08
 45
0.0
 49
-10.16
 74
     4
 75
   131
340
55
 46
5.08
 50
180.0
 44
5.08
 45
0.0
 49
-5.08
 74
     0
  0
LTYPE
  5
57
330
5
100
AcDbSymbolTableRecord
100
AcDbLinetypeTableRecord
  2
BATTING
 70
     0
  3
 SSSSSSSSSSSSSSSSSSSSSS
 72
    65
 73
     4
 40
10.16254
 49
0.00254
 74
     0
 49
-2.54
 74
     4
 75
   134
340
55
 46
2.54
 50
0.0
 44
-2.54
 45
0.0
 49
-5.08
 74
     4
 75
   134
340
55
 46
2.54
 50
180.0
 44
2.54
 45
0.0
 49
-2.54
 74
     0
  0
LTYPE
  5
58
330
5
100
AcDbSymbolTableRecord
100
AcDbLinetypeTableRecord
  2
DASHDOT
 70
     0
  3
DASHDOT
 72
    65
 73
     4
 40
1.0
 49
0.5
 74
     0
 49
-0.25
 74
     0
 49
0.0001
 74
     0
 49
-0.25
 74
     0
  0
LTYPE
  5
59
330
5
100
AcDbSymbolTableRecord
100
AcDbLinetypeTableRecord
  2
DASHDOTX2
 70
     0
  3
DASHDOTX2
 72
    65
 73
     4
 40
1.0
 49
1.0
 74
     0
 49
-0.5
 74
     0
 49
0.0002
 74
     0
 49
-0.5
 74
     0
  0
LTYPE
  5
5A
330
5
100
AcDbSymbolTableRecord
100
AcDbLinetypeTableRecord
  2
DASHED
 70
     0
  3
DASHED
 72
    65
 73
     2
 40
0.75
 49
0.5
 74
     0
 49
-0.25
 74
     0
  0
LTYPE
  5
5B
330
5
100
AcDbSymbolTableRecord
100
AcDbLinetypeTableRecord
  2
TRACKS
 70
     0
  3
TRACKS
 72
    65
 73
     2
 40
7.62
 49
3.81
 74
     0
 49
3.81
 74
     0
  0
LTYPE
  5
5C
330
5
100
AcDbSymbolTableRecord
100
AcDbLinetypeTableRecord
  2
DOT
 70
     0
  3
DOT
 72
    65
 73
     2
 40
0.25
 49
0.0001
 74
     0
 49
-0.25
 74
     0
  0
LTYPE
  5
5D
330
5
100
AcDbSymbolTableRecord
100
AcDbLinetypeTableRecord
  2
PHANTOM
 70
     0
  3
PHANTOM
 72
    65
 73
     6
 40
2.5
 49
1.25
 74
     0
 49
-0.25
 74
     0
 49
0.25
 74
     0
 49
-0.25
 74
     0
 49
0.25
 74
     0
 49
-0.25
 74
     0
  0
ENDTAB
  0
TABLE
  2
LAYER
  5
2
330
0
100
AcDbSymbolTable
 70
     2
  0
LAYER
  5
10
330
2
100
AcDbSymbolTableRecord
100
AcDbLayerTableRecord
  2
0
 70
     0
 62
     1
  6
CONTINUOUS
  0
LAYER
  5
5E
330
2
100
AcDbSymbolTableRecord
100
AcDbLayerTableRecord
  2
TEXT
 70
     0
 62
     7
  6
CONTINUOUS
  0
ENDTAB
  0
TABLE
  2
STYLE
  5
3
330
0
100
AcDbSymbolTable
 70
    12
  0
STYLE
  5
11
330
3
100
AcDbSymbolTableRecord
100
AcDbTextStyleTableRecord
  2
STANDARD
 70
     0
 40
0.0
 41
1.0
 50
0.0
 71
     0
 42
0.2
  3
txt
  4

  0
STYLE
  5
40
330
3
100
AcDbSymbolTableRecord
100
AcDbTextStyleTableRecord
  2
LPDETAILTEXT
 70
     0
 40
0.0
 41
1.0
 50
0.0
 71
     0
 42
0.0
  3
COMIC.TTF
  4

1001
ACAD
1000
Comic Sans MS
1071
       34
  0
STYLE
  5
41
330
3
100
AcDbSymbolTableRecord
100
AcDbTextStyleTableRecord
  2
ARIAL
 70
     0
 40
0.0
 41
1.0
 50
0.0
 71
     0
 42
0.2
  3
ARIAL.TTF
  4

1001
ACAD
1000
Arial
1071
       34
  0
STYLE
  5
42
330
3
100
AcDbSymbolTableRecord
100
AcDbTextStyleTableRecord
  2
COURIER_NEW
 70
     0
 40
0.0
 41
1.0
 50
0.0
 71
     0
 42
0.2
  3
COUR.TTF
  4

1001
ACAD
1000
Courier New
1071
       34
  0
STYLE
  5
43
330
3
100
AcDbSymbolTableRecord
100
AcDbTextStyleTableRecord
  2
ARIAL_NARROW
 70
     0
 40
0.0
 41
1.0
 50
0.0
 71
     0
 42
0.2
  3
ARIALN.TTF
  4

1001
ACAD
1000
Arial Narrow
1071
       34
  0
STYLE
  5
44
330
3
100
AcDbSymbolTableRecord
100
AcDbTextStyleTableRecord
  2
TIMES_NEW_ROMAN
 70
     0
 40
0.0
 41
1.0
 50
0.0
 71
     0
 42
0.2
  3
TIMES.TTF
  4

1001
ACAD
1000
Times New Roman
1071
       34
  0
STYLE
  5
45
330
3
100
AcDbSymbolTableRecord
100
AcDbTextStyleTableRecord
  2
IMPACT
 70
     0
 40
0.0
 41
1.0
 50
0.0
 71
     0
 42
0.2
  3
IMPACT.TTF
  4

1001
ACAD
1000
Impact
1071
       34
  0
STYLE
  5
46
330
3
100
AcDbSymbolTableRecord
100
AcDbTextStyleTableRecord
  2
ARIAL_BLACK
 70
     0
 40
0.0
 41
1.0
 50
0.0
 71
     0
 42
0.2
  3
ARIBLK.TTF
  4

1001
ACAD
1000
Arial Black
1071
       34
  0
STYLE
  5
47
330
3
100
AcDbSymbolTableRecord
100
AcDbTextStyleTableRecord
  2
SYMBOL
 70
     0
 40
0.0
 41
1.0
 50
0.0
 71
     0
 42
0.2
  3
SYMBOL.TTF
  4

1001
ACAD
1000
Symbol
1071
       34
  0
STYLE
  5
48
330
3
100
AcDbSymbolTableRecord
100
AcDbTextStyleTableRecord
  2
COMIC_SANS_MS
 70
     0
 40
0.0
 41
1.0
 50
0.0
 71
     0
 42
0.2
  3
COMIC.TTF
  4

1001
ACAD
1000
Comic Sans MS
1071
       34
  0
STYLE
  5
49
330
3
100
AcDbSymbolTableRecord
100
AcDbTextStyleTableRecord
  2
TREBUCHET_MS
 70
     0
 40
0.0
 41
1.0
 50
0.0
 71
     0
 42
0.2
  3
TREBUC.TTF
  4

1001
ACAD
1000
Trebuchet MS
1071
       34
  0
STYLE
  5
55
330
3
100
AcDbSymbolTableRecord
100
AcDbTextStyleTableRecord
  2

 70
     1
 40
0.0
 41
1.0
 50
0.0
 71
     0
 42
22.45
  3
ltypeshp.shx
  4

  0
ENDTAB
  0
TABLE
  2
VIEW
  5
6
330
0
100
AcDbSymbolTable
 70
     0
  0
ENDTAB
  0
TABLE
  2
UCS
  5
7
330
0
100
AcDbSymbolTable
 70
     0
  0
ENDTAB
  0
TABLE
  2
APPID
  5
9
330
0
100
AcDbSymbolTable
 70
     2
  0
APPID
  5
12
330
9
100
AcDbSymbolTableRecord
100
AcDbRegAppTableRecord
  2
ACAD
 70
     0
  0
APPID
  5
3F
330
9
100
AcDbSymbolTableRecord
100
AcDbRegAppTableRecord
  2
VERTEX
 70
     0
  0
ENDTAB
  0
TABLE
  2
DIMSTYLE
  5
A
330
0
100
AcDbSymbolTable
 70
     3
  0
DIMSTYLE
105
27
330
A
100
AcDbSymbolTableRecord
100
AcDbDimStyleTableRecord
  2
STANDARD
 70
     0
  3

  4

  5

  6

  7

 40
1.0
 41
0.18
 42
0.0625
 43
0.38
 44
0.18
 45
0.0
 46
0.0
 47
0.0
 48
0.0
140
0.18
141
0.09
142
0.0
143
25.4
144
1.0
145
0.0
146
1.0
147
0.09
 71
     0
 72
     0
 73
     1
 74
     1
 75
     0
 76
     0
 77
     0
 78
     0
170
     0
171
     2
172
     0
173
     0
174
     0
175
     0
176
     0
177
     0
178
     0
270
     2
271
     4
272
     4
273
     2
274
     2
340
11
275
     0
280
     0
281
     0
282
     0
283
     1
284
     0
285
     0
286
     0
287
     3
288
     0
  0
DIMSTYLE
105
4A
330
A
100
AcDbSymbolTableRecord
100
AcDbDimStyleTableRecord
  2
VERTEX_STYLE
 70
     0
  3

  4

  5

  6
CLOSED
  7
CLOSED
 40
1.0
 41
0.078740157480315
 42
0.0625
 43
0.38
 44
0.0393700787401575
 45
0.0
 46
0.0393700787401575
 47
0.0
 48
0.0
140
0.18
141
0.09
142
0.0
143
25.4
144
25.4
145
0.0
146
0.65
147
0.0669291338582677
 71
     0
 72
     0
 73
     0
 74
     0
 75
     0
 76
     0
 77
     1
 78
     8
170
     0
171
     2
172
     1
173
     1
174
     0
175
     0
176
   256
177
   256
178
     0
179
     1
270
     2
271
     1
272
     4
273
     2
274
     2
340
40
275
     0
280
     0
281
     0
282
     0
283
     1
284
     0
285
     0
286
     0
287
     3
288
     0
  0
DIMSTYLE
105
52
330
A
100
AcDbSymbolTableRecord
100
AcDbDimStyleTableRecord
  2
VERTEX_STYLE__INCHES_
 70
     0
  3

  4

  5

  6
CLOSED
  7
CLOSED
 40
1.0
 41
0.078740157480315
 42
0.0625
 43
0.38
 44
0.0393700787401575
 45
0.0
 46
0.0393700787401575
 47
0.0
 48
0.0
140
0.18
141
0.09
142
0.0
143
25.4
144
1.0
145
0.0
146
0.65
147
0.0669291338582677
 71
     0
 72
     0
 73
     0
 74
     0
 75
     0
 76
     0
 77
     1
 78
     0
170
     0
171
     2
172
     1
173
     1
174
     0
175
     0
176
   256
177
   256
178
     0
179
     1
270
     4
271
     4
272
     4
273
     2
274
     2
340
40
275
     0
280
     0
281
     0
282
     0
283
     1
284
     0
285
     0
286
     0
287
     3
288
     0
  0
ENDTAB
  0
TABLE
  2
BLOCK_RECORD
  5
1
330
0
100
AcDbSymbolTable
 70
     4
  0
BLOCK_RECORD
  5
1F
330
1
100
AcDbSymbolTableRecord
100
AcDbBlockTableRecord
  2
*MODEL_SPACE
  0
BLOCK_RECORD
  5
1B
330
1
100
AcDbSymbolTableRecord
100
AcDbBlockTableRecord
  2
*PAPER_SPACE
  0
BLOCK_RECORD
  5
4B
330
1
100
AcDbSymbolTableRecord
100
AcDbBlockTableRecord
  2
_CLOSED
  0
BLOCK_RECORD
  5
5F
330
1
100
AcDbSymbolTableRecord
100
AcDbBlockTableRecord
  2
GROUP_0_EA4055D0-16FF-4E6C
  0
BLOCK_RECORD
  5
62
330
1
100
AcDbSymbolTableRecord
100
AcDbBlockTableRecord
  2
HATCH_1_8143B485-8A0F-4147
  0
ENDTAB
  0
ENDSEC
  0
SECTION
  2
BLOCKS
  0
BLOCK
  5
20
330
1F
100
AcDbEntity
  8
0
100
AcDbBlockBegin
  2
*MODEL_SPACE
 70
     0
 10
0.0
 20
0.0
 30
0.0
  3
*MODEL_SPACE
  1

  0
ENDBLK
  5
21
330
1F
100
AcDbEntity
  8
0
100
AcDbBlockEnd
  0
BLOCK
  5
1C
330
1B
100
AcDbEntity
 67
     1
  8
0
100
AcDbBlockBegin
  2
*PAPER_SPACE
 70
     0
 10
0.0
 20
0.0
 30
0.0
  3
*PAPER_SPACE
  1

  0
ENDBLK
  5
1D
330
1B
100
AcDbEntity
 67
     1
  8
0
100
AcDbBlockEnd
  0
BLOCK
  5
4C
330
4B
100
AcDbEntity
  8
0
100
AcDbBlockBegin
  2
_CLOSED
 70
     0
 10
0.0
 20
0.0
 30
0.0
  3
_CLOSED
  1

  0
LINE
  5
4E
330
4B
100
AcDbEntity
  8
0
  6
BYBLOCK
 62
     0
100
AcDbLine
 10
-1.0
 20
0.166667
 30
0.0
 11
0.0
 21
0.0
 31
0.0
  0
LINE
  5
4F
330
4B
100
AcDbEntity
  8
0
  6
BYBLOCK
 62
     0
100
AcDbLine
 10
0.0
 20
0.0
 30
0.0
 11
-1.0
 21
-0.166667
 31
0.0
  0
LINE
  5
50
330
4B
100
AcDbEntity
  8
0
  6
BYBLOCK
 62
     0
100
AcDbLine
 10
-1.0
 20
0.166667
 30
0.0
 11
-1.0
 21
-0.166667
 31
0.0
  0
LINE
  5
51
330
4B
100
AcDbEntity
  8
0
  6
BYBLOCK
 62
     0
100
AcDbLine
 10
0.0
 20
0.0
 30
0.0
 11
-1.0
 21
0.0
 31
0.0
  0
ENDBLK
  5
4D
330
4B
100
AcDbEntity
  8
0
100
AcDbBlockEnd
  0
BLOCK
  5
60
330
5F
100
AcDbEntity
  8
0
100
AcDbBlockBegin
  2
GROUP_0_EA4055D0-16FF-4E6C
 70
     0
 10
0.0
 20
0.0
 30
0.0
  3
GROUP_0_EA4055D0-16FF-4E6C
  1

  0
CIRCLE
  5
1C6
330
5F
100
AcDbEntity
  8
TEXT
  6
CONTINUOUS
 62
     1
 48
12.0
100
AcDbCircle
 10
72.77806216760473
 20
72.42039845836898
 30
0.0
 40
57.34440000000001
  0
ARC
  5
1C7
330
5F
100
AcDbEntity
  8
TEXT
  6
CONTINUOUS
 62
     1
 48
12.0
100
AcDbCircle
 10
71.17675055704224
 20
74.02449950655813
 30
0.0
 40
46.8216
100
AcDbArc
 50
231.7806
 51
38.17420000000004
  0
LINE
  5
1C8
330
5F
100
AcDbEntity
  8
TEXT
  6
CONTINUOUS
 62
     1
 48
12.0
100
AcDbLine
 10
101.7460621676047
 20
109.206398458369
 30
0.0
 11
35.97046216760472
 21
43.48239845836898
 31
0.0
  0
LWPOLYLINE
  5
1C9
330
5F
100
AcDbEntity
  8
TEXT
  6
CONTINUOUS
 62
     1
 48
12.0
100
AcDbPolyline
 90
        3
 70
     0
 43
0.0
 10
107.9848621676047
 20
102.962798458369
 10
42.20957376326481
 20
37.23910980958682
 10
42.20926216760472
 20
37.23879845836898
  0
ARC
  5
1CA
330
5F
100
AcDbEntity
  8
TEXT
  6
CONTINUOUS
 62
     1
 48
12.0
100
AcDbCircle
 10
72.77806216760473
 20
72.42039845836898
 30
0.0
 40
46.8216
100
AcDbArc
 50
51.7806
 51
218.1742
  0
INSERT
  5
1CD
330
5F
100
AcDbEntity
  8
0
  6
BYBLOCK
100
AcDbBlockReference
  2
HATCH_1_8143B485-8A0F-4147
 10
0.0
 20
0.0
 30
0.0
  0
ENDBLK
  5
61
330
5F
100
AcDbEntity
  8
0
100
AcDbBlockEnd
  0
BLOCK
  5
63
330
62
100
AcDbEntity
  8
0
100
AcDbBlockBegin
  2
HATCH_1_8143B485-8A0F-4147
 70
     0
 10
0.0
 20
0.0
 30
0.0
  3
HATCH_1_8143B485-8A0F-4147
  1

  0
LINE
  5
65
330
62
100
AcDbEntity
  8
0
 62
     0
100
AcDbLine
 10
59.91159274541823
 20
17.04819799002673
 30
0.0
 11
59.71162320638694
 21
17.04470750873927
 31
0.0
  0
LINE
  5
66
330
62
100
AcDbEntity
  8
0
 62
     0
100
AcDbLine
 10
47.84361077779239
 20
20.83815989340489
 30
0.0
 11
47.72943627556713
 21
20.8361669700554
 31
0.0
  0
LINE
  5
67
330
62
100
AcDbEntity
  8
0
 62
     0
100
AcDbLine
 10
43.77441037141769
 20
24.76774104828132
 30
0.0
 11
43.57444083238641
 21
24.76425056699386
 31
0.0
  0
LINE
  5
68
330
62
100
AcDbEntity
  8
0
 62
     0
100
AcDbLine
 10
39.70520996504299
 20
28.69732220315775
 30
0.0
 11
39.50524042601171
 21
28.69383172187029
 31
0.0
  0
LINE
  5
69
330
62
100
AcDbEntity
  8
0
 62
     0
100
AcDbLine
 10
31.63661877804273
 20
32.55709373228505
 30
0.0
 11
31.55774894853583
 21
32.55571705429013
 31
0.0
  0
LINE
  5
6A
330
62
100
AcDbEntity
  8
0
 62
     0
100
AcDbLine
 10
31.56680915229359
 20
36.55648451291061
 30
0.0
 11
31.36683961326231
 21
36.55299403162315
 31
0.0
  0
LINE
  5
6B
330
62
100
AcDbEntity
  8
0
 62
     0
100
AcDbLine
 10
27.49760874591889
 20
40.48606566778704
 30
0.0
 11
27.29763920688762
 21
40.48257518649958
 31
0.0
  0
LINE
  5
6C
330
62
100
AcDbEntity
  8
0
 62
     0
100
AcDbLine
 10
23.42840833954419
 20
44.41564682266347
 30
0.0
 11
23.22843880051292
 21
44.41215634137601
 31
0.0
  0
LINE
  5
6D
330
62
100
AcDbEntity
  8
0
 62
     0
100
AcDbLine
 10
23.35859871379506
 20
48.41503760328904
 30
0.0
 11
23.15862917476379
 21
48.41154712200158
 31
0.0
  0
LINE
  5
6E
330
62
100
AcDbEntity
  8
0
 62
     0
100
AcDbLine
 10
19.28939830742036
 20
52.34461875816547
 30
0.0
 11
19.08942876838908
 21
52.34112827687801
 31
0.0
  0
LINE
  5
6F
330
62
100
AcDbEntity
  8
0
 62
     0
100
AcDbLine
 10
19.21958868167123
 20
56.34400953879103
 30
0.0
 11
19.01961914263995
 21
56.34051905750358
 31
0.0
  0
LINE
  5
70
330
62
100
AcDbEntity
  8
0
 62
     0
100
AcDbLine
 10
19.14977905592209
 20
60.3434003194166
 30
0.0
 11
18.94980951689081
 21
60.33990983812914
 31
0.0
  0
LINE
  5
71
330
62
100
AcDbEntity
  8
0
 62
     0
100
AcDbLine
 10
19.07996943017296
 20
64.34279110004216
 30
0.0
 11
18.87999989114168
 21
64.3393006187547
 31
0.0
  0
LINE
  5
72
330
62
100
AcDbEntity
  8
0
 62
     0
100
AcDbLine
 10
19.01015980442383
 20
68.34218188066771
 30
0.0
 11
18.81019026539255
 21
68.33869139938025
 31
0.0
  0
LINE
  5
73
330
62
100
AcDbEntity
  8
0
 62
     0
100
AcDbLine
 10
65.9557047856936
 20
129.1707590990408
 30
0.0
 11
65.75573524666231
 21
129.1672686177533
 31
0.0
  0
LINE
  5
74
330
62
100
AcDbEntity
  8
0
 62
     0
100
AcDbLine
 10
50.02795128894047
 20
124.8921298154187
 30
0.0
 11
49.82798174990919
 21
124.8886393341313
 31
0.0
  0
LINE
  5
75
330
62
100
AcDbEntity
  8
0
 62
     0
100
AcDbLine
 10
42.09897935343847
 20
120.7531197832949
 30
0.0
 11
41.91467771290722
 21
120.749902786193
 31
0.0
  0
LINE
  5
76
330
62
100
AcDbEntity
  8
0
 62
     0
100
AcDbLine
 10
38.16939819856204
 20
116.6839193769202
 30
0.0
 11
37.96942865953076
 21
116.6804288956327
 31
0.0
  0
LINE
  5
77
330
62
100
AcDbEntity
  8
0
 62
     0
100
AcDbLine
 10
34.23981704368561
 20
112.6147189705455
 30
0.0
 11
34.03984750465433
 21
112.611228489258
 31
0.0
  0
LINE
  5
78
330
62
100
AcDbEntity
  8
0
 62
     0
100
AcDbLine
 10
30.31023588880918
 20
108.5455185641708
 30
0.0
 11
30.1102663497779
 21
108.5420280828833
 31
0.0
  0
LINE
  5
79
330
62
100
AcDbEntity
  8
0
 62
     0
100
AcDbLine
 10
26.38065473393275
 20
104.4763181577961
 30
0.0
 11
26.18068519490147
 21
104.4728276765086
 31
0.0
  0
LINE
  5
7A
330
62
100
AcDbEntity
  8
0
 62
     0
100
AcDbLine
 10
26.45046435968188
 20
100.4769273771705
 30
0.0
 11
26.25049482065061
 21
100.4734368958831
 31
0.0
  0
LINE
  5
7B
330
62
100
AcDbEntity
  8
0
 62
     0
100
AcDbLine
 10
22.52088320480545
 20
96.40772697079582
 30
0.0
 11
22.32091366577417
 21
96.40423648950836
 31
0.0
  0
LINE
  5
7C
330
62
100
AcDbEntity
  8
0
 62
     0
100
AcDbLine
 10
22.59069283055458
 20
92.40833619017025
 30
0.0
 11
22.39072329152331
 21
92.40484570888279
 31
0.0
  0
LINE
  5
7D
330
62
100
AcDbEntity
  8
0
 62
     0
100
AcDbLine
 10
18.66111167567816
 20
88.33913578379554
 30
0.0
 11
18.46114213664688
 21
88.33564530250808
 31
0.0
  0
LINE
  5
7E
330
62
100
AcDbEntity
  8
0
 62
     0
100
AcDbLine
 10
18.73092130142729
 20
84.33974500316998
 30
0.0
 11
18.53095176239601
 21
84.33625452188252
 31
0.0
  0
LINE
  5
7F
330
62
100
AcDbEntity
  8
0
 62
     0
100
AcDbLine
 10
18.80073092717642
 20
80.3403542225444
 30
0.0
 11
18.60076138814514
 21
80.33686374125695
 31
0.0
  0
LINE
  5
80
330
62
100
AcDbEntity
  8
0
 62
     0
100
AcDbLine
 10
18.87054055292556
 20
76.34096344191884
 30
0.0
 11
18.67057101389428
 21
76.33747296063139
 31
0.0
  0
LINE
  5
81
330
62
100
AcDbEntity
  8
0
 62
     0
100
AcDbLine
 10
18.94035017867469
 20
72.34157266129328
 30
0.0
 11
18.74038063964341
 21
72.33808218000583
 31
0.0
  0
LINE
  5
82
330
62
100
AcDbEntity
  8
0
 62
     0
100
AcDbLine
 10
42.16878897918761
 20
116.7537290026693
 30
0.0
 11
41.96881944015633
 21
116.7502385213818
 31
0.0
  0
LINE
  5
83
330
62
100
AcDbEntity
  8
0
 62
     0
100
AcDbLine
 10
38.23920782431117
 20
112.6845285962946
 30
0.0
 11
38.03923828527989
 21
112.6810381150072
 31
0.0
  0
LINE
  5
84
330
62
100
AcDbEntity
  8
0
 62
     0
100
AcDbLine
 10
34.30962666943475
 20
108.6153281899199
 30
0.0
 11
34.10965713040347
 21
108.6118377086325
 31
0.0
  0
LINE
  5
85
330
62
100
AcDbEntity
  8
0
 62
     0
100
AcDbLine
 10
30.38004551455832
 20
104.5461277835452
 30
0.0
 11
30.18007597552704
 21
104.5426373022577
 31
0.0
  0
LINE
  5
86
330
62
100
AcDbEntity
  8
0
 62
     0
100
AcDbLine
 10
30.44985514030745
 20
100.5467370029196
 30
0.0
 11
30.24988560127617
 21
100.5432465216322
 31
0.0
  0
LINE
  5
87
330
62
100
AcDbEntity
  8
0
 62
     0
100
AcDbLine
 10
26.52027398543101
 20
96.47753659654495
 30
0.0
 11
26.32030444639974
 21
96.4740461152575
 31
0.0
  0
LINE
  5
88
330
62
100
AcDbEntity
  8
0
 62
     0
100
AcDbLine
 10
26.59008361118015
 20
92.47814581591938
 30
0.0
 11
26.39011407214887
 21
92.47465533463192
 31
0.0
  0
LINE
  5
89
330
62
100
AcDbEntity
  8
0
 62
     0
100
AcDbLine
 10
22.66050245630372
 20
88.40894540954469
 30
0.0
 11
22.46053291727245
 21
88.40545492825723
 31
0.0
  0
LINE
  5
8A
330
62
100
AcDbEntity
  8
0
 62
     0
100
AcDbLine
 10
22.73031208205285
 20
84.40955462891912
 30
0.0
 11
22.53034254302158
 21
84.40606414763167
 31
0.0
  0
LINE
  5
8B
330
62
100
AcDbEntity
  8
0
 62
     0
100
AcDbLine
 10
22.80012170780199
 20
80.41016384829355
 30
0.0
 11
22.60015216877071
 21
80.40667336700609
 31
0.0
  0
LINE
  5
8C
330
62
100
AcDbEntity
  8
0
 62
     0
100
AcDbLine
 10
22.86993133355112
 20
76.41077306766799
 30
0.0
 11
22.66996179451985
 21
76.40728258638053
 31
0.0
  0
LINE
  5
8D
330
62
100
AcDbEntity
  8
0
 62
     0
100
AcDbLine
 10
22.93974095930026
 20
72.41138228704243
 30
0.0
 11
22.73977142026898
 21
72.40789180575497
 31
0.0
  0
LINE
  5
8E
330
62
100
AcDbEntity
  8
0
 62
     0
100
AcDbLine
 10
23.00955058504939
 20
68.41199150641685
 30
0.0
 11
22.80958104601811
 21
68.4085010251294
 31
0.0
  0
LINE
  5
8F
330
62
100
AcDbEntity
  8
0
 62
     0
100
AcDbLine
 10
23.07936021079852
 20
64.4126007257913
 30
0.0
 11
22.87939067176725
 21
64.40911024450384
 31
0.0
  0
LINE
  5
90
330
62
100
AcDbEntity
  8
0
 62
     0
100
AcDbLine
 10
23.14916983654766
 20
60.41320994516573
 30
0.0
 11
22.94920029751638
 21
60.40971946387827
 31
0.0
  0
LINE
  5
91
330
62
100
AcDbEntity
  8
0
 62
     0
100
AcDbLine
 10
23.21897946229679
 20
56.41381916454016
 30
0.0
 11
23.01900992326551
 21
56.41032868325271
 31
0.0
  0
LINE
  5
92
330
62
100
AcDbEntity
  8
0
 62
     0
100
AcDbLine
 10
23.28878908804592
 20
52.4144283839146
 30
0.0
 11
23.08881954901465
 21
52.41093790262714
 31
0.0
  0
LINE
  5
93
330
62
100
AcDbEntity
  8
0
 62
     0
100
AcDbLine
 10
27.35798949442063
 20
48.48484722903817
 30
0.0
 11
27.15801995538935
 21
48.48135674775072
 31
0.0
  0
LINE
  5
94
330
62
100
AcDbEntity
  8
0
 62
     0
100
AcDbLine
 10
27.42779912016976
 20
44.48545644841261
 30
0.0
 11
27.22782958113848
 21
44.48196596712515
 31
0.0
  0
LINE
  5
95
330
62
100
AcDbEntity
  8
0
 62
     0
100
AcDbLine
 10
34.37943629518388
 20
104.6159374092943
 30
0.0
 11
34.17946675615261
 21
104.6124469280069
 31
0.0
  0
LINE
  5
96
330
62
100
AcDbEntity
  8
0
 62
     0
100
AcDbLine
 10
34.44924592093302
 20
100.6165466286688
 30
0.0
 11
34.24927638190174
 21
100.6130561473813
 31
0.0
  0
LINE
  5
97
330
62
100
AcDbEntity
  8
0
 62
     0
100
AcDbLine
 10
30.51966476605658
 20
96.54734622229408
 30
0.0
 11
30.3196952270253
 21
96.54385574100662
 31
0.0
  0
LINE
  5
98
330
62
100
AcDbEntity
  8
0
 62
     0
100
AcDbLine
 10
30.5036688248382
 20
92.5464576999259
 30
0.0
 11
30.38950485277444
 21
92.54446496038105
 31
0.0
  0
LINE
  5
99
330
62
100
AcDbEntity
  8
0
 62
     0
100
AcDbLine
 10
26.65989323692929
 20
88.47875503529382
 30
0.0
 11
26.45992369789801
 21
88.47526455400636
 31
0.0
  0
LINE
  5
9A
330
62
100
AcDbEntity
  8
0
 62
     0
100
AcDbLine
 10
26.72970286267842
 20
84.47936425466825
 30
0.0
 11
26.52973332364714
 21
84.4758737733808
 31
0.0
  0
LINE
  5
9B
330
62
100
AcDbEntity
  8
0
 62
     0
100
AcDbLine
 10
26.65558114542759
 20
80.47746114310542
 30
0.0
 11
26.59954294939628
 21
80.47648299275522
 31
0.0
  0
LINE
  5
9C
330
62
100
AcDbEntity
  8
0
 62
     0
100
AcDbLine
 10
70.8626207010579
 20
77.24848857665759
 30
0.0
 11
70.66265116202663
 21
77.24499809537014
 31
0.0
  0
LINE
  5
9D
330
62
100
AcDbEntity
  8
0
 62
     0
100
AcDbLine
 10
66.93303954618148
 20
73.1792881702829
 30
0.0
 11
66.73307000715019
 21
73.17579768899544
 31
0.0
  0
LINE
  5
9E
330
62
100
AcDbEntity
  8
0
 62
     0
100
AcDbLine
 10
63.00345839130505
 20
69.11008776390818
 30
0.0
 11
62.80348885227377
 21
69.10659728262073
 31
0.0
  0
LINE
  5
9F
330
62
100
AcDbEntity
  8
0
 62
     0
100
AcDbLine
 10
59.07387723642861
 20
65.0408873575335
 30
0.0
 11
58.87390769739733
 21
65.03739687624605
 31
0.0
  0
LINE
  5
A0
330
62
100
AcDbEntity
  8
0
 62
     0
100
AcDbLine
 10
27.14856061717322
 20
60.48301957091486
 30
0.0
 11
26.94859107814194
 21
60.47952908962741
 31
0.0
  0
LINE
  5
A1
330
62
100
AcDbEntity
  8
0
 62
     0
100
AcDbLine
 10
27.21837024292235
 20
56.4836287902893
 30
0.0
 11
27.01840070389108
 21
56.48013830900184
 31
0.0
  0
LINE
  5
A2
330
62
100
AcDbEntity
  8
0
 62
     0
100
AcDbLine
 10
27.28817986867149
 20
52.48423800966373
 30
0.0
 11
27.08821032964021
 21
52.48074752837628
 31
0.0
  0
LINE
  5
A3
330
62
100
AcDbEntity
  8
0
 62
     0
100
AcDbLine
 10
31.35738027504619
 20
48.5546568547873
 30
0.0
 11
31.15741073601491
 21
48.55116637349985
 31
0.0
  0
LINE
  5
A4
330
62
100
AcDbEntity
  8
0
 62
     0
100
AcDbLine
 10
31.42718990079533
 20
44.55526607416174
 30
0.0
 11
31.22722036176405
 21
44.55177559287428
 31
0.0
  0
LINE
  5
A5
330
62
100
AcDbEntity
  8
0
 62
     0
100
AcDbLine
 10
43.70460074566856
 20
28.76713182890688
 30
0.0
 11
43.50463120663728
 21
28.76364134761943
 31
0.0
  0
LINE
  5
A6
330
62
100
AcDbEntity
  8
0
 62
     0
100
AcDbLine
 10
35.6360095586683
 20
32.62690335803418
 30
0.0
 11
35.43604001963702
 21
32.62341287674673
 31
0.0
  0
LINE
  5
A7
330
62
100
AcDbEntity
  8
0
 62
     0
100
AcDbLine
 10
35.56619993291916
 20
36.62629413865974
 30
0.0
 11
35.36623039388788
 21
36.62280365737229
 31
0.0
  0
LINE
  5
A8
330
62
100
AcDbEntity
  8
0
 62
     0
100
AcDbLine
 10
31.49699952654446
 20
40.55587529353617
 30
0.0
 11
31.29702998751318
 21
40.55238481224871
 31
0.0
  0
LINE
  5
A9
330
62
100
AcDbEntity
  8
0
 62
     0
100
AcDbLine
 10
39.42597146204645
 20
44.69488532566001
 30
0.0
 11
39.22600192301518
 21
44.69139484437255
 31
0.0
  0
LINE
  5
AA
330
62
100
AcDbEntity
  8
0
 62
     0
100
AcDbLine
 10
43.35555261692289
 20
48.76408573203471
 30
0.0
 11
43.15558307789161
 21
48.76059525074725
 31
0.0
  0
LINE
  5
AB
330
62
100
AcDbEntity
  8
0
 62
     0
100
AcDbLine
 10
47.28513377179932
 20
52.83328613840941
 30
0.0
 11
47.08516423276804
 21
52.82979565712195
 31
0.0
  0
LINE
  5
AC
330
62
100
AcDbEntity
  8
0
 62
     0
100
AcDbLine
 10
51.21471492667575
 20
56.9024865447841
 30
0.0
 11
51.01474538764447
 21
56.89899606349665
 31
0.0
  0
LINE
  5
AD
330
62
100
AcDbEntity
  8
0
 62
     0
100
AcDbLine
 10
55.14429608155218
 20
60.9716869511588
 30
0.0
 11
54.9443265425209
 21
60.96819646987134
 31
0.0
  0
LINE
  5
AE
330
62
100
AcDbEntity
  8
0
 62
     0
100
AcDbLine
 10
63.07326801705418
 20
65.11069698328264
 30
0.0
 11
62.8732984780229
 21
65.10720650199518
 31
0.0
  0
LINE
  5
AF
330
62
100
AcDbEntity
  8
0
 62
     0
100
AcDbLine
 10
67.0028491719306
 20
69.17989738965733
 30
0.0
 11
66.80287963289932
 21
69.17640690836987
 31
0.0
  0
LINE
  5
B0
330
62
100
AcDbEntity
  8
0
 62
     0
100
AcDbLine
 10
70.93243032680704
 20
73.24909779603203
 30
0.0
 11
70.73246078777576
 21
73.24560731474457
 31
0.0
  0
LINE
  5
B1
330
62
100
AcDbEntity
  8
0
 62
     0
100
AcDbLine
 10
74.86201148168348
 20
77.31829820240672
 30
0.0
 11
74.6620419426522
 21
77.31480772111927
 31
0.0
  0
LINE
  5
B2
330
62
100
AcDbEntity
  8
0
 62
     0
100
AcDbLine
 10
74.79220185593434
 20
81.31768898303228
 30
0.0
 11
74.59223231690305
 21
81.31419850174483
 31
0.0
  0
LINE
  5
B3
330
62
100
AcDbEntity
  8
0
 62
     0
100
AcDbLine
 10
78.72178301081077
 20
85.386889389407
 30
0.0
 11
78.52181347177948
 21
85.38339890811955
 31
0.0
  0
LINE
  5
B4
330
62
100
AcDbEntity
  8
0
 62
     0
100
AcDbLine
 10
82.6513641656872
 20
89.4560897957817
 30
0.0
 11
82.45139462665593
 21
89.45259931449424
 31
0.0
  0
LINE
  5
B5
330
62
100
AcDbEntity
  8
0
 62
     0
100
AcDbLine
 10
86.58094532056363
 20
93.52529020215638
 30
0.0
 11
86.38097578153236
 21
93.52179972086893
 31
0.0
  0
LINE
  5
B6
330
62
100
AcDbEntity
  8
0
 62
     0
100
AcDbLine
 10
90.51052647544006
 20
97.59449060853109
 30
0.0
 11
90.31055693640877
 21
97.59100012724363
 31
0.0
  0
LINE
  5
B7
330
62
100
AcDbEntity
  8
0
 62
     0
100
AcDbLine
 10
94.44010763031649
 20
101.6636910149058
 30
0.0
 11
94.24013809128522
 21
101.6602005336183
 31
0.0
  0
LINE
  5
B8
330
62
100
AcDbEntity
  8
0
 62
     0
100
AcDbLine
 10
63.91098352604379
 20
17.11800761577586
 30
0.0
 11
63.71101398701251
 21
17.1145171344884
 31
0.0
  0
LINE
  5
B9
330
62
100
AcDbEntity
  8
0
 62
     0
100
AcDbLine
 10
67.91037430666935
 20
17.18781724152499
 30
0.0
 11
67.71040476763807
 21
17.18432676023754
 31
0.0
  0
LINE
  5
BA
330
62
100
AcDbEntity
  8
0
 62
     0
100
AcDbLine
 10
71.90976508729491
 20
17.25762686727413
 30
0.0
 11
71.70979554826364
 21
17.25413638598667
 31
0.0
  0
LINE
  5
BB
330
62
100
AcDbEntity
  8
0
 62
     0
100
AcDbLine
 10
75.90915586792049
 20
17.32743649302326
 30
0.0
 11
75.7091863288892
 21
17.32394601173581
 31
0.0
  0
LINE
  5
BC
330
62
100
AcDbEntity
  8
0
 62
     0
100
AcDbLine
 10
79.90854664854605
 20
17.3972461187724
 30
0.0
 11
79.70857710951476
 21
17.39375563748494
 31
0.0
  0
LINE
  5
BD
330
62
100
AcDbEntity
  8
0
 62
     0
100
AcDbLine
 10
83.90793742917161
 20
17.46705574452153
 30
0.0
 11
83.70796789014034
 21
17.46356526323407
 31
0.0
  0
LINE
  5
BE
330
62
100
AcDbEntity
  8
0
 62
     0
100
AcDbLine
 10
87.90732820979717
 20
17.53686537027066
 30
0.0
 11
87.7073586707659
 21
17.53337488898321
 31
0.0
  0
LINE
  5
BF
330
62
100
AcDbEntity
  8
0
 62
     0
100
AcDbLine
 10
51.84300155841795
 20
20.90796951915402
 30
0.0
 11
51.64303201938667
 21
20.90447903786657
 31
0.0
  0
LINE
  5
C0
330
62
100
AcDbEntity
  8
0
 62
     0
100
AcDbLine
 10
55.84239233904352
 20
20.97777914490315
 30
0.0
 11
55.64242280001224
 21
20.9742886636157
 31
0.0
  0
LINE
  5
C1
330
62
100
AcDbEntity
  8
0
 62
     0
100
AcDbLine
 10
59.84178311966909
 20
21.04758877065229
 30
0.0
 11
59.6418135806378
 21
21.04409828936483
 31
0.0
  0
LINE
  5
C2
330
62
100
AcDbEntity
  8
0
 62
     0
100
AcDbLine
 10
63.84117390029466
 20
21.11739839640142
 30
0.0
 11
63.64120436126337
 21
21.11390791511397
 31
0.0
  0
LINE
  5
C3
330
62
100
AcDbEntity
  8
0
 62
     0
100
AcDbLine
 10
67.84056468092022
 20
21.18720802215056
 30
0.0
 11
67.64059514188894
 21
21.1837175408631
 31
0.0
  0
LINE
  5
C4
330
62
100
AcDbEntity
  8
0
 62
     0
100
AcDbLine
 10
71.83995546154578
 20
21.25701764789969
 30
0.0
 11
71.63998592251451
 21
21.25352716661223
 31
0.0
  0
LINE
  5
C5
330
62
100
AcDbEntity
  8
0
 62
     0
100
AcDbLine
 10
75.83934624217136
 20
21.32682727364882
 30
0.0
 11
75.63937670314007
 21
21.32333679236137
 31
0.0
  0
LINE
  5
C6
330
62
100
AcDbEntity
  8
0
 62
     0
100
AcDbLine
 10
79.83873702279692
 20
21.39663689939796
 30
0.0
 11
79.63876748376563
 21
21.3931464181105
 31
0.0
  0
LINE
  5
C7
330
62
100
AcDbEntity
  8
0
 62
     0
100
AcDbLine
 10
83.83812780342248
 20
21.46644652514709
 30
0.0
 11
83.63815826439121
 21
21.46295604385963
 31
0.0
  0
LINE
  5
C8
330
62
100
AcDbEntity
  8
0
 62
     0
100
AcDbLine
 10
87.83751858404804
 20
21.53625615089623
 30
0.0
 11
87.63754904501677
 21
21.53276566960877
 31
0.0
  0
LINE
  5
C9
330
62
100
AcDbEntity
  8
0
 62
     0
100
AcDbLine
 10
91.83690936467362
 20
21.60606577664536
 30
0.0
 11
91.63693982564233
 21
21.60257529535791
 31
0.0
  0
LINE
  5
CA
330
62
100
AcDbEntity
  8
0
 62
     0
100
AcDbLine
 10
95.83630014529918
 20
21.6758754023945
 30
0.0
 11
95.6363306062679
 21
21.67238492110704
 31
0.0
  0
LINE
  5
CB
330
62
100
AcDbEntity
  8
0
 62
     0
100
AcDbLine
 10
47.77380115204326
 20
24.83755067403045
 30
0.0
 11
47.57383161301198
 21
24.834060192743
 31
0.0
  0
LINE
  5
CC
330
62
100
AcDbEntity
  8
0
 62
     0
100
AcDbLine
 10
51.77319193266882
 20
24.90736029977959
 30
0.0
 11
51.57322239363754
 21
24.90386981849213
 31
0.0
  0
LINE
  5
CD
330
62
100
AcDbEntity
  8
0
 62
     0
100
AcDbLine
 10
55.77258271329439
 20
24.97716992552872
 30
0.0
 11
55.57261317426311
 21
24.97367944424127
 31
0.0
  0
LINE
  5
CE
330
62
100
AcDbEntity
  8
0
 62
     0
100
AcDbLine
 10
59.77197349391996
 20
25.04697955127786
 30
0.0
 11
59.57200395488867
 21
25.0434890699904
 31
0.0
  0
LINE
  5
CF
330
62
100
AcDbEntity
  8
0
 62
     0
100
AcDbLine
 10
63.77136427454553
 20
25.11678917702699
 30
0.0
 11
63.57139473551424
 21
25.11329869573953
 31
0.0
  0
LINE
  5
D0
330
62
100
AcDbEntity
  8
0
 62
     0
100
AcDbLine
 10
67.77075505517108
 20
25.18659880277612
 30
0.0
 11
67.5707855161398
 21
25.18310832148867
 31
0.0
  0
LINE
  5
D1
330
62
100
AcDbEntity
  8
0
 62
     0
100
AcDbLine
 10
71.77014583579664
 20
25.25640842852526
 30
0.0
 11
71.57017629676537
 21
25.2529179472378
 31
0.0
  0
LINE
  5
D2
330
62
100
AcDbEntity
  8
0
 62
     0
100
AcDbLine
 10
75.76953661642222
 20
25.32621805427439
 30
0.0
 11
75.56956707739093
 21
25.32272757298693
 31
0.0
  0
LINE
  5
D3
330
62
100
AcDbEntity
  8
0
 62
     0
100
AcDbLine
 10
79.76892739704778
 20
25.39602768002353
 30
0.0
 11
79.56895785801649
 21
25.39253719873607
 31
0.0
  0
LINE
  5
D4
330
62
100
AcDbEntity
  8
0
 62
     0
100
AcDbLine
 10
83.76831817767334
 20
25.46583730577266
 30
0.0
 11
83.56834863864206
 21
25.4623468244852
 31
0.0
  0
LINE
  5
D5
330
62
100
AcDbEntity
  8
0
 62
     0
100
AcDbLine
 10
87.7677089582989
 20
25.53564693152179
 30
0.0
 11
87.56773941926762
 21
25.53215645023434
 31
0.0
  0
LINE
  5
D6
330
62
100
AcDbEntity
  8
0
 62
     0
100
AcDbLine
 10
91.76709973892447
 20
25.60545655727093
 30
0.0
 11
91.56713019989319
 21
25.60196607598347
 31
0.0
  0
LINE
  5
D7
330
62
100
AcDbEntity
  8
0
 62
     0
100
AcDbLine
 10
95.76649051955003
 20
25.67526618302006
 30
0.0
 11
95.56652098051876
 21
25.67177570173261
 31
0.0
  0
LINE
  5
D8
330
62
100
AcDbEntity
  8
0
 62
     0
100
AcDbLine
 10
99.7658813001756
 20
25.7450758087692
 30
0.0
 11
99.56591176114432
 21
25.74158532748174
 31
0.0
  0
LINE
  5
D9
330
62
100
AcDbEntity
  8
0
 62
     0
100
AcDbLine
 10
103.7652720808012
 20
25.81488543451833
 30
0.0
 11
103.5653025417699
 21
25.81139495323087
 31
0.0
  0
LINE
  5
DA
330
62
100
AcDbEntity
  8
0
 62
     0
100
AcDbLine
 10
47.70399152629412
 20
28.83694145465602
 30
0.0
 11
47.50402198726285
 21
28.83345097336856
 31
0.0
  0
LINE
  5
DB
330
62
100
AcDbEntity
  8
0
 62
     0
100
AcDbLine
 10
51.70338230691969
 20
28.90675108040515
 30
0.0
 11
51.50341276788841
 21
28.9032605991177
 31
0.0
  0
LINE
  5
DC
330
62
100
AcDbEntity
  8
0
 62
     0
100
AcDbLine
 10
55.70277308754525
 20
28.97656070615429
 30
0.0
 11
55.50280354851397
 21
28.97307022486683
 31
0.0
  0
LINE
  5
DD
330
62
100
AcDbEntity
  8
0
 62
     0
100
AcDbLine
 10
87.69789933254977
 20
29.53503771214736
 30
0.0
 11
87.4979297935185
 21
29.5315472308599
 31
0.0
  0
LINE
  5
DE
330
62
100
AcDbEntity
  8
0
 62
     0
100
AcDbLine
 10
91.69729011317534
 20
29.60484733789649
 30
0.0
 11
91.49732057414406
 21
29.60135685660904
 31
0.0
  0
LINE
  5
DF
330
62
100
AcDbEntity
  8
0
 62
     0
100
AcDbLine
 10
95.6966808938009
 20
29.67465696364563
 30
0.0
 11
95.49671135476963
 21
29.67116648235817
 31
0.0
  0
LINE
  5
E0
330
62
100
AcDbEntity
  8
0
 62
     0
100
AcDbLine
 10
99.69607167442646
 20
29.74446658939476
 30
0.0
 11
99.49610213539519
 21
29.7409761081073
 31
0.0
  0
LINE
  5
E1
330
62
100
AcDbEntity
  8
0
 62
     0
100
AcDbLine
 10
103.695462455052
 20
29.8142762151439
 30
0.0
 11
103.4954929160208
 21
29.81078573385644
 31
0.0
  0
LINE
  5
E2
330
62
100
AcDbEntity
  8
0
 62
     0
100
AcDbLine
 10
107.6948532356776
 20
29.88408584089303
 30
0.0
 11
107.4948836966463
 21
29.88059535960557
 31
0.0
  0
LINE
  5
E3
330
62
100
AcDbEntity
  8
0
 62
     0
100
AcDbLine
 10
39.63540033929386
 20
32.69671298378331
 30
0.0
 11
39.43543080026258
 21
32.69322250249586
 31
0.0
  0
LINE
  5
E4
330
62
100
AcDbEntity
  8
0
 62
     0
100
AcDbLine
 10
43.63479111991943
 20
32.76652260953245
 30
0.0
 11
43.43482158088815
 21
32.76303212824499
 31
0.0
  0
LINE
  5
E5
330
62
100
AcDbEntity
  8
0
 62
     0
100
AcDbLine
 10
47.63418190054499
 20
32.83633223528158
 30
0.0
 11
47.43421236151372
 21
32.83284175399412
 31
0.0
  0
LINE
  5
E6
330
62
100
AcDbEntity
  8
0
 62
     0
100
AcDbLine
 10
95.62687126805177
 20
33.67404774427119
 30
0.0
 11
95.4269017290205
 21
33.67055726298373
 31
0.0
  0
LINE
  5
E7
330
62
100
AcDbEntity
  8
0
 62
     0
100
AcDbLine
 10
99.62626204867733
 20
33.74385737002032
 30
0.0
 11
99.42629250964606
 21
33.74036688873286
 31
0.0
  0
LINE
  5
E8
330
62
100
AcDbEntity
  8
0
 62
     0
100
AcDbLine
 10
103.6256528293029
 20
33.81366699576946
 30
0.0
 11
103.4256832902716
 21
33.810176514482
 31
0.0
  0
LINE
  5
E9
330
62
100
AcDbEntity
  8
0
 62
     0
100
AcDbLine
 10
107.6250436099285
 20
33.8834766215186
 30
0.0
 11
107.4250740708972
 21
33.87998614023114
 31
0.0
  0
LINE
  5
EA
330
62
100
AcDbEntity
  8
0
 62
     0
100
AcDbLine
 10
111.624434390554
 20
33.95328624726773
 30
0.0
 11
111.4244648515228
 21
33.94979576598027
 31
0.0
  0
LINE
  5
EB
330
62
100
AcDbEntity
  8
0
 62
     0
100
AcDbLine
 10
39.56559071354472
 20
36.69610376440888
 30
0.0
 11
39.36562117451344
 21
36.69261328312142
 31
0.0
  0
LINE
  5
EC
330
62
100
AcDbEntity
  8
0
 62
     0
100
AcDbLine
 10
103.5558432035538
 20
37.81305777639502
 30
0.0
 11
103.3558736645225
 21
37.80956729510757
 31
0.0
  0
LINE
  5
ED
330
62
100
AcDbEntity
  8
0
 62
     0
100
AcDbLine
 10
107.5552339841793
 20
37.88286740214416
 30
0.0
 11
107.355264445148
 21
37.8793769208567
 31
0.0
  0
LINE
  5
EE
330
62
100
AcDbEntity
  8
0
 62
     0
100
AcDbLine
 10
111.5546247648049
 20
37.95267702789329
 30
0.0
 11
111.3546552257736
 21
37.94918654660584
 31
0.0
  0
LINE
  5
EF
330
62
100
AcDbEntity
  8
0
 62
     0
100
AcDbLine
 10
115.5540155454305
 20
38.02248665364242
 30
0.0
 11
115.3540460063992
 21
38.01899617235497
 31
0.0
  0
LINE
  5
F0
330
62
100
AcDbEntity
  8
0
 62
     0
100
AcDbLine
 10
35.49639030717002
 20
40.62568491928531
 30
0.0
 11
35.29642076813874
 21
40.62219443799785
 31
0.0
  0
LINE
  5
F1
330
62
100
AcDbEntity
  8
0
 62
     0
100
AcDbLine
 10
39.49578108779559
 20
40.69549454503444
 30
0.0
 11
39.29581154876431
 21
40.69200406374699
 31
0.0
  0
LINE
  5
F2
330
62
100
AcDbEntity
  8
0
 62
     0
100
AcDbLine
 10
43.49517186842115
 20
40.76530417078357
 30
0.0
 11
43.29520232938987
 21
40.76181368949612
 31
0.0
  0
LINE
  5
F3
330
62
100
AcDbEntity
  8
0
 62
     0
100
AcDbLine
 10
107.4854243584302
 20
41.88225818276972
 30
0.0
 11
107.2854548193989
 21
41.87876770148226
 31
0.0
  0
LINE
  5
F4
330
62
100
AcDbEntity
  8
0
 62
     0
100
AcDbLine
 10
111.4848151390558
 20
41.95206780851885
 30
0.0
 11
111.2848456000245
 21
41.9485773272314
 31
0.0
  0
LINE
  5
F5
330
62
100
AcDbEntity
  8
0
 62
     0
100
AcDbLine
 10
115.4842059196813
 20
42.02187743426799
 30
0.0
 11
115.28423638065
 21
42.01838695298053
 31
0.0
  0
LINE
  5
F6
330
62
100
AcDbEntity
  8
0
 62
     0
100
AcDbLine
 10
119.4835967003069
 20
42.09168706001712
 30
0.0
 11
119.2836271612756
 21
42.08819657872967
 31
0.0
  0
LINE
  5
F7
330
62
100
AcDbEntity
  8
0
 62
     0
100
AcDbLine
 10
43.42536224267202
 20
44.76469495140914
 30
0.0
 11
43.22539270364074
 21
44.76120447012168
 31
0.0
  0
LINE
  5
F8
330
62
100
AcDbEntity
  8
0
 62
     0
100
AcDbLine
 10
47.42475302329759
 20
44.83450457715828
 30
0.0
 11
47.22478348426631
 21
44.83101409587082
 31
0.0
  0
LINE
  5
F9
330
62
100
AcDbEntity
  8
0
 62
     0
100
AcDbLine
 10
111.4150055133066
 20
45.95145858914442
 30
0.0
 11
111.2150359742754
 21
45.94796810785697
 31
0.0
  0
LINE
  5
FA
330
62
100
AcDbEntity
  8
0
 62
     0
100
AcDbLine
 10
115.4143962939322
 20
46.02126821489355
 30
0.0
 11
115.2144267549009
 21
46.0177777336061
 31
0.0
  0
LINE
  5
FB
330
62
100
AcDbEntity
  8
0
 62
     0
100
AcDbLine
 10
119.4137870745578
 20
46.09107784064269
 30
0.0
 11
119.2138175355265
 21
46.08758735935523
 31
0.0
  0
LINE
  5
FC
330
62
100
AcDbEntity
  8
0
 62
     0
100
AcDbLine
 10
123.4131778551833
 20
46.16088746639182
 30
0.0
 11
123.213208316152
 21
46.15739698510436
 31
0.0
  0
LINE
  5
FD
330
62
100
AcDbEntity
  8
0
 62
     0
100
AcDbLine
 10
47.35494339754845
 20
48.83389535778385
 30
0.0
 11
47.15497385851717
 21
48.83040487649639
 31
0.0
  0
LINE
  5
FE
330
62
100
AcDbEntity
  8
0
 62
     0
100
AcDbLine
 10
51.35433417817401
 20
48.90370498353298
 30
0.0
 11
51.15436463914273
 21
48.90021450224552
 31
0.0
  0
LINE
  5
FF
330
62
100
AcDbEntity
  8
0
 62
     0
100
AcDbLine
 10
111.3451958875575
 20
49.95084936976999
 30
0.0
 11
111.3352432490075
 21
49.95067564581789
 31
0.0
  0
LINE
  5
100
330
62
100
AcDbEntity
  8
0
 62
     0
100
AcDbLine
 10
115.3445866681831
 20
50.02065899551912
 30
0.0
 11
115.1446171291518
 21
50.01716851423166
 31
0.0
  0
LINE
  5
101
330
62
100
AcDbEntity
  8
0
 62
     0
100
AcDbLine
 10
119.3439774488086
 20
50.09046862126826
 30
0.0
 11
119.1440079097773
 21
50.0869781399808
 31
0.0
  0
LINE
  5
102
330
62
100
AcDbEntity
  8
0
 62
     0
100
AcDbLine
 10
123.3433682294342
 20
50.16027824701739
 30
0.0
 11
123.1433986904029
 21
50.15678776572993
 31
0.0
  0
LINE
  5
103
330
62
100
AcDbEntity
  8
0
 62
     0
100
AcDbLine
 10
51.28452455242488
 20
52.90309576415854
 30
0.0
 11
51.0845550133936
 21
52.89960528287108
 31
0.0
  0
LINE
  5
104
330
62
100
AcDbEntity
  8
0
 62
     0
100
AcDbLine
 10
55.28391533305045
 20
52.97290538990767
 30
0.0
 11
55.08394579401917
 21
52.96941490862022
 31
0.0
  0
LINE
  5
105
330
62
100
AcDbEntity
  8
0
 62
     0
100
AcDbLine
 10
115.2747770424339
 20
54.02004977614468
 30
0.0
 11
115.0748075034026
 21
54.01655929485722
 31
0.0
  0
LINE
  5
106
330
62
100
AcDbEntity
  8
0
 62
     0
100
AcDbLine
 10
119.2741678230595
 20
54.08985940189382
 30
0.0
 11
119.0741982840282
 21
54.08636892060636
 31
0.0
  0
LINE
  5
107
330
62
100
AcDbEntity
  8
0
 62
     0
100
AcDbLine
 10
123.273558603685
 20
54.15966902764295
 30
0.0
 11
123.0735890646538
 21
54.15617854635549
 31
0.0
  0
LINE
  5
108
330
62
100
AcDbEntity
  8
0
 62
     0
100
AcDbLine
 10
127.1590091013226
 20
54.22748981835458
 30
0.0
 11
127.0729798452793
 21
54.22598817210463
 31
0.0
  0
LINE
  5
109
330
62
100
AcDbEntity
  8
0
 62
     0
100
AcDbLine
 10
55.21410570730131
 20
56.97229617053324
 30
0.0
 11
55.01413616827003
 21
56.96880568924578
 31
0.0
  0
LINE
  5
10A
330
62
100
AcDbEntity
  8
0
 62
     0
100
AcDbLine
 10
59.21349648792688
 20
57.04210579628237
 30
0.0
 11
59.0135269488956
 21
57.03861531499491
 31
0.0
  0
LINE
  5
10B
330
62
100
AcDbEntity
  8
0
 62
     0
100
AcDbLine
 10
115.2049674166848
 20
58.01944055677025
 30
0.0
 11
115.1770016116565
 21
58.01895241182771
 31
0.0
  0
LINE
  5
10C
330
62
100
AcDbEntity
  8
0
 62
     0
100
AcDbLine
 10
119.2043581973104
 20
58.08925018251939
 30
0.0
 11
119.0043886582791
 21
58.08575970123193
 31
0.0
  0
LINE
  5
10D
330
62
100
AcDbEntity
  8
0
 62
     0
100
AcDbLine
 10
123.2037489779359
 20
58.15905980826852
 30
0.0
 11
123.0037794389046
 21
58.15556932698106
 31
0.0
  0
LINE
  5
10E
330
62
100
AcDbEntity
  8
0
 62
     0
100
AcDbLine
 10
127.2031397585615
 20
58.22886943401765
 30
0.0
 11
127.0031702195302
 21
58.2253789527302
 31
0.0
  0
LINE
  5
10F
330
62
100
AcDbEntity
  8
0
 62
     0
100
AcDbLine
 10
59.14368686217775
 20
61.04149657690793
 30
0.0
 11
58.94371732314647
 21
61.03800609562047
 31
0.0
  0
LINE
  5
110
330
62
100
AcDbEntity
  8
0
 62
     0
100
AcDbLine
 10
63.14307764280332
 20
61.11130620265707
 30
0.0
 11
62.94310810377203
 21
61.10781572136961
 31
0.0
  0
LINE
  5
111
330
62
100
AcDbEntity
  8
0
 62
     0
100
AcDbLine
 10
119.1345485715612
 20
62.08864096314495
 30
0.0
 11
118.9345790325299
 21
62.08515048185749
 31
0.0
  0
LINE
  5
112
330
62
100
AcDbEntity
  8
0
 62
     0
100
AcDbLine
 10
123.1339393521868
 20
62.15845058889408
 30
0.0
 11
122.9339698131555
 21
62.15496010760662
 31
0.0
  0
LINE
  5
113
330
62
100
AcDbEntity
  8
0
 62
     0
100
AcDbLine
 10
127.1333301328123
 20
62.22826021464321
 30
0.0
 11
126.9333605937811
 21
62.22476973335576
 31
0.0
  0
LINE
  5
114
330
62
100
AcDbEntity
  8
0
 62
     0
100
AcDbLine
 10
67.07265879767975
 20
65.18050660903177
 30
0.0
 11
66.87268925864846
 21
65.17701612774431
 31
0.0
  0
LINE
  5
115
330
62
100
AcDbEntity
  8
0
 62
     0
100
AcDbLine
 10
119.0647389458121
 20
66.08803174377051
 30
0.0
 11
118.8647694067808
 21
66.08454126248306
 31
0.0
  0
LINE
  5
116
330
62
100
AcDbEntity
  8
0
 62
     0
100
AcDbLine
 10
123.0641297264377
 20
66.15784136951964
 30
0.0
 11
122.8641601874064
 21
66.15435088823219
 31
0.0
  0
LINE
  5
117
330
62
100
AcDbEntity
  8
0
 62
     0
100
AcDbLine
 10
127.0635205070632
 20
66.22765099526877
 30
0.0
 11
126.8635509680319
 21
66.22416051398132
 31
0.0
  0
LINE
  5
118
330
62
100
AcDbEntity
  8
0
 62
     0
100
AcDbLine
 10
71.00223995255617
 20
69.24970701540646
 30
0.0
 11
70.8022704135249
 21
69.246216534119
 31
0.0
  0
LINE
  5
119
330
62
100
AcDbEntity
  8
0
 62
     0
100
AcDbLine
 10
118.994929320063
 20
70.08742252439606
 30
0.0
 11
118.7949597810317
 21
70.0839320431086
 31
0.0
  0
LINE
  5
11A
330
62
100
AcDbEntity
  8
0
 62
     0
100
AcDbLine
 10
122.9943201006885
 20
70.1572321501452
 30
0.0
 11
122.7943505616572
 21
70.15374166885775
 31
0.0
  0
LINE
  5
11B
330
62
100
AcDbEntity
  8
0
 62
     0
100
AcDbLine
 10
126.9937108813141
 20
70.22704177589434
 30
0.0
 11
126.7937413422828
 21
70.22355129460688
 31
0.0
  0
LINE
  5
11C
330
62
100
AcDbEntity
  8
0
 62
     0
100
AcDbLine
 10
74.93182110743261
 20
73.31890742178116
 30
0.0
 11
74.73185156840132
 21
73.3154169404937
 31
0.0
  0
LINE
  5
11D
330
62
100
AcDbEntity
  8
0
 62
     0
100
AcDbLine
 10
118.9251196943138
 20
74.08681330502164
 30
0.0
 11
118.7251501552825
 21
74.08332282373418
 31
0.0
  0
LINE
  5
11E
330
62
100
AcDbEntity
  8
0
 62
     0
100
AcDbLine
 10
122.9245104749394
 20
74.15662293077078
 30
0.0
 11
122.7245409359081
 21
74.15313244948332
 31
0.0
  0
LINE
  5
11F
330
62
100
AcDbEntity
  8
0
 62
     0
100
AcDbLine
 10
126.9239012555649
 20
74.22643255651991
 30
0.0
 11
126.7239317165337
 21
74.22294207523245
 31
0.0
  0
LINE
  5
120
330
62
100
AcDbEntity
  8
0
 62
     0
100
AcDbLine
 10
78.86140226230904
 20
77.38810782815587
 30
0.0
 11
78.66143272327776
 21
77.38461734686841
 31
0.0
  0
LINE
  5
121
330
62
100
AcDbEntity
  8
0
 62
     0
100
AcDbLine
 10
118.8553100685647
 20
78.0862040856472
 30
0.0
 11
118.6553405295334
 21
78.08271360435974
 31
0.0
  0
LINE
  5
122
330
62
100
AcDbEntity
  8
0
 62
     0
100
AcDbLine
 10
122.8547008491903
 20
78.15601371139634
 30
0.0
 11
122.654731310159
 21
78.15252323010888
 31
0.0
  0
LINE
  5
123
330
62
100
AcDbEntity
  8
0
 62
     0
100
AcDbLine
 10
126.8540916298158
 20
78.22582333714547
 30
0.0
 11
126.6541220907845
 21
78.22233285585801
 31
0.0
  0
LINE
  5
124
330
62
100
AcDbEntity
  8
0
 62
     0
100
AcDbLine
 10
78.7915926365599
 20
81.38749860878143
 30
0.0
 11
78.59162309752861
 21
81.38400812749397
 31
0.0
  0
LINE
  5
125
330
62
100
AcDbEntity
  8
0
 62
     0
100
AcDbLine
 10
82.79098341718546
 20
81.45730823453056
 30
0.0
 11
82.59101387815419
 21
81.4538177532431
 31
0.0
  0
LINE
  5
126
330
62
100
AcDbEntity
  8
0
 62
     0
100
AcDbLine
 10
118.7855004428155
 20
82.08559486627276
 30
0.0
 11
118.5855309037843
 21
82.0821043849853
 31
0.0
  0
LINE
  5
127
330
62
100
AcDbEntity
  8
0
 62
     0
100
AcDbLine
 10
122.7848912234411
 20
82.1554044920219
 30
0.0
 11
122.5849216844098
 21
82.15191401073444
 31
0.0
  0
LINE
  5
128
330
62
100
AcDbEntity
  8
0
 62
     0
100
AcDbLine
 10
126.7842820040667
 20
82.22521411777103
 30
0.0
 11
126.5843124650354
 21
82.22172363648357
 31
0.0
  0
LINE
  5
129
330
62
100
AcDbEntity
  8
0
 62
     0
100
AcDbLine
 10
82.72117379143633
 20
85.45669901515613
 30
0.0
 11
82.52120425240506
 21
85.45320853386868
 31
0.0
  0
LINE
  5
12A
330
62
100
AcDbEntity
  8
0
 62
     0
100
AcDbLine
 10
86.72056457206189
 20
85.52650864090526
 30
0.0
 11
86.52059503303062
 21
85.5230181596178
 31
0.0
  0
LINE
  5
12B
330
62
100
AcDbEntity
  8
0
 62
     0
100
AcDbLine
 10
90.60269920865996
 20
85.59427155304716
 30
0.0
 11
90.51998581365618
 21
85.59282778536694
 31
0.0
  0
LINE
  5
12C
330
62
100
AcDbEntity
  8
0
 62
     0
100
AcDbLine
 10
118.7156908170664
 20
86.08498564689833
 30
0.0
 11
118.5157212780351
 21
86.08149516561087
 31
0.0
  0
LINE
  5
12D
330
62
100
AcDbEntity
  8
0
 62
     0
100
AcDbLine
 10
122.715081597692
 20
86.15479527264748
 30
0.0
 11
122.5151120586607
 21
86.15130479136002
 31
0.0
  0
LINE
  5
12E
330
62
100
AcDbEntity
  8
0
 62
     0
100
AcDbLine
 10
126.7144723783175
 20
86.2246048983966
 30
0.0
 11
126.5145028392863
 21
86.22111441710915
 31
0.0
  0
LINE
  5
12F
330
62
100
AcDbEntity
  8
0
 62
     0
100
AcDbLine
 10
86.65075494631276
 20
89.52589942153082
 30
0.0
 11
86.45078540728149
 21
89.52240894024337
 31
0.0
  0
LINE
  5
130
330
62
100
AcDbEntity
  8
0
 62
     0
100
AcDbLine
 10
90.65014572693833
 20
89.59570904727995
 30
0.0
 11
90.45017618790705
 21
89.5922185659925
 31
0.0
  0
LINE
  5
131
330
62
100
AcDbEntity
  8
0
 62
     0
100
AcDbLine
 10
94.6495365075639
 20
89.6655186730291
 30
0.0
 11
94.44956696853262
 21
89.66202819174164
 31
0.0
  0
LINE
  5
132
330
62
100
AcDbEntity
  8
0
 62
     0
100
AcDbLine
 10
118.6458811913173
 20
90.08437642752389
 30
0.0
 11
118.445911652286
 21
90.08088594623644
 31
0.0
  0
LINE
  5
133
330
62
100
AcDbEntity
  8
0
 62
     0
100
AcDbLine
 10
122.6452719719428
 20
90.15418605327304
 30
0.0
 11
122.4453024329116
 21
90.15069557198558
 31
0.0
  0
LINE
  5
134
330
62
100
AcDbEntity
  8
0
 62
     0
100
AcDbLine
 10
126.6446627525684
 20
90.22399567902217
 30
0.0
 11
126.4446932135371
 21
90.22050519773471
 31
0.0
  0
LINE
  5
135
330
62
100
AcDbEntity
  8
0
 62
     0
100
AcDbLine
 10
90.5803361011892
 20
93.59509982790551
 30
0.0
 11
90.38036656215792
 21
93.59160934661806
 31
0.0
  0
LINE
  5
136
330
62
100
AcDbEntity
  8
0
 62
     0
100
AcDbLine
 10
94.57972688181476
 20
93.66490945365466
 30
0.0
 11
94.37975734278349
 21
93.6614189723672
 31
0.0
  0
LINE
  5
137
330
62
100
AcDbEntity
  8
0
 62
     0
100
AcDbLine
 10
98.57911766244032
 20
93.73471907940379
 30
0.0
 11
98.37914812340905
 21
93.73122859811633
 31
0.0
  0
LINE
  5
138
330
62
100
AcDbEntity
  8
0
 62
     0
100
AcDbLine
 10
114.5766807849426
 20
94.01395758240032
 30
0.0
 11
114.3767112459113
 21
94.01046710111287
 31
0.0
  0
LINE
  5
139
330
62
100
AcDbEntity
  8
0
 62
     0
100
AcDbLine
 10
118.5760715655682
 20
94.08376720814945
 30
0.0
 11
118.3761020265369
 21
94.080276726862
 31
0.0
  0
LINE
  5
13A
330
62
100
AcDbEntity
  8
0
 62
     0
100
AcDbLine
 10
122.5754623461937
 20
94.1535768338986
 30
0.0
 11
122.3754928071624
 21
94.15008635261114
 31
0.0
  0
LINE
  5
13B
330
62
100
AcDbEntity
  8
0
 62
     0
100
AcDbLine
 10
94.50991725606562
 20
97.66430023428023
 30
0.0
 11
94.30994771703435
 21
97.66080975299278
 31
0.0
  0
LINE
  5
13C
330
62
100
AcDbEntity
  8
0
 62
     0
100
AcDbLine
 10
98.50930803669118
 20
97.73410986002936
 30
0.0
 11
98.30933849765991
 21
97.7306193787419
 31
0.0
  0
LINE
  5
13D
330
62
100
AcDbEntity
  8
0
 62
     0
100
AcDbLine
 10
102.5086988173168
 20
97.8039194857785
 30
0.0
 11
102.3087292782855
 21
97.80042900449104
 31
0.0
  0
LINE
  5
13E
330
62
100
AcDbEntity
  8
0
 62
     0
100
AcDbLine
 10
114.5068711591935
 20
98.0133483630259
 30
0.0
 11
114.3069016201622
 21
98.00985788173844
 31
0.0
  0
LINE
  5
13F
330
62
100
AcDbEntity
  8
0
 62
     0
100
AcDbLine
 10
118.506261939819
 20
98.08315798877503
 30
0.0
 11
118.3062924007877
 21
98.07966750748757
 31
0.0
  0
LINE
  5
140
330
62
100
AcDbEntity
  8
0
 62
     0
100
AcDbLine
 10
122.5056527204446
 20
98.15296761452417
 30
0.0
 11
122.3056831814133
 21
98.14947713323672
 31
0.0
  0
LINE
  5
141
330
62
100
AcDbEntity
  8
0
 62
     0
100
AcDbLine
 10
98.43949841094205
 20
101.7335006406549
 30
0.0
 11
98.23952887191078
 21
101.7300101593675
 31
0.0
  0
LINE
  5
142
330
62
100
AcDbEntity
  8
0
 62
     0
100
AcDbLine
 10
102.4388891915676
 20
101.8033102664041
 30
0.0
 11
102.2389196525363
 21
101.7998197851166
 31
0.0
  0
LINE
  5
143
330
62
100
AcDbEntity
  8
0
 62
     0
100
AcDbLine
 10
106.4382799721932
 20
101.8731198921532
 30
0.0
 11
106.2383104331619
 21
101.8696294108657
 31
0.0
  0
LINE
  5
144
330
62
100
AcDbEntity
  8
0
 62
     0
100
AcDbLine
 10
110.4376707528187
 20
101.9429295179023
 30
0.0
 11
110.2377012137875
 21
101.9394390366149
 31
0.0
  0
LINE
  5
145
330
62
100
AcDbEntity
  8
0
 62
     0
100
AcDbLine
 10
114.4370615334443
 20
102.0127391436515
 30
0.0
 11
114.237091994413
 21
102.009248662364
 31
0.0
  0
LINE
  5
146
330
62
100
AcDbEntity
  8
0
 62
     0
100
AcDbLine
 10
118.4364523140699
 20
102.0825487694006
 30
0.0
 11
118.2364827750386
 21
102.0790582881131
 31
0.0
  0
LINE
  5
147
330
62
100
AcDbEntity
  8
0
 62
     0
100
AcDbLine
 10
38.37882707580944
 20
104.6857470350435
 30
0.0
 11
38.17885753677817
 21
104.682256553756
 31
0.0
  0
LINE
  5
148
330
62
100
AcDbEntity
  8
0
 62
     0
100
AcDbLine
 10
98.36968878519292
 20
105.7328914212805
 30
0.0
 11
98.26809610019873
 21
105.7311181143677
 31
0.0
  0
LINE
  5
149
330
62
100
AcDbEntity
  8
0
 62
     0
100
AcDbLine
 10
102.3690795658185
 20
105.8027010470296
 30
0.0
 11
102.1691100267872
 21
105.7992105657422
 31
0.0
  0
LINE
  5
14A
330
62
100
AcDbEntity
  8
0
 62
     0
100
AcDbLine
 10
106.3684703464441
 20
105.8725106727788
 30
0.0
 11
106.1685008074128
 21
105.8690201914913
 31
0.0
  0
LINE
  5
14B
330
62
100
AcDbEntity
  8
0
 62
     0
100
AcDbLine
 10
110.3678611270696
 20
105.9423202985279
 30
0.0
 11
110.1678915880383
 21
105.9388298172404
 31
0.0
  0
LINE
  5
14C
330
62
100
AcDbEntity
  8
0
 62
     0
100
AcDbLine
 10
114.3672519076952
 20
106.012129924277
 30
0.0
 11
114.1672823686639
 21
106.0086394429896
 31
0.0
  0
LINE
  5
14D
330
62
100
AcDbEntity
  8
0
 62
     0
100
AcDbLine
 10
118.3666426883208
 20
106.0819395500261
 30
0.0
 11
118.1666731492895
 21
106.0784490687387
 31
0.0
  0
LINE
  5
14E
330
62
100
AcDbEntity
  8
0
 62
     0
100
AcDbLine
 10
38.30901745006031
 20
108.685137815669
 30
0.0
 11
38.10904791102903
 21
108.6816473343816
 31
0.0
  0
LINE
  5
14F
330
62
100
AcDbEntity
  8
0
 62
     0
100
AcDbLine
 10
42.30840823068588
 20
108.7549474414182
 30
0.0
 11
42.1084386916546
 21
108.7514569601307
 31
0.0
  0
LINE
  5
150
330
62
100
AcDbEntity
  8
0
 62
     0
100
AcDbLine
 10
102.2992699400694
 20
109.8020918276552
 30
0.0
 11
102.0993004010381
 21
109.7986013463677
 31
0.0
  0
LINE
  5
151
330
62
100
AcDbEntity
  8
0
 62
     0
100
AcDbLine
 10
106.2986607206949
 20
109.8719014534043
 30
0.0
 11
106.0986911816636
 21
109.8684109721169
 31
0.0
  0
LINE
  5
152
330
62
100
AcDbEntity
  8
0
 62
     0
100
AcDbLine
 10
110.2980515013205
 20
109.9417110791534
 30
0.0
 11
110.0980819622892
 21
109.938220597866
 31
0.0
  0
LINE
  5
153
330
62
100
AcDbEntity
  8
0
 62
     0
100
AcDbLine
 10
114.297442281946
 20
110.0115207049026
 30
0.0
 11
114.0974727429148
 21
110.0080302236151
 31
0.0
  0
LINE
  5
154
330
62
100
AcDbEntity
  8
0
 62
     0
100
AcDbLine
 10
42.23859860493674
 20
112.7543382220437
 30
0.0
 11
42.03862906590546
 21
112.7508477407563
 31
0.0
  0
LINE
  5
155
330
62
100
AcDbEntity
  8
0
 62
     0
100
AcDbLine
 10
46.23798938556231
 20
112.8241478477929
 30
0.0
 11
46.03801984653103
 21
112.8206573665054
 31
0.0
  0
LINE
  5
156
330
62
100
AcDbEntity
  8
0
 62
     0
100
AcDbLine
 10
98.23006953369465
 20
113.7316729825316
 30
0.0
 11
98.03009999466337
 21
113.7281825012442
 31
0.0
  0
LINE
  5
157
330
62
100
AcDbEntity
  8
0
 62
     0
100
AcDbLine
 10
102.2294603143202
 20
113.8014826082808
 30
0.0
 11
102.0294907752889
 21
113.7979921269933
 31
0.0
  0
LINE
  5
158
330
62
100
AcDbEntity
  8
0
 62
     0
100
AcDbLine
 10
106.2288510949458
 20
113.8712922340299
 30
0.0
 11
106.0288815559145
 21
113.8678017527424
 31
0.0
  0
LINE
  5
159
330
62
100
AcDbEntity
  8
0
 62
     0
100
AcDbLine
 10
110.2282418755713
 20
113.941101859779
 30
0.0
 11
110.0282723365401
 21
113.9376113784916
 31
0.0
  0
LINE
  5
15A
330
62
100
AcDbEntity
  8
0
 62
     0
100
AcDbLine
 10
46.16817975981318
 20
116.8235386284184
 30
0.0
 11
45.9682102207819
 21
116.820048147131
 31
0.0
  0
LINE
  5
15B
330
62
100
AcDbEntity
  8
0
 62
     0
100
AcDbLine
 10
50.16757054043874
 20
116.8933482541676
 30
0.0
 11
49.96760100140746
 21
116.8898577728801
 31
0.0
  0
LINE
  5
15C
330
62
100
AcDbEntity
  8
0
 62
     0
100
AcDbLine
 10
54.16696132106431
 20
116.9631578799167
 30
0.0
 11
53.96699178203303
 21
116.9596673986293
 31
0.0
  0
LINE
  5
15D
330
62
100
AcDbEntity
  8
0
 62
     0
100
AcDbLine
 10
58.16635210168987
 20
117.0329675056658
 30
0.0
 11
57.96638256265859
 21
117.0294770243784
 31
0.0
  0
LINE
  5
15E
330
62
100
AcDbEntity
  8
0
 62
     0
100
AcDbLine
 10
86.16208756606882
 20
117.5216348859098
 30
0.0
 11
85.96211802703755
 21
117.5181444046223
 31
0.0
  0
LINE
  5
15F
330
62
100
AcDbEntity
  8
0
 62
     0
100
AcDbLine
 10
90.1614783466944
 20
117.5914445116589
 30
0.0
 11
89.96150880766311
 21
117.5879540303714
 31
0.0
  0
LINE
  5
160
330
62
100
AcDbEntity
  8
0
 62
     0
100
AcDbLine
 10
94.16086912731996
 20
117.6612541374081
 30
0.0
 11
93.96089958828868
 21
117.6577636561206
 31
0.0
  0
LINE
  5
161
330
62
100
AcDbEntity
  8
0
 62
     0
100
AcDbLine
 10
98.16025990794552
 20
117.7310637631572
 30
0.0
 11
97.96029036891424
 21
117.7275732818697
 31
0.0
  0
LINE
  5
162
330
62
100
AcDbEntity
  8
0
 62
     0
100
AcDbLine
 10
102.1596506885711
 20
117.8008733889063
 30
0.0
 11
101.9596811495398
 21
117.7973829076189
 31
0.0
  0
LINE
  5
163
330
62
100
AcDbEntity
  8
0
 62
     0
100
AcDbLine
 10
106.1590414691967
 20
117.8706830146555
 30
0.0
 11
105.9590719301654
 21
117.867192533368
 31
0.0
  0
LINE
  5
164
330
62
100
AcDbEntity
  8
0
 62
     0
100
AcDbLine
 10
46.09837013406404
 20
120.822929409044
 30
0.0
 11
45.89840059503276
 21
120.8194389277565
 31
0.0
  0
LINE
  5
165
330
62
100
AcDbEntity
  8
0
 62
     0
100
AcDbLine
 10
50.0977609146896
 20
120.8927390347931
 30
0.0
 11
49.89779137565832
 21
120.8892485535057
 31
0.0
  0
LINE
  5
166
330
62
100
AcDbEntity
  8
0
 62
     0
100
AcDbLine
 10
54.09715169531517
 20
120.9625486605423
 30
0.0
 11
53.89718215628389
 21
120.9590581792548
 31
0.0
  0
LINE
  5
167
330
62
100
AcDbEntity
  8
0
 62
     0
100
AcDbLine
 10
58.09654247594074
 20
121.0323582862914
 30
0.0
 11
57.89657293690945
 21
121.0288678050039
 31
0.0
  0
LINE
  5
168
330
62
100
AcDbEntity
  8
0
 62
     0
100
AcDbLine
 10
62.0959332565663
 20
121.1021679120405
 30
0.0
 11
61.89596371753502
 21
121.0986774307531
 31
0.0
  0
LINE
  5
169
330
62
100
AcDbEntity
  8
0
 62
     0
100
AcDbLine
 10
66.09532403719187
 20
121.1719775377897
 30
0.0
 11
65.89535449816059
 21
121.1684870565022
 31
0.0
  0
LINE
  5
16A
330
62
100
AcDbEntity
  8
0
 62
     0
100
AcDbLine
 10
70.09471481781743
 20
121.2417871635388
 30
0.0
 11
69.89474527878616
 21
121.2382966822513
 31
0.0
  0
LINE
  5
16B
330
62
100
AcDbEntity
  8
0
 62
     0
100
AcDbLine
 10
74.09410559844301
 20
121.3115967892879
 30
0.0
 11
73.89413605941172
 21
121.3081063080005
 31
0.0
  0
LINE
  5
16C
330
62
100
AcDbEntity
  8
0
 62
     0
100
AcDbLine
 10
78.09349637906857
 20
121.3814064150371
 30
0.0
 11
77.89352684003728
 21
121.3779159337496
 31
0.0
  0
LINE
  5
16D
330
62
100
AcDbEntity
  8
0
 62
     0
100
AcDbLine
 10
82.09288715969413
 20
121.4512160407862
 30
0.0
 11
81.89291762066286
 21
121.4477255594987
 31
0.0
  0
LINE
  5
16E
330
62
100
AcDbEntity
  8
0
 62
     0
100
AcDbLine
 10
86.09227794031969
 20
121.5210256665353
 30
0.0
 11
85.89230840128842
 21
121.5175351852479
 31
0.0
  0
LINE
  5
16F
330
62
100
AcDbEntity
  8
0
 62
     0
100
AcDbLine
 10
90.09166872094526
 20
121.5908352922845
 30
0.0
 11
89.89169918191398
 21
121.587344810997
 31
0.0
  0
LINE
  5
170
330
62
100
AcDbEntity
  8
0
 62
     0
100
AcDbLine
 10
94.09105950157083
 20
121.6606449180336
 30
0.0
 11
93.89108996253955
 21
121.6571544367462
 31
0.0
  0
LINE
  5
171
330
62
100
AcDbEntity
  8
0
 62
     0
100
AcDbLine
 10
98.09045028219639
 20
121.7304545437827
 30
0.0
 11
97.89048074316511
 21
121.7269640624953
 31
0.0
  0
LINE
  5
172
330
62
100
AcDbEntity
  8
0
 62
     0
100
AcDbLine
 10
101.9353431476005
 20
121.7975673983904
 30
0.0
 11
101.8898715237907
 21
121.7967736882444
 31
0.0
  0
LINE
  5
173
330
62
100
AcDbEntity
  8
0
 62
     0
100
AcDbLine
 10
54.02734206956604
 20
124.9619394411678
 30
0.0
 11
53.82737253053476
 21
124.9584489598804
 31
0.0
  0
LINE
  5
174
330
62
100
AcDbEntity
  8
0
 62
     0
100
AcDbLine
 10
58.02673285019161
 20
125.031749066917
 30
0.0
 11
57.82676331116032
 21
125.0282585856295
 31
0.0
  0
LINE
  5
175
330
62
100
AcDbEntity
  8
0
 62
     0
100
AcDbLine
 10
62.02612363081717
 20
125.1015586926661
 30
0.0
 11
61.82615409178589
 21
125.0980682113786
 31
0.0
  0
LINE
  5
176
330
62
100
AcDbEntity
  8
0
 62
     0
100
AcDbLine
 10
66.02551441144273
 20
125.1713683184152
 30
0.0
 11
65.82554487241144
 21
125.1678778371278
 31
0.0
  0
LINE
  5
177
330
62
100
AcDbEntity
  8
0
 62
     0
100
AcDbLine
 10
70.02490519206829
 20
125.2411779441644
 30
0.0
 11
69.82493565303702
 21
125.2376874628769
 31
0.0
  0
LINE
  5
178
330
62
100
AcDbEntity
  8
0
 62
     0
100
AcDbLine
 10
74.02429597269386
 20
125.3109875699135
 30
0.0
 11
73.82432643366258
 21
125.3074970886261
 31
0.0
  0
LINE
  5
179
330
62
100
AcDbEntity
  8
0
 62
     0
100
AcDbLine
 10
78.02368675331942
 20
125.3807971956627
 30
0.0
 11
77.82371721428814
 21
125.3773067143752
 31
0.0
  0
LINE
  5
17A
330
62
100
AcDbEntity
  8
0
 62
     0
100
AcDbLine
 10
82.02307753394498
 20
125.4506068214118
 30
0.0
 11
81.82310799491371
 21
125.4471163401243
 31
0.0
  0
LINE
  5
17B
330
62
100
AcDbEntity
  8
0
 62
     0
100
AcDbLine
 10
86.02246831457055
 20
125.5204164471609
 30
0.0
 11
85.82249877553927
 21
125.5169259658735
 31
0.0
  0
LINE
  5
17C
330
62
100
AcDbEntity
  8
0
 62
     0
100
AcDbLine
 10
90.02185909519612
 20
125.59022607291
 30
0.0
 11
89.82188955616483
 21
125.5867355916226
 31
0.0
  0
LINE
  5
17D
330
62
100
AcDbEntity
  8
0
 62
     0
100
AcDbLine
 10
94.02124987582168
 20
125.6600356986592
 30
0.0
 11
93.82128033679041
 21
125.6565452173717
 31
0.0
  0
LINE
  5
17E
330
62
100
AcDbEntity
  8
0
 62
     0
100
AcDbLine
 10
69.95509556631916
 20
129.2405687247899
 30
0.0
 11
69.75512602728789
 21
129.2370782435025
 31
0.0
  0
LINE
  5
17F
330
62
100
AcDbEntity
  8
0
 62
     0
100
AcDbLine
 10
73.95448634694473
 20
129.3103783505391
 30
0.0
 11
73.75451680791345
 21
129.3068878692516
 31
0.0
  0
LINE
  5
180
330
62
100
AcDbEntity
  8
0
 62
     0
100
AcDbLine
 10
77.9538771275703
 20
129.3801879762882
 30
0.0
 11
77.75390758853901
 21
129.3766974950007
 31
0.0
  0
ENDBLK
  5
64
330
62
100
AcDbEntity
  8
0
100
AcDbBlockEnd
  0
ENDSEC
  0
SECTION
  2
ENTITIES
  0
LWPOLYLINE
  5
181
330
1F
100
AcDbEntity
  8
0
  6
CONTINUOUS
 62
   250
 48
12.0
100
AcDbPolyline
 90
        4
 70
     1
 43
0.0
 10
0.0
 20
133.6872
 10
0.0
 20
145.098
 10
13.10279999999999
 20
145.098
 10
13.10279999999999
 20
133.6872
  0
LINE
  5
182
330
1F
100
AcDbEntity
  8
0
  6
CONTINUOUS
 62
   250
 48
12.0
100
AcDbLine
 10
50.3724
 20
70.3752
 30
0.0
 11
55.908
 21
94.7844
 31
0.0
  0
LINE
  5
183
330
1F
100
AcDbEntity
  8
0
  6
CONTINUOUS
 62
   250
 48
12.0
100
AcDbLine
 10
51.4764
 20
71.1708
 30
0.0
 11
56.72520000000002
 21
94.31400000000001
 31
0.0
  0
LINE
  5
184
330
1F
100
AcDbEntity
  8
0
  6
CONTINUOUS
 62
   250
 48
12.0
100
AcDbLine
 10
79.1184
 20
105.1872
 30
0.0
 11
81.1788
 21
103.998
 31
0.0
  0
LWPOLYLINE
  5
185
330
1F
100
AcDbEntity
  8
0
  6
CONTINUOUS
 62
   250
 48
12.0
100
AcDbPolyline
 90
        3
 70
     0
 43
0.0
 10
46.062
 20
61.25279999999999
 10
80.87039999999999
 20
109.1964
 10
81.6864
 20
108.7248
  0
LINE
  5
186
330
1F
100
AcDbEntity
  8
0
  6
CONTINUOUS
 62
   250
 48
12.0
100
AcDbLine
 10
46.8792
 20
60.78119999999999
 30
0.0
 11
81.6864
 21
108.7248
 31
0.0
  0
LINE
  5
187
330
1F
100
AcDbEntity
  8
0
  6
CONTINUOUS
 62
   250
 48
12.0
100
AcDbLine
 10
76.2408
 20
106.8492
 30
0.0
 11
78.30120000000001
 21
105.6588
 31
0.0
  0
LWPOLYLINE
  5
188
330
1F
100
AcDbEntity
  8
0
  6
CONTINUOUS
 62
   250
 48
12.0
100
AcDbPolyline
 90
        3
 70
     0
 43
0.0
 10
76.2408
 20
106.8492
 10
82.97279999999999
 20
116.1204
 10
87.91080000000001
 20
113.2704
  0
LINE
  5
189
330
1F
100
AcDbEntity
  8
0
  6
CONTINUOUS
 62
   250
 48
12.0
100
AcDbLine
 10
81.1788
 20
103.998
 30
0.0
 11
87.91080000000001
 21
113.2704
 31
0.0
  0
LINE
  5
18A
330
1F
100
AcDbEntity
  8
0
  6
CONTINUOUS
 62
   250
 48
12.0
100
AcDbLine
 10
46.8792
 20
60.78119999999999
 30
0.0
 11
46.062
 21
61.25279999999999
 31
0.0
  0
LINE
  5
18B
330
1F
100
AcDbEntity
  8
0
  6
CONTINUOUS
 62
   250
 48
12.0
100
AcDbLine
 10
55.3716
 20
92.42040000000001
 30
0.0
 11
53.3112
 21
93.6108
 31
0.0
  0
LINE
  5
18C
330
1F
100
AcDbEntity
  8
0
  6
CONTINUOUS
 62
   250
 48
12.0
100
AcDbLine
 10
56.72520000000002
 20
94.31400000000001
 30
0.0
 11
55.908
 21
94.7844
 31
0.0
  0
LINE
  5
18D
330
1F
100
AcDbEntity
  8
0
  6
CONTINUOUS
 62
   250
 48
12.0
100
AcDbLine
 10
58.24919999999999
 20
90.75959999999999
 30
0.0
 11
56.1888
 21
91.94879999999999
 31
0.0
  0
LINE
  5
18E
330
1F
100
AcDbEntity
  8
0
  6
CONTINUOUS
 62
   250
 48
12.0
100
AcDbLine
 10
59.65320000000001
 20
96.94680000000001
 30
0.0
 11
70.68599999999999
 21
103.3164
 31
0.0
  0
LWPOLYLINE
  5
18F
330
1F
100
AcDbEntity
  8
0
  6
CONTINUOUS
 62
   250
 48
12.0
100
AcDbPolyline
 90
        3
 70
     0
 43
0.0
 10
53.3112
 20
93.6108
 10
54.71640000000001
 20
99.8076
 10
59.6544
 20
96.95640000000002
  0
LINE
  5
190
330
1F
100
AcDbEntity
  8
0
  6
CONTINUOUS
 62
   250
 48
12.0
100
AcDbLine
 10
58.24919999999999
 20
90.75959999999999
 30
0.0
 11
59.6544
 21
96.95640000000002
 31
0.0
  0
LINE
  5
191
330
1F
100
AcDbEntity
  8
0
  6
HIDDEN
 62
   250
 48
12.0
100
AcDbLine
 10
59.6544
 20
49.67879999999999
 30
0.0
 11
59.6544
 21
110.4564
 31
0.0
  0
LINE
  5
192
330
1F
100
AcDbEntity
  8
0
  6
CONTINUOUS
 62
   250
 48
12.0
100
AcDbLine
 10
46.8792
 20
56.28119999999999
 30
0.0
 11
78.88680000000001
 21
74.7288
 31
0.0
  0
LINE
  5
193
330
1F
100
AcDbEntity
  8
0
  6
CONTINUOUS
 62
   250
 48
12.0
100
AcDbLine
 10
82.97279999999999
 20
116.1204
 30
0.0
 11
94.18559999999998
 21
122.5956
 31
0.0
  0
LINE
  5
194
330
1F
100
AcDbEntity
  8
0
  6
CONTINUOUS
 62
   250
 48
12.0
100
AcDbLine
 10
81.1788
 20
103.998
 30
0.0
 11
99.1236
 21
114.3588
 31
0.0
  0
LINE
  5
195
330
1F
100
AcDbEntity
  8
0
  6
CONTINUOUS
 62
   250
 48
12.0
100
AcDbLine
 10
87.91080000000001
 20
113.2704
 30
0.0
 11
99.1236
 21
119.7444
 31
0.0
  0
LINE
  5
196
330
1F
100
AcDbEntity
  8
0
  6
CONTINUOUS
 62
   250
 48
12.0
100
AcDbLine
 10
78.88680000000001
 20
72.3816
 30
0.0
 11
99.1236
 21
84.066
 31
0.0
  0
LINE
  5
197
330
1F
100
AcDbEntity
  8
0
  6
CONTINUOUS
 62
   250
 48
12.0
100
AcDbLine
 10
78.88680000000001
 20
66.996
 30
0.0
 11
99.1236
 21
78.6804
 31
0.0
  0
LINE
  5
198
330
1F
100
AcDbEntity
  8
0
  6
CONTINUOUS
 62
   250
 48
12.0
100
AcDbLine
 10
98.09519999999999
 20
104.5908
 30
0.0
 11
97.27919999999999
 21
105.0624
 31
0.0
  0
LINE
  5
199
330
1F
100
AcDbEntity
  8
0
  6
CONTINUOUS
 62
   250
 48
12.0
100
AcDbLine
 10
97.06320000000001
 20
100.1016
 30
0.0
 11
96.2472
 21
100.5732
 31
0.0
  0
LINE
  5
19A
330
1F
100
AcDbEntity
  8
0
  6
CONTINUOUS
 62
   250
 48
12.0
100
AcDbLine
 10
97.27919999999999
 20
105.0624
 30
0.0
 11
97.04039999999999
 21
104.9244
 31
0.0
  0
LINE
  5
19B
330
1F
100
AcDbEntity
  8
0
  6
CONTINUOUS
 62
   250
 48
12.0
100
AcDbLine
 10
96.2472
 20
100.5732
 30
0.0
 11
95.8608
 21
100.3512
 31
0.0
  0
LWPOLYLINE
  5
19C
330
1F
100
AcDbEntity
  8
0
  6
CONTINUOUS
 62
   250
 48
12.0
100
AcDbPolyline
 90
        7
 70
     0
 43
0.0
 10
78.88680000000001
 20
74.7612
 10
97.06320000000001
 20
85.2552
 10
97.06320000000001
 20
100.1016
 10
95.1468
 20
98.99640000000001
 10
98.09519999999999
 20
104.5908
 10
97.04039999999999
 20
103.9824
 10
97.04039999999999
 20
113.1552
  0
LINE
  5
19D
330
1F
100
AcDbEntity
  8
0
  6
CONTINUOUS
 62
   250
 48
12.0
100
AcDbLine
 10
54.71640000000001
 20
99.8076
 30
0.0
 11
72.60959999999999
 21
110.1384
 31
0.0
  0
LINE
  5
19E
330
1F
100
AcDbEntity
  8
0
  6
CONTINUOUS
 62
   250
 48
12.0
100
AcDbLine
 10
99.1236
 20
114.3588
 30
0.0
 11
99.1236
 21
119.7444
 31
0.0
  0
LINE
  5
19F
330
1F
100
AcDbEntity
  8
0
  6
CONTINUOUS
 62
   250
 48
12.0
100
AcDbLine
 10
99.1236
 20
119.7444
 30
0.0
 11
94.18559999999998
 21
122.5956
 31
0.0
  0
LINE
  5
1A0
330
1F
100
AcDbEntity
  8
0
  6
CONTINUOUS
 62
   250
 48
12.0
100
AcDbLine
 10
58.24919999999999
 20
90.75959999999999
 30
0.0
 11
68.87400000000001
 21
96.894
 31
0.0
  0
LINE
  5
1A1
330
1F
100
AcDbEntity
  8
0
  6
CONTINUOUS
 62
   250
 48
12.0
100
AcDbLine
 10
59.6544
 20
96.95640000000002
 30
0.0
 11
70.68839999999999
 21
103.326
 31
0.0
  0
LINE
  5
1A2
330
1F
100
AcDbEntity
  8
0
  6
CONTINUOUS
 62
   250
 48
12.0
100
AcDbLine
 10
59.6544
 20
55.89239999999999
 30
0.0
 11
90.12599999999999
 21
38.29919999999999
 31
0.0
  0
LINE
  5
1A3
330
1F
100
AcDbEntity
  8
0
  6
CONTINUOUS
 62
   250
 48
12.0
100
AcDbLine
 10
46.062
 20
56.75279999999999
 30
0.0
 11
44.0016
 21
57.9432
 31
0.0
  0
LINE
  5
1A4
330
1F
100
AcDbEntity
  8
0
  6
CONTINUOUS
 62
   250
 48
12.0
100
AcDbLine
 10
46.8792
 20
54.12359999999999
 30
0.0
 11
46.8792
 21
60.78119999999999
 31
0.0
  0
LWPOLYLINE
  5
1A5
330
1F
100
AcDbEntity
  8
0
  6
CONTINUOUS
 62
   250
 48
12.0
100
AcDbPolyline
 90
        3
 70
     0
 43
0.0
 10
46.8792
 20
54.12359999999999
 10
46.062
 20
54.59519999999999
 10
46.062
 20
61.25279999999999
  0
LINE
  5
1A6
330
1F
100
AcDbEntity
  8
0
  6
CONTINUOUS
 62
   250
 48
12.0
100
AcDbLine
 10
44.0016
 20
57.9432
 30
0.0
 11
46.062
 21
59.1324
 31
0.0
  0
LINE
  5
1A7
330
1F
100
AcDbEntity
  8
0
  6
CONTINUOUS
 62
   250
 48
12.0
100
AcDbLine
 10
48.9396
 20
55.09199999999999
 30
0.0
 11
78.88680000000001
 21
72.3816
 31
0.0
  0
LINE
  5
1A8
330
1F
100
AcDbEntity
  8
0
  6
CONTINUOUS
 62
   250
 48
12.0
100
AcDbLine
 10
99.1236
 20
78.6804
 30
0.0
 11
99.1236
 21
84.066
 31
0.0
  0
LINE
  5
1A9
330
1F
100
AcDbEntity
  8
0
  6
CONTINUOUS
 62
   250
 48
12.0
100
AcDbLine
 10
99.1236
 20
84.066
 30
0.0
 11
97.06320000000001
 21
85.2552
 31
0.0
  0
LINE
  5
1AA
330
1F
100
AcDbEntity
  8
0
  6
CONTINUOUS
 62
   250
 48
12.0
100
AcDbLine
 10
48.9396
 20
49.7064
 30
0.0
 11
78.88680000000001
 21
66.996
 31
0.0
  0
LINE
  5
1AB
330
1F
100
AcDbEntity
  8
0
  6
CONTINUOUS
 62
   250
 48
12.0
100
AcDbLine
 10
44.0016
 20
57.9432
 30
0.0
 11
44.0016
 21
52.5576
 31
0.0
  0
LWPOLYLINE
  5
1AC
330
1F
100
AcDbEntity
  8
0
  6
CONTINUOUS
 62
   250
 48
12.0
100
AcDbPolyline
 90
        3
 70
     0
 43
0.0
 10
48.9396
 20
49.7064
 10
48.9396
 20
55.09199999999999
 10
46.8792
 20
56.28119999999999
  0
LINE
  5
1AD
330
1F
100
AcDbEntity
  8
0
  6
CONTINUOUS
 62
   250
 48
12.0
100
AcDbLine
 10
82.75319999999999
 20
34.0428
 30
0.0
 11
82.75319999999999
 21
21.2244
 31
0.0
  0
LINE
  5
1AE
330
1F
100
AcDbEntity
  8
0
  6
CONTINUOUS
 62
   250
 48
12.0
100
AcDbLine
 10
79.4112
 20
32.1132
 30
0.0
 11
79.4112
 21
19.2948
 31
0.0
  0
LINE
  5
1AF
330
1F
100
AcDbEntity
  8
0
  6
CONTINUOUS
 62
   250
 48
12.0
100
AcDbLine
 10
90.12599999999999
 20
38.29919999999999
 30
0.0
 11
90.12599999999999
 21
25.482
 31
0.0
  0
LINE
  5
1B0
330
1F
100
AcDbEntity
  8
0
  6
CONTINUOUS
 62
   250
 48
12.0
100
AcDbLine
 10
88.7172
 20
34.8936
 30
0.0
 11
88.7172
 21
22.0764
 31
0.0
  0
LINE
  5
1B1
330
1F
100
AcDbEntity
  8
0
  6
CONTINUOUS
 62
   250
 48
12.0
100
AcDbLine
 10
37.03439999999999
 20
64.734
 30
0.0
 11
37.03439999999999
 21
63.4968
 31
0.0
  0
LINE
  5
1B2
330
1F
100
AcDbEntity
  8
0
  6
CONTINUOUS
 62
   250
 48
12.0
100
AcDbLine
 10
31.47839999999999
 20
63.64559999999999
 30
0.0
 11
31.47839999999999
 21
61.5264
 31
0.0
  0
LINE
  5
1B3
330
1F
100
AcDbEntity
  8
0
  6
CONTINUOUS
 62
   250
 48
12.0
100
AcDbLine
 10
29.97239999999999
 20
60.6564
 30
0.0
 11
29.97239999999999
 21
47.838
 31
0.0
  0
LINE
  5
1B4
330
1F
100
AcDbEntity
  8
0
  6
CONTINUOUS
 62
   250
 48
12.0
100
AcDbLine
 10
90.12599999999999
 20
25.482
 30
0.0
 11
88.7172
 21
24.6684
 31
0.0
  0
LINE
  5
1B5
330
1F
100
AcDbEntity
  8
0
  6
CONTINUOUS
 62
   250
 48
12.0
100
AcDbLine
 10
82.75319999999999
 20
21.2244
 30
0.0
 11
79.4112
 21
19.2948
 31
0.0
  0
LINE
  5
1B6
330
1F
100
AcDbEntity
  8
0
  6
CONTINUOUS
 62
   250
 48
12.0
100
AcDbLine
 10
88.7172
 20
22.0764
 30
0.0
 11
82.75319999999999
 21
22.236
 31
0.0
  0
LINE
  5
1B7
330
1F
100
AcDbEntity
  8
0
  6
CONTINUOUS
 62
   250
 48
12.0
100
AcDbLine
 10
79.4112
 20
19.2948
 30
0.0
 11
29.97239999999999
 21
47.838
 31
0.0
  0
LINE
  5
1B8
330
1F
100
AcDbEntity
  8
0
  6
CONTINUOUS
 62
   250
 48
12.0
100
AcDbLine
 10
90.12599999999999
 20
31.5744
 30
0.0
 11
88.7172
 21
30.7608
 31
0.0
  0
LINE
  5
1B9
330
1F
100
AcDbEntity
  8
0
  6
CONTINUOUS
 62
   250
 48
12.0
100
AcDbLine
 10
82.75319999999999
 20
27.318
 30
0.0
 11
79.4112
 21
25.3884
 31
0.0
  0
LINE
  5
1BA
330
1F
100
AcDbEntity
  8
0
  6
CONTINUOUS
 62
   250
 48
12.0
100
AcDbLine
 10
88.7172
 20
28.1688
 30
0.0
 11
82.75319999999999
 21
28.3284
 31
0.0
  0
LINE
  5
1BB
330
1F
100
AcDbEntity
  8
0
  6
CONTINUOUS
 62
   250
 48
12.0
100
AcDbLine
 10
79.4112
 20
25.3884
 30
0.0
 11
29.97239999999999
 21
53.9316
 31
0.0
  0
LINE
  5
1BC
330
1F
100
AcDbEntity
  8
0
  6
CONTINUOUS
 62
   250
 48
12.0
100
AcDbLine
 10
40.68839999999999
 20
66.84240000000001
 30
0.0
 11
37.03439999999999
 21
64.734
 31
0.0
  0
LINE
  5
1BD
330
1F
100
AcDbEntity
  8
0
  6
CONTINUOUS
 62
   250
 48
12.0
100
AcDbLine
 10
37.03439999999999
 20
64.734
 30
0.0
 11
39.2796
 21
63.4368
 31
0.0
  0
LINE
  5
1BE
330
1F
100
AcDbEntity
  8
0
  6
CONTINUOUS
 62
   250
 48
12.0
100
AcDbLine
 10
31.47839999999999
 20
63.64559999999999
 30
0.0
 11
33.31439999999999
 21
62.586
 31
0.0
  0
LINE
  5
1BF
330
1F
100
AcDbEntity
  8
0
  6
CONTINUOUS
 62
   250
 48
12.0
100
AcDbLine
 10
33.31439999999999
 20
62.586
 30
0.0
 11
29.97239999999999
 21
60.6564
 31
0.0
  0
LINE
  5
1C0
330
1F
100
AcDbEntity
  8
0
  6
CONTINUOUS
 62
   250
 48
12.0
100
AcDbLine
 10
39.2796
 20
63.4368
 30
0.0
 11
31.47839999999999
 21
63.64559999999999
 31
0.0
  0
LWPOLYLINE
  5
1C1
330
1F
100
AcDbEntity
  8
0
  6
CONTINUOUS
 62
   250
 48
12.0
100
AcDbPolyline
 90
        5
 70
     0
 43
0.0
 10
86.472
 20
36.1908
 10
88.7172
 20
34.8936
 10
80.91720000000001
 20
35.1024
 10
82.75319999999999
 20
34.0428
 10
79.4112
 20
32.1132
  0
LINE
  5
1C2
330
1F
100
AcDbEntity
  8
0
  6
CONTINUOUS
 62
   250
 48
12.0
100
AcDbLine
 10
79.4112
 20
32.1132
 30
0.0
 11
29.97239999999999
 21
60.6564
 31
0.0
  0
LINE
  5
1C3
330
1F
100
AcDbEntity
  8
0
  6
CONTINUOUS
 62
   250
 48
12.0
100
AcDbLine
 10
90.12599999999999
 20
38.29919999999999
 30
0.0
 11
86.472
 21
36.1908
 31
0.0
  0
LINE
  5
1C4
330
1F
100
AcDbEntity
  8
0
  6
CONTINUOUS
 62
   250
 48
12.0
100
AcDbLine
 10
40.68839999999999
 20
66.84240000000001
 30
0.0
 11
47.3352
 21
63.0048
 31
0.0
  0
LWPOLYLINE
  5
1C5
330
1F
100
AcDbEntity
  8
0
  6
CONTINUOUS
 62
   250
 48
12.0
100
AcDbPolyline
 90
        4
 70
     1
 43
0.0
 10
0.0
 20
0.0
 10
0.0
 20
145.098
 10
145.2132
 20
145.098
 10
145.2132
 20
0.0
  0
TEXT
  5
1CB
330
1F
100
AcDbEntity
  8
0
 62
   250
100
AcDbText
 10
2.351562500000001
 20
137.8310879467414
 30
0.0
 40
5.0
  1
R7
 41
0.7936507936507936
  7
LPDETAILTEXT
 11
2.351562500000001
 21
135.8125
 31
0.0
100
AcDbText
 73
     1
  0
TEXT
  5
1CC
330
1F
100
AcDbEntity
  8
0
 62
   250
100
AcDbText
 10
15.4375
 20
137.7060879467414
 30
0.0
 40
5.0
  1
DON'T cut beyond inside edge of bearing.
 41
0.7936507936507936
  7
LPDETAILTEXT
 11
15.4375
 21
135.6875
 31
0.0
100
AcDbText
 73
     1
  0
INSERT
  5
1CE
330
1F
100
AcDbEntity
  8
0
  6
BYBLOCK
100
AcDbBlockReference
  2
GROUP_0_EA4055D0-16FF-4E6C
 10
0.0
 20
0.0
 30
0.0
  0
ENDSEC
  0
SECTION
  2
OBJECTS
  0
DICTIONARY
  5
C
330
0
100
AcDbDictionary
  3
ACAD_GROUP
350
D
  3
ACAD_LAYOUT
350
1A
  3
ACAD_MATERIAL
350
3B
  3
ACAD_MLEADERSTYLE
350
1F1
  3
ACAD_MLINESTYLE
350
17
  3
ACAD_PLOTSETTINGS
350
19
  3
ACAD_VISUALSTYLE
350
2A
  3
ACDBHEADERROUNDTRIPXREC
350
1CF
  3
ACDBVARIABLEDICTIONARY
350
1EF
  0
DICTIONARY
  5
D
102
{ACAD_REACTORS
330
C
102
}
330
C
100
AcDbDictionary
  0
DICTIONARY
  5
1A
102
{ACAD_REACTORS
330
C
102
}
330
C
100
AcDbDictionary
  0
DICTIONARY
  5
3B
102
{ACAD_REACTORS
330
C
102
}
330
C
100
AcDbDictionary
  3
BYBLOCK
350
3D
  3
BYLAYER
350
3C
  3
GLOBAL
350
3E
  0
DICTIONARY
  5
1F1
102
{ACAD_REACTORS
330
C
102
}
330
C
100
AcDbDictionary
  0
DICTIONARY
  5
17
102
{ACAD_REACTORS
330
C
102
}
330
C
100
AcDbDictionary
  3
STANDARD
350
18
  0
DICTIONARY
  5
19
102
{ACAD_REACTORS
330
C
102
}
330
C
100
AcDbDictionary
  0
DICTIONARY
  5
2A
102
{ACAD_REACTORS
330
C
102
}
330
C
100
AcDbDictionary
  3
2DWIREFRAME
350
2F
  3
3D_HIDDEN
350
31
  3
3DWIREFRAME
350
30
  3
BASIC
350
32
  3
BRIGHTEN
350
36
  3
COLORCHANGE
350
3A
  3
CONCEPTUAL
350
34
  3
DIM
350
35
  3
FACEPATTERN
350
39
  3
FLAT
350
2B
  3
FLATWITHEDGES
350
2C
  3
GOURAUD
350
2D
  3
GOURAUDWITHEDGES
350
2E
  3
LINEPATTERN
350
38
  3
REALISTIC
350
33
  3
THICKEN
350
37
  0
DICTIONARY
  5
1CF
102
{ACAD_REACTORS
330
C
102
}
330
C
100
AcDbDictionary
  3
CEPSNTYPE
350
1D8
  3
DIMSTYLEDATA
350
1EE
  3
FINGERPRINTGUID
350
1D9
  3
HYPERLINKBASE
350
1D2
  3
INSUNITS
350
1D7
  3
LAYOUTDICT
350
1D4
  3
LWETCUNION
350
1D6
  3
PLOTSETDICT
350
1D5
  3
PSVPSCALE
350
1DB
  3
PUCSBASE
350
1DE
  3
PUCSORGBACK
350
1E4
  3
PUCSORGBOTTOM
350
1E0
  3
PUCSORGFRONT
350
1E3
  3
PUCSORGLEFT
350
1E1
  3
PUCSORGRIGHT
350
1E2
  3
PUCSORGTOP
350
1DF
  3
PUCSORTHOREF
350
1DC
  3
PUCSORTHOVIEW
350
1DD
  3
STYLESHEET
350
1D3
  3
TSTACKALIGN
350
1D0
  3
TSTACKSIZE
350
1D1
  3
UCSBASE
350
1E7
  3
UCSORGBACK
350
1ED
  3
UCSORGBOTTOM
350
1E9
  3
UCSORGFRONT
350
1EC
  3
UCSORGLEFT
350
1EA
  3
UCSORGRIGHT
350
1EB
  3
UCSORGTOP
350
1E8
  3
UCSORTHOREF
350
1E5
  3
UCSORTHOVIEW
350
1E6
  3
VERSIONGUID
350
1DA
  0
DICTIONARY
  5
1EF
102
{ACAD_REACTORS
330
C
102
}
330
C
100
AcDbDictionary
  3
DIMASSOC
350
1F2
  3
HIDETEXT
350
1F3
  0
MATERIAL
  5
3D
102
{ACAD_REACTORS
330
3B
102
}
102
{ACAD_XDICTIONARY
360
1F6
102
}
330
3B
100
AcDbMaterial
  1
ByBlock
  0
MATERIAL
  5
3C
102
{ACAD_REACTORS
330
3B
102
}
102
{ACAD_XDICTIONARY
360
1F4
102
}
330
3B
100
AcDbMaterial
  1
ByLayer
  0
MATERIAL
  5
3E
102
{ACAD_REACTORS
330
3B
102
}
102
{ACAD_XDICTIONARY
360
1F8
102
}
330
3B
100
AcDbMaterial
  1
Global
  0
MLINESTYLE
  5
18
102
{ACAD_REACTORS
330
17
102
}
330
17
100
AcDbMlineStyle
  2
Standard
 70
     0
  3

 62
   256
 51
90.0
 52
90.0
 71
     2
 49
0.5
 62
   256
  6
BYLAYER
 49
-0.5
 62
   256
  6
BYLAYER
  0
ACAD_PROXY_OBJECT
  5
2F
102
{ACAD_REACTORS
330
2A
102
}
330
2A
100
AcDbProxyObject
 90
      499
 91
      501
 93
      436
310
42CC9915DA5C99599C985B595049028333333333333E3BF0000000000000FB0107901411070040501600405405064090741402480A0340
1001
ACAD
1000
AcDbSavedByObjectVersion
1070
     0
  0
ACAD_PROXY_OBJECT
  5
31
102
{ACAD_REACTORS
330
2A
102
}
330
2A
100
AcDbProxyObject
 90
      499
 91
      501
 93
      500
310
424CD108121A5919195B90640502408333333333333E3BF0000000000000FB01079024090700405020000000000001110200405405064090740C02480A0340
1001
ACAD
1000
AcDbSavedByObjectVersion
1070
     0
  0
ACAD_PROXY_OBJECT
  5
30
102
{ACAD_REACTORS
330
2A
102
}
330
2A
100
AcDbProxyObject
 90
      499
 91
      501
 93
      436
310
42CCD915DA5C99599C985B595059028333333333333E3BF0000000000000FB0107901411070040501600405405064090741402480A0340
1001
ACAD
1000
AcDbSavedByObjectVersion
1070
     0
  0
ACAD_PROXY_OBJECT
  5
32
102
{ACAD_REACTORS
330
2A
102
}
330
2A
100
AcDbProxyObject
 90
      499
 91
      501
 93
      388
310
4150985CDA58D07406404333333333333E3BF0000000000000FB0107A41107004050150841D405064090741402480A0350
1001
ACAD
1000
AcDbSavedByObjectVersion
1070
     0
  0
ACAD_PROXY_OBJECT
  5
36
102
{ACAD_REACTORS
330
2A
102
}
330
2A
100
AcDbProxyObject
 90
      499
 91
      501
 93
      428
310
42109C9A59DA1D195B90C409028333333333333E3BF0000000000000FB010790141107004050150841D405064090741402480A029950
1001
ACAD
1000
AcDbSavedByObjectVersion
1070
     0
  0
ACAD_PROXY_OBJECT
  5
3A
102
{ACAD_REACTORS
330
2A
102
}
330
2A
100
AcDbProxyObject
 90
      499
 91
      501
 93
      452
310
42D0DBDB1BDC90DA185B99D95104090240C333333333333E3BF0000000000000FB0108901411070040501508421405064090741402480A0350
1001
ACAD
1000
AcDbSavedByObjectVersion
1070
     0
  0
ACAD_PROXY_OBJECT
  5
34
102
{ACAD_REACTORS
330
2A
102
}
330
2A
100
AcDbProxyObject
 90
      499
 91
      501
 93
      500
310
4290DBDB98D95C1D1D585B10940D028333333333333E3BF0000000000000FB0107902409070040501000000000000111010841D405064090740C02480A0340
1001
ACAD
1000
AcDbSavedByObjectVersion
1070
     0
  0
ACAD_PROXY_OBJECT
  5
35
102
{ACAD_REACTORS
330
2A
102
}
330
2A
100
AcDbProxyObject
 90
      499
 91
      501
 93
      412
310
40D11A5B50B409028333333333333E3BF0000000000000FB010790141107004050150841D405064090741402480A02677FFFFFD0
1001
ACAD
1000
AcDbSavedByObjectVersion
1070
     0
  0
ACAD_PROXY_OBJECT
  5
39
102
{ACAD_REACTORS
330
2A
102
}
330
2A
100
AcDbProxyObject
 90
      499
 91
      501
 93
      444
310
42D19858D95C185D1D195C9B90F409028333333333333E3BF0000000000000FB010790141107004050150841D405064090741402480A0350
1001
ACAD
1000
AcDbSavedByObjectVersion
1070
     0
  0
ACAD_PROXY_OBJECT
  5
2B
102
{ACAD_REACTORS
330
2A
102
}
330
2A
100
AcDbProxyObject
 90
      499
 91
      501
 93
      388
310
41119B185D240901404333333333333E3BF0000000000000F9010740A41107004050150841D405064090741402480A1B50
1001
ACAD
1000
AcDbSavedByObjectVersion
1070
     0
  0
ACAD_PROXY_OBJECT
  5
2C
102
{ACAD_REACTORS
330
2A
102
}
330
2A
100
AcDbProxyObject
 90
      499
 91
      501
 93
      476
310
43519B185D15DA5D1A115919D95CD0140901404333333333333E3BF0000000000000F9010740901411070040501600405405064090741402480A1B50
1001
ACAD
1000
AcDbSavedByObjectVersion
1070
     0
  0
ACAD_PROXY_OBJECT
  5
2D
102
{ACAD_REACTORS
330
2A
102
}
330
2A
100
AcDbProxyObject
 90
      499
 91
      501
 93
      412
310
41D1DBDD5C985D5910240902404333333333333E3BF0000000000000F9010740A411070040501641D405064090741402480A1B50
1001
ACAD
1000
AcDbSavedByObjectVersion
1070
     0
  0
ACAD_PROXY_OBJECT
  5
2E
102
{ACAD_REACTORS
330
2A
102
}
330
2A
100
AcDbProxyObject
 90
      499
 91
      501
 93
      500
310
4411DBDD5C985D5915DA5D1A115919D95CD0340902404333333333333E3BF0000000000000F9010740901411070040501600405405064090741402480A1B50
1001
ACAD
1000
AcDbSavedByObjectVersion
1070
     0
  0
ACAD_PROXY_OBJECT
  5
38
102
{ACAD_REACTORS
330
2A
102
}
330
2A
100
AcDbProxyObject
 90
      499
 91
      501
 93
      444
310
42D31A5B995C185D1D195C9B90E409028333333333333E3BF0000000000000FB010790141107004050750841D405064090741402483A0350
1001
ACAD
1000
AcDbSavedByObjectVersion
1070
     0
  0
ACAD_PROXY_OBJECT
  5
33
102
{ACAD_REACTORS
330
2A
102
}
330
2A
100
AcDbProxyObject
 90
      499
 91
      501
 93
      420
310
425499585B1A5CDD1A58D08409028333333333333E3BF0000000000000FB01079019070040501508421405064090741402480A1B40
1001
ACAD
1000
AcDbSavedByObjectVersion
1070
     0
  0
ACAD_PROXY_OBJECT
  5
37
102
{ACAD_REACTORS
330
2A
102
}
330
2A
100
AcDbProxyObject
 90
      499
 91
      501
 93
      412
310
41D51A1A58DAD95B90D409028333333333333E3BF0000000000000FB010790141107004050150C41D405064090741402480A0350
1001
ACAD
1000
AcDbSavedByObjectVersion
1070
     0
  0
XRECORD
  5
1D8
102
{ACAD_REACTORS
330
1CF
102
}
330
1CF
100
AcDbXrecord
 90
        0
  0
XRECORD
  5
1EE
102
{ACAD_REACTORS
330
1CF
102
}
330
1CF
100
AcDbXrecord
1000
DSTYLE
1002
{
1070
   340
340
11
1002
}
  0
XRECORD
  5
1D9
102
{ACAD_REACTORS
330
1CF
102
}
330
1CF
100
AcDbXrecord
  1
{E1BD3DDF-5949-48BF-8825-1096D597A80C}
  0
XRECORD
  5
1D2
102
{ACAD_REACTORS
330
1CF
102
}
330
1CF
100
AcDbXrecord
  1

  0
XRECORD
  5
1D7
102
{ACAD_REACTORS
330
1CF
102
}
330
1CF
100
AcDbXrecord
 90
        4
  0
XRECORD
  5
1D4
102
{ACAD_REACTORS
330
1CF
102
}
330
1CF
100
AcDbXrecord
340
1A
  0
XRECORD
  5
1D6
102
{ACAD_REACTORS
330
1CF
102
}
330
1CF
100
AcDbXrecord
 90
    10781
  0
XRECORD
  5
1D5
102
{ACAD_REACTORS
330
1CF
102
}
330
1CF
100
AcDbXrecord
340
19
  0
XRECORD
  5
1DB
102
{ACAD_REACTORS
330
1CF
102
}
330
1CF
100
AcDbXrecord
 40
0.0
  0
XRECORD
  5
1DE
102
{ACAD_REACTORS
330
1CF
102
}
330
1CF
100
AcDbXrecord
340
0
  0
XRECORD
  5
1E4
102
{ACAD_REACTORS
330
1CF
102
}
330
1CF
100
AcDbXrecord
 10
0.0
 20
0.0
 30
0.0
  0
XRECORD
  5
1E0
102
{ACAD_REACTORS
330
1CF
102
}
330
1CF
100
AcDbXrecord
 10
0.0
 20
0.0
 30
0.0
  0
XRECORD
  5
1E3
102
{ACAD_REACTORS
330
1CF
102
}
330
1CF
100
AcDbXrecord
 10
0.0
 20
0.0
 30
0.0
  0
XRECORD
  5
1E1
102
{ACAD_REACTORS
330
1CF
102
}
330
1CF
100
AcDbXrecord
 10
0.0
 20
0.0
 30
0.0
  0
XRECORD
  5
1E2
102
{ACAD_REACTORS
330
1CF
102
}
330
1CF
100
AcDbXrecord
 10
0.0
 20
0.0
 30
0.0
  0
XRECORD
  5
1DF
102
{ACAD_REACTORS
330
1CF
102
}
330
1CF
100
AcDbXrecord
 10
0.0
 20
0.0
 30
0.0
  0
XRECORD
  5
1DC
102
{ACAD_REACTORS
330
1CF
102
}
330
1CF
100
AcDbXrecord
340
0
  0
XRECORD
  5
1DD
102
{ACAD_REACTORS
330
1CF
102
}
330
1CF
100
AcDbXrecord
 70
     0
  0
XRECORD
  5
1D3
102
{ACAD_REACTORS
330
1CF
102
}
330
1CF
100
AcDbXrecord
  1

  0
XRECORD
  5
1D0
102
{ACAD_REACTORS
330
1CF
102
}
330
1CF
100
AcDbXrecord
 90
        1
  0
XRECORD
  5
1D1
102
{ACAD_REACTORS
330
1CF
102
}
330
1CF
100
AcDbXrecord
 90
       70
  0
XRECORD
  5
1E7
102
{ACAD_REACTORS
330
1CF
102
}
330
1CF
100
AcDbXrecord
340
0
  0
XRECORD
  5
1ED
102
{ACAD_REACTORS
330
1CF
102
}
330
1CF
100
AcDbXrecord
 10
0.0
 20
0.0
 30
0.0
  0
XRECORD
  5
1E9
102
{ACAD_REACTORS
330
1CF
102
}
330
1CF
100
AcDbXrecord
 10
0.0
 20
0.0
 30
0.0
  0
XRECORD
  5
1EC
102
{ACAD_REACTORS
330
1CF
102
}
330
1CF
100
AcDbXrecord
 10
0.0
 20
0.0
 30
0.0
  0
XRECORD
  5
1EA
102
{ACAD_REACTORS
330
1CF
102
}
330
1CF
100
AcDbXrecord
 10
0.0
 20
0.0
 30
0.0
  0
XRECORD
  5
1EB
102
{ACAD_REACTORS
330
1CF
102
}
330
1CF
100
AcDbXrecord
 10
0.0
 20
0.0
 30
0.0
  0
XRECORD
  5
1E8
102
{ACAD_REACTORS
330
1CF
102
}
330
1CF
100
AcDbXrecord
 10
0.0
 20
0.0
 30
0.0
  0
XRECORD
  5
1E5
102
{ACAD_REACTORS
330
1CF
102
}
330
1CF
100
AcDbXrecord
340
0
  0
XRECORD
  5
1E6
102
{ACAD_REACTORS
330
1CF
102
}
330
1CF
100
AcDbXrecord
 70
     0
  0
XRECORD
  5
1DA
102
{ACAD_REACTORS
330
1CF
102
}
330
1CF
100
AcDbXrecord
  1
{FAEB1C32-E019-11D5-929B-00C0DF256EC4}
  0
DICTIONARYVAR
  5
1F2
102
{ACAD_REACTORS
330
1EF
102
}
330
1EF
100
DictionaryVariables
280
     0
  1
2
  0
DICTIONARYVAR
  5
1F3
102
{ACAD_REACTORS
330
1EF
102
}
330
1EF
100
DictionaryVariables
280
     0
  1
1
  0
DICTIONARY
  5
1F6
330
3D
100
AcDbDictionary
280
     1
  3
ACAD_XREC_ROUNDTRIP
360
1F7
  0
DICTIONARY
  5
1F4
330
3C
100
AcDbDictionary
280
     1
  3
ACAD_XREC_ROUNDTRIP
360
1F5
  0
DICTIONARY
  5
1F8
330
3E
100
AcDbDictionary
280
     1
  3
ACAD_XREC_ROUNDTRIP
360
1F9
  0
XRECORD
  5
1F7
102
{ACAD_REACTORS
330
1F6
102
}
330
1F6
100
AcDbXrecord
102
MATERIAL
148
0.0
149
0.0
149
0.0
 93
        0
 94
      127
282
     0
 72
     1
 77
     1
171
     1
175
     1
179
     1
273
     0
  0
XRECORD
  5
1F5
102
{ACAD_REACTORS
330
1F4
102
}
330
1F4
100
AcDbXrecord
102
MATERIAL
148
0.0
149
0.0
149
0.0
 93
        0
 94
      127
282
     0
 72
     1
 77
     1
171
     1
175
     1
179
     1
273
     0
  0
XRECORD
  5
1F9
102
{ACAD_REACTORS
330
1F8
102
}
330
1F8
100
AcDbXrecord
102
MATERIAL
148
0.0
149
0.0
149
0.0
 93
        0
 94
      127
282
     0
 72
     1
 77
     1
171
     1
175
     1
179
     1
273
     0
  0
ENDSEC
  0
EOF
