  0
SECTION
  2
HEADER
  9
$ACADVER
  1
AC1015
  9
$ACADMAINTVER
 70
     6
  9
$DWGCODEPAGE
  3
ANSI_1252
  9
$INSBASE
 10
0.0
 20
0.0
 30
0.0
  9
$EXTMIN
 10
-2.640461154541027
 20
-2.638146951660838
 30
0.0
  9
$EXTMAX
 10
55.44965594608365
 20
55.40105246794692
 30
0.0
  9
$LIMMIN
 10
-2.640461154541027
 20
-2.638146951660838
  9
$LIMMAX
 10
55.44965594608365
 20
55.40105246794692
  9
$ORTHOMODE
 70
     0
  9
$REGENMODE
 70
     1
  9
$FILLMODE
 70
     1
  9
$QTEXTMODE
 70
     0
  9
$MIRRTEXT
 70
     1
  9
$LTSCALE
 40
1.0
  9
$ATTMODE
 70
     1
  9
$TEXTSIZE
 40
0.2
  9
$TRACEWID
 40
0.05
  9
$TEXTSTYLE
  7
Standard
  9
$CLAYER
  8
0
  9
$CELTYPE
  6
ByLayer
  9
$CECOLOR
 62
   256
  9
$CELTSCALE
 40
1.0
  9
$DISPSILH
 70
     0
  9
$DIMSCALE
 40
1.0
  9
$DIMASZ
 40
0.18
  9
$DIMEXO
 40
0.0625
  9
$DIMDLI
 40
0.38
  9
$DIMRND
 40
0.0
  9
$DIMDLE
 40
0.0
  9
$DIMEXE
 40
0.18
  9
$DIMTP
 40
0.0
  9
$DIMTM
 40
0.0
  9
$DIMTXT
 40
0.18
  9
$DIMCEN
 40
0.09
  9
$DIMTSZ
 40
0.0
  9
$DIMTOL
 70
     0
  9
$DIMLIM
 70
     0
  9
$DIMTIH
 70
     1
  9
$DIMTOH
 70
     1
  9
$DIMSE1
 70
     0
  9
$DIMSE2
 70
     0
  9
$DIMTAD
 70
     0
  9
$DIMZIN
 70
     0
  9
$DIMBLK
  1

  9
$DIMASO
 70
     1
  9
$DIMSHO
 70
     1
  9
$DIMPOST
  1

  9
$DIMAPOST
  1

  9
$DIMALT
 70
     0
  9
$DIMALTD
 70
     2
  9
$DIMALTF
 40
25.4
  9
$DIMLFAC
 40
1.0
  9
$DIMTOFL
 70
     0
  9
$DIMTVP
 40
0.0
  9
$DIMTIX
 70
     0
  9
$DIMSOXD
 70
     0
  9
$DIMSAH
 70
     0
  9
$DIMBLK1
  1

  9
$DIMBLK2
  1

  9
$DIMSTYLE
  2
Standard
  9
$DIMCLRD
 70
     0
  9
$DIMCLRE
 70
     0
  9
$DIMCLRT
 70
     0
  9
$DIMTFAC
 40
1.0
  9
$DIMGAP
 40
0.09
  9
$DIMJUST
 70
     0
  9
$DIMSD1
 70
     0
  9
$DIMSD2
 70
     0
  9
$DIMTOLJ
 70
     1
  9
$DIMTZIN
 70
     0
  9
$DIMALTZ
 70
     0
  9
$DIMALTTZ
 70
     0
  9
$DIMUPT
 70
     0
  9
$DIMDEC
 70
     4
  9
$DIMTDEC
 70
     4
  9
$DIMALTU
 70
     2
  9
$DIMALTTD
 70
     2
  9
$DIMTXSTY
  7
Standard
  9
$DIMAUNIT
 70
     0
  9
$DIMADEC
 70
     0
  9
$DIMALTRND
 40
0.0
  9
$DIMAZIN
 70
     0
  9
$DIMDSEP
 70
    46
  9
$DIMATFIT
 70
     3
  9
$DIMFRAC
 70
     0
  9
$DIMLDRBLK
  1

  9
$DIMLUNIT
 70
     2
  9
$DIMLWD
 70
    -2
  9
$DIMLWE
 70
    -2
  9
$DIMTMOVE
 70
     0
  9
$LUNITS
 70
     2
  9
$LUPREC
 70
     4
  9
$SKETCHINC
 40
0.1
  9
$FILLETRAD
 40
0.5
  9
$AUNITS
 70
     0
  9
$AUPREC
 70
     0
  9
$MENU
  1
.
  9
$ELEVATION
 40
0.0
  9
$PELEVATION
 40
0.0
  9
$THICKNESS
 40
0.0
  9
$LIMCHECK
 70
     0
  9
$CHAMFERA
 40
0.5
  9
$CHAMFERB
 40
0.5
  9
$CHAMFERC
 40
1.0
  9
$CHAMFERD
 40
0.0
  9
$SKPOLY
 70
     0
  9
$TDCREATE
 40
2456153.390487454
  9
$TDUCREATE
 40
2456153.640487454
  9
$TDUPDATE
 40
2456153.390487465
  9
$TDUUPDATE
 40
2456153.640487465
  9
$TDINDWG
 40
0.0000000116
  9
$TDUSRTIMER
 40
0.0000000116
  9
$USRTIMER
 70
     1
  9
$ANGBASE
 50
0.0
  9
$ANGDIR
 70
     0
  9
$PDMODE
 70
     0
  9
$PDSIZE
 40
0.0
  9
$PLINEWID
 40
0.0
  9
$SPLFRAME
 70
     0
  9
$SPLINETYPE
 70
     6
  9
$SPLINESEGS
 70
     8
  9
$HANDSEED
  5
566
  9
$SURFTAB1
 70
     6
  9
$SURFTAB2
 70
     6
  9
$SURFTYPE
 70
     6
  9
$SURFU
 70
     6
  9
$SURFV
 70
     6
  9
$UCSBASE
  2

  9
$UCSNAME
  2

  9
$UCSORG
 10
0.0
 20
0.0
 30
0.0
  9
$UCSXDIR
 10
1.0
 20
0.0
 30
0.0
  9
$UCSYDIR
 10
0.0
 20
1.0
 30
0.0
  9
$UCSORTHOREF
  2

  9
$UCSORTHOVIEW
 70
     0
  9
$UCSORGTOP
 10
0.0
 20
0.0
 30
0.0
  9
$UCSORGBOTTOM
 10
0.0
 20
0.0
 30
0.0
  9
$UCSORGLEFT
 10
0.0
 20
0.0
 30
0.0
  9
$UCSORGRIGHT
 10
0.0
 20
0.0
 30
0.0
  9
$UCSORGFRONT
 10
0.0
 20
0.0
 30
0.0
  9
$UCSORGBACK
 10
0.0
 20
0.0
 30
0.0
  9
$PUCSBASE
  2

  9
$PUCSNAME
  2

  9
$PUCSORG
 10
0.0
 20
0.0
 30
0.0
  9
$PUCSXDIR
 10
1.0
 20
0.0
 30
0.0
  9
$PUCSYDIR
 10
0.0
 20
1.0
 30
0.0
  9
$PUCSORTHOREF
  2

  9
$PUCSORTHOVIEW
 70
     0
  9
$PUCSORGTOP
 10
0.0
 20
0.0
 30
0.0
  9
$PUCSORGBOTTOM
 10
0.0
 20
0.0
 30
0.0
  9
$PUCSORGLEFT
 10
0.0
 20
0.0
 30
0.0
  9
$PUCSORGRIGHT
 10
0.0
 20
0.0
 30
0.0
  9
$PUCSORGFRONT
 10
0.0
 20
0.0
 30
0.0
  9
$PUCSORGBACK
 10
0.0
 20
0.0
 30
0.0
  9
$USERI1
 70
     0
  9
$USERI2
 70
     0
  9
$USERI3
 70
     0
  9
$USERI4
 70
     0
  9
$USERI5
 70
     0
  9
$USERR1
 40
0.0
  9
$USERR2
 40
0.0
  9
$USERR3
 40
0.0
  9
$USERR4
 40
0.0
  9
$USERR5
 40
0.0
  9
$WORLDVIEW
 70
     1
  9
$SHADEDGE
 70
     3
  9
$SHADEDIF
 70
    70
  9
$TILEMODE
 70
     1
  9
$MAXACTVP
 70
    64
  9
$PINSBASE
 10
0.0
 20
0.0
 30
0.0
  9
$PLIMCHECK
 70
     0
  9
$PEXTMIN
 10
1.000000000000000E+20
 20
1.000000000000000E+20
 30
1.000000000000000E+20
  9
$PEXTMAX
 10
-1.000000000000000E+20
 20
-1.000000000000000E+20
 30
-1.000000000000000E+20
  9
$PLIMMIN
 10
0.0
 20
0.0
  9
$PLIMMAX
 10
12.0
 20
9.0
  9
$UNITMODE
 70
     0
  9
$VISRETAIN
 70
     1
  9
$PLINEGEN
 70
     0
  9
$PSLTSCALE
 70
     1
  9
$TREEDEPTH
 70
  3020
  9
$CMLSTYLE
  2
Standard
  9
$CMLJUST
 70
     0
  9
$CMLSCALE
 40
1.0
  9
$PROXYGRAPHICS
 70
     1
  9
$MEASUREMENT
 70
     0
  9
$CELWEIGHT
370
    -1
  9
$ENDCAPS
280
     0
  9
$JOINSTYLE
280
     0
  9
$LWDISPLAY
290
     0
  9
$INSUNITS
 70
     4
  9
$HYPERLINKBASE
  1

  9
$STYLESHEET
  1

  9
$XEDIT
290
     1
  9
$CEPSNTYPE
380
     0
  9
$PSTYLEMODE
290
     1
  9
$FINGERPRINTGUID
  2
{7DF2FF53-8DAB-4589-8521-DC45BD8BD129}
  9
$VERSIONGUID
  2
{FAEB1C32-E019-11D5-929B-00C0DF256EC4}
  9
$EXTNAMES
290
     1
  9
$PSVPSCALE
 40
0.0
  9
$OLESTARTUP
290
     0
  0
ENDSEC
  0
SECTION
  2
CLASSES
  0
CLASS
  1
ACDBDICTIONARYWDFLT
  2
AcDbDictionaryWithDefault
  3
ObjectDBX Classes
 90
        0
280
     0
281
     0
  0
CLASS
  1
VISUALSTYLE
  2
AcDbVisualStyle
  3
ObjectDBX Classes
 90
     4095
280
     0
281
     0
  0
CLASS
  1
MATERIAL
  2
AcDbMaterial
  3
ObjectDBX Classes
 90
     1153
280
     0
281
     0
  0
CLASS
  1
DICTIONARYVAR
  2
AcDbDictionaryVar
  3
ObjectDBX Classes
 90
        0
280
     0
281
     0
  0
CLASS
  1
ACDBPLACEHOLDER
  2
AcDbPlaceHolder
  3
ObjectDBX Classes
 90
        0
280
     0
281
     0
  0
CLASS
  1
LAYOUT
  2
AcDbLayout
  3
ObjectDBX Classes
 90
        0
280
     0
281
     0
  0
ENDSEC
  0
SECTION
  2
TABLES
  0
TABLE
  2
VPORT
  5
8
330
0
100
AcDbSymbolTable
 70
     1
  0
VPORT
  5
29
330
8
100
AcDbSymbolTableRecord
100
AcDbViewportTableRecord
  2
*Active
 70
     0
 10
0.0
 20
0.0
 11
1.0
 21
1.0
 12
-2.640461154541027
 22
26.38145275814304
 13
0.0
 23
0.0
 14
0.5
 24
0.5
 15
0.5
 25
0.5
 16
0.0
 26
0.0
 36
1.0
 17
0.0
 27
0.0
 37
0.0
 40
58.03919941960775
 41
0.3059442055235186
 42
50.0
 43
0.0
 44
0.0
 50
0.0
 51
0.0
 71
     0
 72
   100
 73
     1
 74
     3
 75
     0
 76
     0
 77
     0
 78
     0
281
     0
 65
     1
110
0.0
120
0.0
130
0.0
111
1.0
121
0.0
131
0.0
112
0.0
122
1.0
132
0.0
 79
     0
146
0.0
  0
ENDTAB
  0
TABLE
  2
LTYPE
  5
5
330
0
100
AcDbSymbolTable
 70
    10
  0
LTYPE
  5
14
330
5
100
AcDbSymbolTableRecord
100
AcDbLinetypeTableRecord
  2
ByBlock
 70
     0
  3

 72
    65
 73
     0
 40
0.0
  0
LTYPE
  5
15
330
5
100
AcDbSymbolTableRecord
100
AcDbLinetypeTableRecord
  2
ByLayer
 70
     0
  3

 72
    65
 73
     0
 40
0.0
  0
LTYPE
  5
16
330
5
100
AcDbSymbolTableRecord
100
AcDbLinetypeTableRecord
  2
Continuous
 70
     0
  3
Solid line
 72
    65
 73
     0
 40
0.0
  0
LTYPE
  5
53
330
5
100
AcDbSymbolTableRecord
100
AcDbLinetypeTableRecord
  2
ZIGZAG
 70
     0
  3
/\/\/\/\/\/\/\/\
 72
    65
 73
     4
 40
20.32254
 49
0.00254
 74
     0
 49
-5.08
 74
     4
 75
   131
340
52
 46
5.08
 50
0.0
 44
-5.08
 45
0.0
 49
-10.16
 74
     4
 75
   131
340
52
 46
5.08
 50
180.0
 44
5.08
 45
0.0
 49
-5.08
 74
     0
  0
LTYPE
  5
54
330
5
100
AcDbSymbolTableRecord
100
AcDbLinetypeTableRecord
  2
BATTING
 70
     0
  3
 SSSSSSSSSSSSSSSSSSSSSS
 72
    65
 73
     4
 40
10.16254
 49
0.00254
 74
     0
 49
-2.54
 74
     4
 75
   134
340
52
 46
2.54
 50
0.0
 44
-2.54
 45
0.0
 49
-5.08
 74
     4
 75
   134
340
52
 46
2.54
 50
180.0
 44
2.54
 45
0.0
 49
-2.54
 74
     0
  0
LTYPE
  5
55
330
5
100
AcDbSymbolTableRecord
100
AcDbLinetypeTableRecord
  2
DASHDOT
 70
     0
  3
DASHDOT
 72
    65
 73
     4
 40
1.0
 49
0.5
 74
     0
 49
-0.25
 74
     0
 49
0.0001
 74
     0
 49
-0.25
 74
     0
  0
LTYPE
  5
56
330
5
100
AcDbSymbolTableRecord
100
AcDbLinetypeTableRecord
  2
DASHDOTX2
 70
     0
  3
DASHDOTX2
 72
    65
 73
     4
 40
1.0
 49
1.0
 74
     0
 49
-0.5
 74
     0
 49
0.0002
 74
     0
 49
-0.5
 74
     0
  0
LTYPE
  5
57
330
5
100
AcDbSymbolTableRecord
100
AcDbLinetypeTableRecord
  2
DASHED
 70
     0
  3
DASHED
 72
    65
 73
     2
 40
0.75
 49
0.5
 74
     0
 49
-0.25
 74
     0
  0
LTYPE
  5
58
330
5
100
AcDbSymbolTableRecord
100
AcDbLinetypeTableRecord
  2
TRACKS
 70
     0
  3
TRACKS
 72
    65
 73
     2
 40
7.62
 49
3.81
 74
     0
 49
3.81
 74
     0
  0
LTYPE
  5
59
330
5
100
AcDbSymbolTableRecord
100
AcDbLinetypeTableRecord
  2
DOT
 70
     0
  3
DOT
 72
    65
 73
     2
 40
0.25
 49
0.0001
 74
     0
 49
-0.25
 74
     0
  0
LTYPE
  5
5A
330
5
100
AcDbSymbolTableRecord
100
AcDbLinetypeTableRecord
  2
DIVIDE
 70
     0
  3
DIVIDE
 72
    65
 73
     6
 40
1.25
 49
0.5
 74
     0
 49
-0.25
 74
     0
 49
0.0001
 74
     0
 49
-0.25
 74
     0
 49
0.0001
 74
     0
 49
-0.25
 74
     0
  0
LTYPE
  5
5B
330
5
100
AcDbSymbolTableRecord
100
AcDbLinetypeTableRecord
  2
PHANTOM
 70
     0
  3
PHANTOM
 72
    65
 73
     6
 40
2.5
 49
1.25
 74
     0
 49
-0.25
 74
     0
 49
0.25
 74
     0
 49
-0.25
 74
     0
 49
0.25
 74
     0
 49
-0.25
 74
     0
  0
ENDTAB
  0
TABLE
  2
LAYER
  5
2
330
0
100
AcDbSymbolTable
 70
   249
  0
LAYER
  5
10
330
2
100
AcDbSymbolTableRecord
100
AcDbLayerTableRecord
  2
0
 70
     0
 62
     7
  6
Continuous
370
    35
390
F
  0
LAYER
  5
5C
330
2
100
AcDbSymbolTableRecord
100
AcDbLayerTableRecord
  2
DETAILS
 70
     0
 62
     7
  6
Continuous
370
    35
390
F
  0
LAYER
  5
5D
330
2
100
AcDbSymbolTableRecord
100
AcDbLayerTableRecord
  2
2 Drafting Aux Lines
 70
     0
 62
     7
  6
Continuous
370
    35
390
F
  0
LAYER
  5
5E
330
2
100
AcDbSymbolTableRecord
100
AcDbLayerTableRecord
  2
3 Texts
 70
     0
 62
     7
  6
Continuous
370
    35
390
F
  0
LAYER
  5
5F
330
2
100
AcDbSymbolTableRecord
100
AcDbLayerTableRecord
  2
4 Dimensions
 70
     0
 62
     7
  6
Continuous
370
    35
390
F
  0
LAYER
  5
60
330
2
100
AcDbSymbolTableRecord
100
AcDbLayerTableRecord
  2
5 Hatches
 70
     0
 62
     7
  6
Continuous
370
    35
390
F
  0
LAYER
  5
61
330
2
100
AcDbSymbolTableRecord
100
AcDbLayerTableRecord
  2
6 Drawing Origin Marker
 70
     0
 62
     7
  6
Continuous
370
    35
390
F
  0
LAYER
  5
62
330
2
100
AcDbSymbolTableRecord
100
AcDbLayerTableRecord
  2
7 Sheet
 70
     0
 62
     7
  6
Continuous
370
    35
390
F
  0
LAYER
  5
63
330
2
100
AcDbSymbolTableRecord
100
AcDbLayerTableRecord
  2
8 Other
 70
     0
 62
     7
  6
Continuous
370
    35
390
F
  0
LAYER
  5
64
330
2
100
AcDbSymbolTableRecord
100
AcDbLayerTableRecord
  2
9 Never-Hiding Lines
 70
     0
 62
     7
  6
Continuous
370
    35
390
F
  0
LAYER
  5
65
330
2
100
AcDbSymbolTableRecord
100
AcDbLayerTableRecord
  2
10 Raster Images
 70
     0
 62
     7
  6
Continuous
370
    35
390
F
  0
LAYER
  5
66
330
2
100
AcDbSymbolTableRecord
100
AcDbLayerTableRecord
  2
11 Wall Rough Frame
 70
     0
 62
     7
  6
Continuous
370
    35
390
F
  0
LAYER
  5
67
330
2
100
AcDbSymbolTableRecord
100
AcDbLayerTableRecord
  2
12 Wall Ext Surface
 70
     0
 62
     7
  6
Continuous
370
    35
390
F
  0
LAYER
  5
68
330
2
100
AcDbSymbolTableRecord
100
AcDbLayerTableRecord
  2
13 Wall Int Surface
 70
     0
 62
     7
  6
Continuous
370
    35
390
F
  0
LAYER
  5
69
330
2
100
AcDbSymbolTableRecord
100
AcDbLayerTableRecord
  2
14 Wall Other Lines
 70
     0
 62
     7
  6
Continuous
370
    35
390
F
  0
LAYER
  5
6A
330
2
100
AcDbSymbolTableRecord
100
AcDbLayerTableRecord
  2
16 Wall Insulation
 70
     0
 62
     7
  6
Continuous
370
    35
390
F
  0
LAYER
  5
6B
330
2
100
AcDbSymbolTableRecord
100
AcDbLayerTableRecord
  2
17 Wall Framing Lines
 70
     0
 62
     7
  6
Continuous
370
    35
390
F
  0
LAYER
  5
6C
330
2
100
AcDbSymbolTableRecord
100
AcDbLayerTableRecord
  2
18 Wall Bottom Plate
 70
     0
 62
     7
  6
Continuous
370
    35
390
F
  0
LAYER
  5
6D
330
2
100
AcDbSymbolTableRecord
100
AcDbLayerTableRecord
  2
19 Wall Hatch Patterns
 70
     0
 62
     7
  6
Continuous
370
    35
390
F
  0
LAYER
  5
6E
330
2
100
AcDbSymbolTableRecord
100
AcDbLayerTableRecord
  2
20 Wall_ Space Divider
 70
     0
 62
     7
  6
Continuous
370
    35
390
F
  0
LAYER
  5
6F
330
2
100
AcDbSymbolTableRecord
100
AcDbLayerTableRecord
  2
21 Foundation
 70
     0
 62
     7
  6
Continuous
370
    35
390
F
  0
LAYER
  5
70
330
2
100
AcDbSymbolTableRecord
100
AcDbLayerTableRecord
  2
22 Fill (Color)
 70
     0
 62
     7
  6
Continuous
370
    35
390
F
  0
LAYER
  5
71
330
2
100
AcDbSymbolTableRecord
100
AcDbLayerTableRecord
  2
23 Foundation Hatch
 70
     0
 62
     7
  6
Continuous
370
    35
390
F
  0
LAYER
  5
72
330
2
100
AcDbSymbolTableRecord
100
AcDbLayerTableRecord
  2
24 Module lines (grid)
 70
     0
 62
     7
  6
Continuous
370
    35
390
F
  0
LAYER
  5
73
330
2
100
AcDbSymbolTableRecord
100
AcDbLayerTableRecord
  2
25 Opening Labels
 70
     0
 62
     7
  6
Continuous
370
    35
390
F
  0
LAYER
  5
74
330
2
100
AcDbSymbolTableRecord
100
AcDbLayerTableRecord
  2
26 Openings Windows
 70
     0
 62
     7
  6
Continuous
370
    35
390
F
  0
LAYER
  5
75
330
2
100
AcDbSymbolTableRecord
100
AcDbLayerTableRecord
  2
27 Openings Doors
 70
     0
 62
     7
  6
Continuous
370
    35
390
F
  0
LAYER
  5
76
330
2
100
AcDbSymbolTableRecord
100
AcDbLayerTableRecord
  2
28 Openings Other
 70
     0
 62
     7
  6
Continuous
370
    35
390
F
  0
LAYER
  5
77
330
2
100
AcDbSymbolTableRecord
100
AcDbLayerTableRecord
  2
31 Wall Color Fill
 70
     0
 62
     7
  6
Continuous
370
    35
390
F
  0
LAYER
  5
78
330
2
100
AcDbSymbolTableRecord
100
AcDbLayerTableRecord
  2
32 Wall Center Line
 70
     0
 62
     7
  6
Continuous
370
    35
390
F
  0
LAYER
  5
79
330
2
100
AcDbSymbolTableRecord
100
AcDbLayerTableRecord
  2
33 Opening Sheet Labels
 70
     0
 62
    -7
  6
Continuous
370
    35
390
F
  0
LAYER
  5
7A
330
2
100
AcDbSymbolTableRecord
100
AcDbLayerTableRecord
  2
34 Outdoor Components
 70
     0
 62
     7
  6
Continuous
370
    35
390
F
  0
LAYER
  5
7B
330
2
100
AcDbSymbolTableRecord
100
AcDbLayerTableRecord
  2
35 Lawn Furniture
 70
     0
 62
     7
  6
Continuous
370
    35
390
F
  0
LAYER
  5
7C
330
2
100
AcDbSymbolTableRecord
100
AcDbLayerTableRecord
  2
36 Furniture
 70
     0
 62
     7
  6
Continuous
370
    35
390
F
  0
LAYER
  5
7D
330
2
100
AcDbSymbolTableRecord
100
AcDbLayerTableRecord
  2
37 Extra Materials
 70
     0
 62
     7
  6
Continuous
370
    35
390
F
  0
LAYER
  5
7E
330
2
100
AcDbSymbolTableRecord
100
AcDbLayerTableRecord
  2
38 Furniture markings
 70
     0
 62
     7
  6
Continuous
370
    35
390
F
  0
LAYER
  5
7F
330
2
100
AcDbSymbolTableRecord
100
AcDbLayerTableRecord
  2
39 Furniture labels
 70
     0
 62
     7
  6
Continuous
370
    35
390
F
  0
LAYER
  5
80
330
2
100
AcDbSymbolTableRecord
100
AcDbLayerTableRecord
  2
40 Floor Shape Lines
 70
     0
 62
     7
  6
Continuous
370
    35
390
F
  0
LAYER
  5
81
330
2
100
AcDbSymbolTableRecord
100
AcDbLayerTableRecord
  2
41 Surface Hatch
 70
     0
 62
     7
  6
Continuous
370
    35
390
F
  0
LAYER
  5
82
330
2
100
AcDbSymbolTableRecord
100
AcDbLayerTableRecord
  2
42 Framing Pieces
 70
     0
 62
     7
  6
Continuous
370
    35
390
F
  0
LAYER
  5
83
330
2
100
AcDbSymbolTableRecord
100
AcDbLayerTableRecord
  2
43 Piece Labels
 70
     0
 62
     7
  6
Continuous
370
    35
390
F
  0
LAYER
  5
84
330
2
100
AcDbSymbolTableRecord
100
AcDbLayerTableRecord
  2
44 Piece Schedules
 70
     0
 62
     7
  6
Continuous
370
    35
390
F
  0
LAYER
  5
85
330
2
100
AcDbSymbolTableRecord
100
AcDbLayerTableRecord
  2
45 Pan.Layout Center Lns
 70
     0
 62
     7
  6
Continuous
370
    35
390
F
  0
LAYER
  5
86
330
2
100
AcDbSymbolTableRecord
100
AcDbLayerTableRecord
  2
46 2nd Pan.CL
 70
     0
 62
     7
  6
Continuous
370
    35
390
F
  0
LAYER
  5
87
330
2
100
AcDbSymbolTableRecord
100
AcDbLayerTableRecord
  2
47 Outlines
 70
     0
 62
     7
  6
Continuous
370
    35
390
F
  0
LAYER
  5
88
330
2
100
AcDbSymbolTableRecord
100
AcDbLayerTableRecord
  2
48 Labels
 70
     0
 62
     7
  6
Continuous
370
    35
390
F
  0
LAYER
  5
89
330
2
100
AcDbSymbolTableRecord
100
AcDbLayerTableRecord
  2
49 Assembly
 70
     0
 62
     7
  6
Continuous
370
    35
390
F
  0
LAYER
  5
8A
330
2
100
AcDbSymbolTableRecord
100
AcDbLayerTableRecord
  2
50 Ceiling Shape Lines
 70
     0
 62
     7
  6
Continuous
370
    35
390
F
  0
LAYER
  5
8B
330
2
100
AcDbSymbolTableRecord
100
AcDbLayerTableRecord
  2
51 Surface Hatch
 70
     0
 62
     7
  6
Continuous
370
    35
390
F
  0
LAYER
  5
8C
330
2
100
AcDbSymbolTableRecord
100
AcDbLayerTableRecord
  2
52 Framing Pieces
 70
     0
 62
     7
  6
Continuous
370
    35
390
F
  0
LAYER
  5
8D
330
2
100
AcDbSymbolTableRecord
100
AcDbLayerTableRecord
  2
53 Piece Labels
 70
     0
 62
     7
  6
Continuous
370
    35
390
F
  0
LAYER
  5
8E
330
2
100
AcDbSymbolTableRecord
100
AcDbLayerTableRecord
  2
54 Structural Design Labels
 70
     0
 62
     7
  6
Continuous
370
    35
390
F
  0
LAYER
  5
8F
330
2
100
AcDbSymbolTableRecord
100
AcDbLayerTableRecord
  2
55 Room Labels
 70
     0
 62
     7
  6
Continuous
370
    35
390
F
  0
LAYER
  5
90
330
2
100
AcDbSymbolTableRecord
100
AcDbLayerTableRecord
  2
56 Room Hatch
 70
     0
 62
    -7
  6
Continuous
370
    35
390
F
  0
LAYER
  5
91
330
2
100
AcDbSymbolTableRecord
100
AcDbLayerTableRecord
  2
57 Floor Area
 70
     0
 62
     7
  6
Continuous
370
    35
390
F
  0
LAYER
  5
92
330
2
100
AcDbSymbolTableRecord
100
AcDbLayerTableRecord
  2
58 Total Floor Area
 70
     0
 62
     7
  6
Continuous
370
    35
390
F
  0
LAYER
  5
93
330
2
100
AcDbSymbolTableRecord
100
AcDbLayerTableRecord
  2
59 Component color fill
 70
     0
 62
     7
  6
Continuous
370
    35
390
F
  0
LAYER
  5
94
330
2
100
AcDbSymbolTableRecord
100
AcDbLayerTableRecord
  2
60 Electrical Symbols
 70
     0
 62
     7
  6
Continuous
370
    35
390
F
  0
LAYER
  5
95
330
2
100
AcDbSymbolTableRecord
100
AcDbLayerTableRecord
  2
61 Cables
 70
     0
 62
     7
  6
Continuous
370
    35
390
F
  0
LAYER
  5
96
330
2
100
AcDbSymbolTableRecord
100
AcDbLayerTableRecord
  2
62 Legend
 70
     0
 62
     7
  6
Continuous
370
    35
390
F
  0
LAYER
  5
97
330
2
100
AcDbSymbolTableRecord
100
AcDbLayerTableRecord
  2
63 Text & Dimensions
 70
     0
 62
     7
  6
Continuous
370
    35
390
F
  0
LAYER
  5
98
330
2
100
AcDbSymbolTableRecord
100
AcDbLayerTableRecord
  2
64 Ceiling Lights
 70
     0
 62
     7
  6
Continuous
370
    35
390
F
  0
LAYER
  5
99
330
2
100
AcDbSymbolTableRecord
100
AcDbLayerTableRecord
  2
65 HVAC Symbols
 70
     0
 62
     7
  6
Continuous
370
    35
390
F
  0
LAYER
  5
9A
330
2
100
AcDbSymbolTableRecord
100
AcDbLayerTableRecord
  2
66 Piping
 70
     0
 62
     7
  6
Continuous
370
    35
390
F
  0
LAYER
  5
9B
330
2
100
AcDbSymbolTableRecord
100
AcDbLayerTableRecord
  2
67 Legend
 70
     0
 62
     7
  6
Continuous
370
    35
390
F
  0
LAYER
  5
9C
330
2
100
AcDbSymbolTableRecord
100
AcDbLayerTableRecord
  2
68 Text & Dimensions
 70
     0
 62
     7
  6
Continuous
370
    35
390
F
  0
LAYER
  5
9D
330
2
100
AcDbSymbolTableRecord
100
AcDbLayerTableRecord
  2
69 HVAC fittings and furnitures
 70
     0
 62
     7
  6
Continuous
370
    35
390
F
  0
LAYER
  5
9E
330
2
100
AcDbSymbolTableRecord
100
AcDbLayerTableRecord
  2
70 Plumbing Symbols
 70
     0
 62
     7
  6
Continuous
370
    35
390
F
  0
LAYER
  5
9F
330
2
100
AcDbSymbolTableRecord
100
AcDbLayerTableRecord
  2
71 Piping
 70
     0
 62
     7
  6
Continuous
370
    35
390
F
  0
LAYER
  5
A0
330
2
100
AcDbSymbolTableRecord
100
AcDbLayerTableRecord
  2
72 Legend
 70
     0
 62
     7
  6
Continuous
370
    35
390
F
  0
LAYER
  5
A1
330
2
100
AcDbSymbolTableRecord
100
AcDbLayerTableRecord
  2
73 Text & Dimensions
 70
     0
 62
     7
  6
Continuous
370
    35
390
F
  0
LAYER
  5
A2
330
2
100
AcDbSymbolTableRecord
100
AcDbLayerTableRecord
  2
74 Texts of the Stairs
 70
     0
 62
     7
  6
Continuous
370
    35
390
F
  0
LAYER
  5
A3
330
2
100
AcDbSymbolTableRecord
100
AcDbLayerTableRecord
  2
75 Appliances
 70
     0
 62
     7
  6
Continuous
370
    35
390
F
  0
LAYER
  5
A4
330
2
100
AcDbSymbolTableRecord
100
AcDbLayerTableRecord
  2
76 Cabinets & Vanities
 70
     0
 62
     7
  6
Continuous
370
    35
390
F
  0
LAYER
  5
A5
330
2
100
AcDbSymbolTableRecord
100
AcDbLayerTableRecord
  2
77 Texts
 70
     0
 62
     7
  6
Continuous
370
    35
390
F
  0
LAYER
  5
A6
330
2
100
AcDbSymbolTableRecord
100
AcDbLayerTableRecord
  2
78 Dimensions
 70
     0
 62
     7
  6
Continuous
370
    35
390
F
  0
LAYER
  5
A7
330
2
100
AcDbSymbolTableRecord
100
AcDbLayerTableRecord
  2
79 Hardware
 70
     0
 62
     7
  6
Continuous
370
    35
390
F
  0
LAYER
  5
A8
330
2
100
AcDbSymbolTableRecord
100
AcDbLayerTableRecord
  2
80 Countertop
 70
     0
 62
     7
  6
Continuous
370
    35
390
F
  0
LAYER
  5
A9
330
2
100
AcDbSymbolTableRecord
100
AcDbLayerTableRecord
  2
81 Countertop Hatch
 70
     0
 62
    -7
  6
Continuous
370
    35
390
F
  0
LAYER
  5
AA
330
2
100
AcDbSymbolTableRecord
100
AcDbLayerTableRecord
  2
82 Stairs
 70
     0
 62
     7
  6
Continuous
370
    35
390
F
  0
LAYER
  5
AB
330
2
100
AcDbSymbolTableRecord
100
AcDbLayerTableRecord
  2
83 Railings
 70
     0
 62
     7
  6
Continuous
370
    35
390
F
  0
LAYER
  5
AC
330
2
100
AcDbSymbolTableRecord
100
AcDbLayerTableRecord
  2
84 Fireplaces
 70
     0
 62
     7
  6
Continuous
370
    35
390
F
  0
LAYER
  5
AD
330
2
100
AcDbSymbolTableRecord
100
AcDbLayerTableRecord
  2
85 Bulkheads
 70
     0
 62
     7
  6
Continuous
370
    35
390
F
  0
LAYER
  5
AE
330
2
100
AcDbSymbolTableRecord
100
AcDbLayerTableRecord
  2
86 Closet Shelving
 70
     0
 62
     7
  6
Continuous
370
    35
390
F
  0
LAYER
  5
AF
330
2
100
AcDbSymbolTableRecord
100
AcDbLayerTableRecord
  2
87 Chimneys
 70
     0
 62
     7
  6
Continuous
370
    35
390
F
  0
LAYER
  5
B0
330
2
100
AcDbSymbolTableRecord
100
AcDbLayerTableRecord
  2
88 Additional components_ decorations etc
 70
     0
 62
     7
  6
Continuous
370
    35
390
F
  0
LAYER
  5
B1
330
2
100
AcDbSymbolTableRecord
100
AcDbLayerTableRecord
  2
89 Constr.Det.Macros
 70
     0
 62
     7
  6
Continuous
370
    35
390
F
  0
LAYER
  5
B2
330
2
100
AcDbSymbolTableRecord
100
AcDbLayerTableRecord
  2
90 Section marks
 70
     0
 62
     7
  6
Continuous
370
    35
390
F
  0
LAYER
  5
B3
330
2
100
AcDbSymbolTableRecord
100
AcDbLayerTableRecord
  2
91 Profile Detailing
 70
     0
 62
     7
  6
Continuous
370
    35
390
F
  0
LAYER
  5
B4
330
2
100
AcDbSymbolTableRecord
100
AcDbLayerTableRecord
  2
92 Dimension Constraints
 70
     0
 62
     7
  6
Continuous
370
    35
390
F
  0
LAYER
  5
B5
330
2
100
AcDbSymbolTableRecord
100
AcDbLayerTableRecord
  2
93 Dashing Ground Line
 70
     0
 62
     7
  6
Continuous
370
    35
390
F
  0
LAYER
  5
B6
330
2
100
AcDbSymbolTableRecord
100
AcDbLayerTableRecord
  2
94 Clipping Ground Line
 70
     0
 62
     7
  6
Continuous
370
    35
390
F
  0
LAYER
  5
B7
330
2
100
AcDbSymbolTableRecord
100
AcDbLayerTableRecord
  2
95 Shadows
 70
     0
 62
     7
  6
Continuous
370
    35
390
F
  0
LAYER
  5
B8
330
2
100
AcDbSymbolTableRecord
100
AcDbLayerTableRecord
  2
96 Elev. Color Fill
 70
     0
 62
     7
  6
Continuous
370
    35
390
F
  0
LAYER
  5
B9
330
2
100
AcDbSymbolTableRecord
100
AcDbLayerTableRecord
  2
97 Simplifying lines
 70
     0
 62
     7
  6
Continuous
370
    35
390
F
  0
LAYER
  5
BA
330
2
100
AcDbSymbolTableRecord
100
AcDbLayerTableRecord
  2
98 Floor Area Text
 70
     0
 62
     7
  6
Continuous
370
    35
390
F
  0
LAYER
  5
BB
330
2
100
AcDbSymbolTableRecord
100
AcDbLayerTableRecord
  2
099
 70
     0
 62
    -7
  6
Continuous
370
    35
390
F
  0
LAYER
  5
BC
330
2
100
AcDbSymbolTableRecord
100
AcDbLayerTableRecord
  2
100
 70
     0
 62
    -7
  6
Continuous
370
    35
390
F
  0
LAYER
  5
BD
330
2
100
AcDbSymbolTableRecord
100
AcDbLayerTableRecord
  2
102
 70
     0
 62
    -7
  6
Continuous
370
    35
390
F
  0
LAYER
  5
BE
330
2
100
AcDbSymbolTableRecord
100
AcDbLayerTableRecord
  2
103 Roof Shape Lines
 70
     0
 62
     7
  6
Continuous
370
    35
390
F
  0
LAYER
  5
BF
330
2
100
AcDbSymbolTableRecord
100
AcDbLayerTableRecord
  2
104 Roof Hatch Patterns
 70
     0
 62
     7
  6
Continuous
370
    35
390
F
  0
LAYER
  5
C0
330
2
100
AcDbSymbolTableRecord
100
AcDbLayerTableRecord
  2
105 Framing Pieces
 70
     0
 62
     7
  6
Continuous
370
    35
390
F
  0
LAYER
  5
C1
330
2
100
AcDbSymbolTableRecord
100
AcDbLayerTableRecord
  2
106 Piece Labels
 70
     0
 62
     7
  6
Continuous
370
    35
390
F
  0
LAYER
  5
C2
330
2
100
AcDbSymbolTableRecord
100
AcDbLayerTableRecord
  2
107 Grilles
 70
     0
 62
     7
  6
Continuous
370
    35
390
F
  0
LAYER
  5
C3
330
2
100
AcDbSymbolTableRecord
100
AcDbLayerTableRecord
  2
108 Eave Lines
 70
     0
 62
     7
  6
Continuous
370
    35
390
F
  0
LAYER
  5
C4
330
2
100
AcDbSymbolTableRecord
100
AcDbLayerTableRecord
  2
109 Soffits
 70
     0
 62
     7
  6
Continuous
370
    35
390
F
  0
LAYER
  5
C5
330
2
100
AcDbSymbolTableRecord
100
AcDbLayerTableRecord
  2
110 Window_Door Trim
 70
     0
 62
     7
  6
Continuous
370
    35
390
F
  0
LAYER
  5
C6
330
2
100
AcDbSymbolTableRecord
100
AcDbLayerTableRecord
  2
111 Window Grilles
 70
     0
 62
     7
  6
Continuous
370
    35
390
F
  0
LAYER
  5
C7
330
2
100
AcDbSymbolTableRecord
100
AcDbLayerTableRecord
  2
112 Window Shutters
 70
     0
 62
     7
  6
Continuous
370
    35
390
F
  0
LAYER
  5
C8
330
2
100
AcDbSymbolTableRecord
100
AcDbLayerTableRecord
  2
113 Corner Trim
 70
     0
 62
     7
  6
Continuous
370
    35
390
F
  0
LAYER
  5
C9
330
2
100
AcDbSymbolTableRecord
100
AcDbLayerTableRecord
  2
114 Louver Vents
 70
     0
 62
     7
  6
Continuous
370
    35
390
F
  0
LAYER
  5
CA
330
2
100
AcDbSymbolTableRecord
100
AcDbLayerTableRecord
  2
115 Edge Line of 2D-Based Opening Trim
 70
     0
 62
     7
  6
Continuous
370
    35
390
F
  0
LAYER
  5
CB
330
2
100
AcDbSymbolTableRecord
100
AcDbLayerTableRecord
  2
116 Hole Line of 2D-Based Opening Trim
 70
     0
 62
     7
  6
Continuous
370
    35
390
F
  0
LAYER
  5
CC
330
2
100
AcDbSymbolTableRecord
100
AcDbLayerTableRecord
  2
117 Roof Accessories
 70
     0
 62
     7
  6
Continuous
370
    35
390
F
  0
LAYER
  5
CD
330
2
100
AcDbSymbolTableRecord
100
AcDbLayerTableRecord
  2
118
 70
     0
 62
    -7
  6
Continuous
370
    35
390
F
  0
LAYER
  5
CE
330
2
100
AcDbSymbolTableRecord
100
AcDbLayerTableRecord
  2
119
 70
     0
 62
    -7
  6
Continuous
370
    35
390
F
  0
LAYER
  5
CF
330
2
100
AcDbSymbolTableRecord
100
AcDbLayerTableRecord
  2
120
 70
     0
 62
    -7
  6
Continuous
370
    35
390
F
  0
LAYER
  5
D0
330
2
100
AcDbSymbolTableRecord
100
AcDbLayerTableRecord
  2
121 Beam Pocket Symbols
 70
     0
 62
     7
  6
Continuous
370
    35
390
F
  0
LAYER
  5
D1
330
2
100
AcDbSymbolTableRecord
100
AcDbLayerTableRecord
  2
122 Beam Lines & Labels
 70
     0
 62
     7
  6
Continuous
370
    35
390
F
  0
LAYER
  5
D2
330
2
100
AcDbSymbolTableRecord
100
AcDbLayerTableRecord
  2
123 Column Sym & Labels
 70
     0
 62
     7
  6
Continuous
370
    35
390
F
  0
LAYER
  5
D3
330
2
100
AcDbSymbolTableRecord
100
AcDbLayerTableRecord
  2
124 Beam Center Lines
 70
     0
 62
     7
  6
Continuous
370
    35
390
F
  0
LAYER
  5
D4
330
2
100
AcDbSymbolTableRecord
100
AcDbLayerTableRecord
  2
125 Form Text
 70
     0
 62
     7
  6
Continuous
370
    35
390
F
  0
LAYER
  5
D5
330
2
100
AcDbSymbolTableRecord
100
AcDbLayerTableRecord
  2
126 Form Outer
 70
     0
 62
     7
  6
Continuous
370
    35
390
F
  0
LAYER
  5
D6
330
2
100
AcDbSymbolTableRecord
100
AcDbLayerTableRecord
  2
127 Form Inner
 70
     0
 62
     7
  6
Continuous
370
    35
390
F
  0
LAYER
  5
D7
330
2
100
AcDbSymbolTableRecord
100
AcDbLayerTableRecord
  2
128 Form Name
 70
     0
 62
     7
  6
Continuous
370
    35
390
F
  0
LAYER
  5
D8
330
2
100
AcDbSymbolTableRecord
100
AcDbLayerTableRecord
  2
129
 70
     0
 62
    -7
  6
Continuous
370
    35
390
F
  0
LAYER
  5
D9
330
2
100
AcDbSymbolTableRecord
100
AcDbLayerTableRecord
  2
130
 70
     0
 62
    -7
  6
Continuous
370
    35
390
F
  0
LAYER
  5
DA
330
2
100
AcDbSymbolTableRecord
100
AcDbLayerTableRecord
  2
131 Translation Spanish
 70
     0
 62
    -7
  6
Continuous
370
    35
390
F
  0
LAYER
  5
DB
330
2
100
AcDbSymbolTableRecord
100
AcDbLayerTableRecord
  2
132 Translation French
 70
     0
 62
    -7
  6
Continuous
370
    35
390
F
  0
LAYER
  5
DC
330
2
100
AcDbSymbolTableRecord
100
AcDbLayerTableRecord
  2
133 Translation German
 70
     0
 62
    -7
  6
Continuous
370
    35
390
F
  0
LAYER
  5
DD
330
2
100
AcDbSymbolTableRecord
100
AcDbLayerTableRecord
  2
134 Translation Finnish
 70
     0
 62
    -7
  6
Continuous
370
    35
390
F
  0
LAYER
  5
DE
330
2
100
AcDbSymbolTableRecord
100
AcDbLayerTableRecord
  2
135
 70
     0
 62
    -7
  6
Continuous
370
    35
390
F
  0
LAYER
  5
DF
330
2
100
AcDbSymbolTableRecord
100
AcDbLayerTableRecord
  2
136
 70
     0
 62
    -7
  6
Continuous
370
    35
390
F
  0
LAYER
  5
E0
330
2
100
AcDbSymbolTableRecord
100
AcDbLayerTableRecord
  2
137
 70
     0
 62
    -7
  6
Continuous
370
    35
390
F
  0
LAYER
  5
E1
330
2
100
AcDbSymbolTableRecord
100
AcDbLayerTableRecord
  2
138
 70
     0
 62
    -7
  6
Continuous
370
    35
390
F
  0
LAYER
  5
E2
330
2
100
AcDbSymbolTableRecord
100
AcDbLayerTableRecord
  2
139
 70
     0
 62
    -7
  6
Continuous
370
    35
390
F
  0
LAYER
  5
E3
330
2
100
AcDbSymbolTableRecord
100
AcDbLayerTableRecord
  2
140 Sheet Area Line
 70
     0
 62
     7
  6
Continuous
370
    35
390
F
  0
LAYER
  5
E4
330
2
100
AcDbSymbolTableRecord
100
AcDbLayerTableRecord
  2
141 Sheet Label
 70
     0
 62
     7
  6
Continuous
370
    35
390
F
  0
LAYER
  5
E5
330
2
100
AcDbSymbolTableRecord
100
AcDbLayerTableRecord
  2
142 Sheet Schedule
 70
     0
 62
     7
  6
Continuous
370
    35
390
F
  0
LAYER
  5
E6
330
2
100
AcDbSymbolTableRecord
100
AcDbLayerTableRecord
  2
143
 70
     0
 62
    -7
  6
Continuous
370
    35
390
F
  0
LAYER
  5
E7
330
2
100
AcDbSymbolTableRecord
100
AcDbLayerTableRecord
  2
144
 70
     0
 62
    -7
  6
Continuous
370
    35
390
F
  0
LAYER
  5
E8
330
2
100
AcDbSymbolTableRecord
100
AcDbLayerTableRecord
  2
145
 70
     0
 62
    -7
  6
Continuous
370
    35
390
F
  0
LAYER
  5
E9
330
2
100
AcDbSymbolTableRecord
100
AcDbLayerTableRecord
  2
146
 70
     0
 62
    -7
  6
Continuous
370
    35
390
F
  0
LAYER
  5
EA
330
2
100
AcDbSymbolTableRecord
100
AcDbLayerTableRecord
  2
147
 70
     0
 62
    -7
  6
Continuous
370
    35
390
F
  0
LAYER
  5
EB
330
2
100
AcDbSymbolTableRecord
100
AcDbLayerTableRecord
  2
148
 70
     0
 62
    -7
  6
Continuous
370
    35
390
F
  0
LAYER
  5
EC
330
2
100
AcDbSymbolTableRecord
100
AcDbLayerTableRecord
  2
149
 70
     0
 62
    -7
  6
Continuous
370
    35
390
F
  0
LAYER
  5
ED
330
2
100
AcDbSymbolTableRecord
100
AcDbLayerTableRecord
  2
150 1st Stud Locations
 70
     0
 62
     7
  6
Continuous
370
    35
390
F
  0
LAYER
  5
EE
330
2
100
AcDbSymbolTableRecord
100
AcDbLayerTableRecord
  2
151 Wall Framing Pieces
 70
     0
 62
     7
  6
Continuous
370
    35
390
F
  0
LAYER
  5
EF
330
2
100
AcDbSymbolTableRecord
100
AcDbLayerTableRecord
  2
152 Wall Framing Pieces_Hidden
 70
     0
 62
     7
  6
Continuous
370
    35
390
F
  0
LAYER
  5
F0
330
2
100
AcDbSymbolTableRecord
100
AcDbLayerTableRecord
  2
153 Siding Boards
 70
     0
 62
     7
  6
Continuous
370
    35
390
F
  0
LAYER
  5
F1
330
2
100
AcDbSymbolTableRecord
100
AcDbLayerTableRecord
  2
154 Openings
 70
     0
 62
     7
  6
Continuous
370
    35
390
F
  0
LAYER
  5
F2
330
2
100
AcDbSymbolTableRecord
100
AcDbLayerTableRecord
  2
155 Internal Sheathing
 70
     0
 62
     7
  6
Continuous
370
    35
390
F
  0
LAYER
  5
F3
330
2
100
AcDbSymbolTableRecord
100
AcDbLayerTableRecord
  2
156 External Sheathing
 70
     0
 62
     7
  6
Continuous
370
    35
390
F
  0
LAYER
  5
F4
330
2
100
AcDbSymbolTableRecord
100
AcDbLayerTableRecord
  2
157 Internal Sec. Sheat.
 70
     0
 62
     7
  6
Continuous
370
    35
390
F
  0
LAYER
  5
F5
330
2
100
AcDbSymbolTableRecord
100
AcDbLayerTableRecord
  2
158 External Sec. Sheat.
 70
     0
 62
     7
  6
Continuous
370
    35
390
F
  0
LAYER
  5
F6
330
2
100
AcDbSymbolTableRecord
100
AcDbLayerTableRecord
  2
159 Insulation
 70
     0
 62
     7
  6
Continuous
370
    35
390
F
  0
LAYER
  5
F7
330
2
100
AcDbSymbolTableRecord
100
AcDbLayerTableRecord
  2
160 Loads
 70
     0
 62
     7
  6
Continuous
370
    35
390
F
  0
LAYER
  5
F8
330
2
100
AcDbSymbolTableRecord
100
AcDbLayerTableRecord
  2
161 Loads
 70
     0
 62
     7
  6
Continuous
370
    35
390
F
  0
LAYER
  5
F9
330
2
100
AcDbSymbolTableRecord
100
AcDbLayerTableRecord
  2
162 Dimensions
 70
     0
 62
     7
  6
Continuous
370
    35
390
F
  0
LAYER
  5
FA
330
2
100
AcDbSymbolTableRecord
100
AcDbLayerTableRecord
  2
163 Backer_
 70
     0
 62
     7
  6
Continuous
370
    35
390
F
  0
LAYER
  5
FB
330
2
100
AcDbSymbolTableRecord
100
AcDbLayerTableRecord
  2
164 Panel Elev._Electr.
 70
     0
 62
    -7
  6
Continuous
370
    35
390
F
  0
LAYER
  5
FC
330
2
100
AcDbSymbolTableRecord
100
AcDbLayerTableRecord
  2
165 Panel Elev._Electr.
 70
     0
 62
    -7
  6
Continuous
370
    35
390
F
  0
LAYER
  5
FD
330
2
100
AcDbSymbolTableRecord
100
AcDbLayerTableRecord
  2
166 Panel Elev._Plmbng
 70
     0
 62
    -7
  6
Continuous
370
    35
390
F
  0
LAYER
  5
FE
330
2
100
AcDbSymbolTableRecord
100
AcDbLayerTableRecord
  2
167 Panel Elev._Plmbng
 70
     0
 62
     7
  6
Continuous
370
    35
390
F
  0
LAYER
  5
FF
330
2
100
AcDbSymbolTableRecord
100
AcDbLayerTableRecord
  2
168 Panel Layout_Backer
 70
     0
 62
     7
  6
Continuous
370
    35
390
F
  0
LAYER
  5
100
330
2
100
AcDbSymbolTableRecord
100
AcDbLayerTableRecord
  2
169 Studs_ Bearing Walls
 70
     0
 62
     7
  6
Continuous
370
    35
390
F
  0
LAYER
  5
101
330
2
100
AcDbSymbolTableRecord
100
AcDbLayerTableRecord
  2
170 Elems in Floor Plan
 70
     0
 62
     7
  6
Continuous
370
    35
390
F
  0
LAYER
  5
102
330
2
100
AcDbSymbolTableRecord
100
AcDbLayerTableRecord
  2
171 Check elem geometry
 70
     0
 62
    -7
  6
Continuous
370
    35
390
F
  0
LAYER
  5
103
330
2
100
AcDbSymbolTableRecord
100
AcDbLayerTableRecord
  2
172 Studs_ Non-Brg Walls
 70
     0
 62
     7
  6
Continuous
370
    35
390
F
  0
LAYER
  5
104
330
2
100
AcDbSymbolTableRecord
100
AcDbLayerTableRecord
  2
173 Panel Pce Label in FP
 70
     0
 62
     7
  6
Continuous
370
    35
390
F
  0
LAYER
  5
105
330
2
100
AcDbSymbolTableRecord
100
AcDbLayerTableRecord
  2
174
 70
     0
 62
    -7
  6
Continuous
370
    35
390
F
  0
LAYER
  5
106
330
2
100
AcDbSymbolTableRecord
100
AcDbLayerTableRecord
  2
175 Profile Color Fills
 70
     0
 62
     7
  6
Continuous
370
    35
390
F
  0
LAYER
  5
107
330
2
100
AcDbSymbolTableRecord
100
AcDbLayerTableRecord
  2
176 Pipe Colorfills
 70
     0
 62
     7
  6
Continuous
370
    35
390
F
  0
LAYER
  5
108
330
2
100
AcDbSymbolTableRecord
100
AcDbLayerTableRecord
  2
177 Bottom Plate in Floor Plan
 70
     0
 62
     7
  6
Continuous
370
    35
390
F
  0
LAYER
  5
109
330
2
100
AcDbSymbolTableRecord
100
AcDbLayerTableRecord
  2
178 Top Plate in Floor Plan
 70
     0
 62
     7
  6
Continuous
370
    35
390
F
  0
LAYER
  5
10A
330
2
100
AcDbSymbolTableRecord
100
AcDbLayerTableRecord
  2
179
 70
     0
 62
    -7
  6
Continuous
370
    35
390
F
  0
LAYER
  5
10B
330
2
100
AcDbSymbolTableRecord
100
AcDbLayerTableRecord
  2
180 Int NB Brick Wall
 70
     0
 62
     7
  6
Continuous
370
    35
390
F
  0
LAYER
  5
10C
330
2
100
AcDbSymbolTableRecord
100
AcDbLayerTableRecord
  2
181 Int NB Brick Wall Hatch
 70
     0
 62
     7
  6
Continuous
370
    35
390
F
  0
LAYER
  5
10D
330
2
100
AcDbSymbolTableRecord
100
AcDbLayerTableRecord
  2
182 Int B Brick Wall
 70
     0
 62
     7
  6
Continuous
370
    35
390
F
  0
LAYER
  5
10E
330
2
100
AcDbSymbolTableRecord
100
AcDbLayerTableRecord
  2
183 Int B Brick Wall Hatch
 70
     0
 62
     7
  6
Continuous
370
    35
390
F
  0
LAYER
  5
10F
330
2
100
AcDbSymbolTableRecord
100
AcDbLayerTableRecord
  2
184
 70
     0
 62
    -7
  6
Continuous
370
    35
390
F
  0
LAYER
  5
110
330
2
100
AcDbSymbolTableRecord
100
AcDbLayerTableRecord
  2
185 Int B Wall Rough Frame
 70
     0
 62
     7
  6
Continuous
370
    35
390
F
  0
LAYER
  5
111
330
2
100
AcDbSymbolTableRecord
100
AcDbLayerTableRecord
  2
186 Int B Wall Surfaces
 70
     0
 62
     7
  6
Continuous
370
    35
390
F
  0
LAYER
  5
112
330
2
100
AcDbSymbolTableRecord
100
AcDbLayerTableRecord
  2
187 Int B Wall Other Lines
 70
     0
 62
     7
  6
Continuous
370
    35
390
F
  0
LAYER
  5
113
330
2
100
AcDbSymbolTableRecord
100
AcDbLayerTableRecord
  2
188 Int B Wall Insulation
 70
     0
 62
     7
  6
Continuous
370
    35
390
F
  0
LAYER
  5
114
330
2
100
AcDbSymbolTableRecord
100
AcDbLayerTableRecord
  2
189 Int B Wall Bottom Plat
 70
     0
 62
    -7
  6
Continuous
370
    35
390
F
  0
LAYER
  5
115
330
2
100
AcDbSymbolTableRecord
100
AcDbLayerTableRecord
  2
190 Int B Wall Hatch Patte
 70
     0
 62
     7
  6
Continuous
370
    35
390
F
  0
LAYER
  5
116
330
2
100
AcDbSymbolTableRecord
100
AcDbLayerTableRecord
  2
191 Hot Water Pipes
 70
     0
 62
     7
  6
Continuous
370
    35
390
F
  0
LAYER
  5
117
330
2
100
AcDbSymbolTableRecord
100
AcDbLayerTableRecord
  2
192 Cold Water Pipes
 70
     0
 62
     7
  6
Continuous
370
    35
390
F
  0
LAYER
  5
118
330
2
100
AcDbSymbolTableRecord
100
AcDbLayerTableRecord
  2
193 Waste Water Pipes
 70
     0
 62
     7
  6
Continuous
370
    35
390
F
  0
LAYER
  5
119
330
2
100
AcDbSymbolTableRecord
100
AcDbLayerTableRecord
  2
194 Gas Pipes
 70
     0
 62
     7
  6
Continuous
370
    35
390
F
  0
LAYER
  5
11A
330
2
100
AcDbSymbolTableRecord
100
AcDbLayerTableRecord
  2
195 Int NB Wall Rough Frame
 70
     0
 62
     7
  6
Continuous
370
    35
390
F
  0
LAYER
  5
11B
330
2
100
AcDbSymbolTableRecord
100
AcDbLayerTableRecord
  2
196 Int NB Wall Surfaces
 70
     0
 62
     7
  6
Continuous
370
    35
390
F
  0
LAYER
  5
11C
330
2
100
AcDbSymbolTableRecord
100
AcDbLayerTableRecord
  2
197 Int NB Wall Other Lines
 70
     0
 62
     7
  6
Continuous
370
    35
390
F
  0
LAYER
  5
11D
330
2
100
AcDbSymbolTableRecord
100
AcDbLayerTableRecord
  2
198 Int NB Wall Insulation
 70
     0
 62
     7
  6
Continuous
370
    35
390
F
  0
LAYER
  5
11E
330
2
100
AcDbSymbolTableRecord
100
AcDbLayerTableRecord
  2
199 Int NB Wall Bottom Plat
 70
     0
 62
    -7
  6
Continuous
370
    35
390
F
  0
LAYER
  5
11F
330
2
100
AcDbSymbolTableRecord
100
AcDbLayerTableRecord
  2
200 Int NB Wall Hatch Patte
 70
     0
 62
     7
  6
Continuous
370
    35
390
F
  0
LAYER
  5
120
330
2
100
AcDbSymbolTableRecord
100
AcDbLayerTableRecord
  2
201 Utility hole lines
 70
     0
 62
     7
  6
Continuous
370
    35
390
F
  0
LAYER
  5
121
330
2
100
AcDbSymbolTableRecord
100
AcDbLayerTableRecord
  2
202
 70
     0
 62
    -7
  6
Continuous
370
    35
390
F
  0
LAYER
  5
122
330
2
100
AcDbSymbolTableRecord
100
AcDbLayerTableRecord
  2
203
 70
     0
 62
    -7
  6
Continuous
370
    35
390
F
  0
LAYER
  5
123
330
2
100
AcDbSymbolTableRecord
100
AcDbLayerTableRecord
  2
205
 70
     0
 62
    -7
  6
Continuous
370
    35
390
F
  0
LAYER
  5
124
330
2
100
AcDbSymbolTableRecord
100
AcDbLayerTableRecord
  2
206
 70
     0
 62
    -7
  6
Continuous
370
    35
390
F
  0
LAYER
  5
125
330
2
100
AcDbSymbolTableRecord
100
AcDbLayerTableRecord
  2
207
 70
     0
 62
    -7
  6
Continuous
370
    35
390
F
  0
LAYER
  5
126
330
2
100
AcDbSymbolTableRecord
100
AcDbLayerTableRecord
  2
208
 70
     0
 62
    -7
  6
Continuous
370
    35
390
F
  0
LAYER
  5
127
330
2
100
AcDbSymbolTableRecord
100
AcDbLayerTableRecord
  2
210 Joist Hangers
 70
     0
 62
     7
  6
Continuous
370
    35
390
F
  0
LAYER
  5
128
330
2
100
AcDbSymbolTableRecord
100
AcDbLayerTableRecord
  2
211 Hangers_ Schedule and labels
 70
     0
 62
     7
  6
Continuous
370
    35
390
F
  0
LAYER
  5
129
330
2
100
AcDbSymbolTableRecord
100
AcDbLayerTableRecord
  2
212
 70
     0
 62
    -7
  6
Continuous
370
    35
390
F
  0
LAYER
  5
12A
330
2
100
AcDbSymbolTableRecord
100
AcDbLayerTableRecord
  2
213
 70
     0
 62
    -7
  6
Continuous
370
    35
390
F
  0
LAYER
  5
12B
330
2
100
AcDbSymbolTableRecord
100
AcDbLayerTableRecord
  2
214
 70
     0
 62
    -7
  6
Continuous
370
    35
390
F
  0
LAYER
  5
12C
330
2
100
AcDbSymbolTableRecord
100
AcDbLayerTableRecord
  2
215 Special Opening Detail Labels
 70
     0
 62
     7
  6
Continuous
370
    35
390
F
  0
LAYER
  5
12D
330
2
100
AcDbSymbolTableRecord
100
AcDbLayerTableRecord
  2
216
 70
     0
 62
    -7
  6
Continuous
370
    35
390
F
  0
LAYER
  5
12E
330
2
100
AcDbSymbolTableRecord
100
AcDbLayerTableRecord
  2
217
 70
     0
 62
    -7
  6
Continuous
370
    35
390
F
  0
LAYER
  5
12F
330
2
100
AcDbSymbolTableRecord
100
AcDbLayerTableRecord
  2
218 Construction Line
 70
     0
 62
    -7
  6
Continuous
370
    35
390
F
  0
LAYER
  5
130
330
2
100
AcDbSymbolTableRecord
100
AcDbLayerTableRecord
  2
219 Brochure Wall Fill
 70
     0
 62
    -7
  6
Continuous
370
    35
390
F
  0
LAYER
  5
131
330
2
100
AcDbSymbolTableRecord
100
AcDbLayerTableRecord
  2
220 Framing Detail Symbols
 70
     0
 62
     7
  6
Continuous
370
    35
390
F
  0
LAYER
  5
132
330
2
100
AcDbSymbolTableRecord
100
AcDbLayerTableRecord
  2
221 Hangers
 70
     0
 62
     7
  6
Continuous
370
    35
390
F
  0
LAYER
  5
133
330
2
100
AcDbSymbolTableRecord
100
AcDbLayerTableRecord
  2
222 Connectors
 70
     0
 62
     7
  6
Continuous
370
    35
390
F
  0
LAYER
  5
134
330
2
100
AcDbSymbolTableRecord
100
AcDbLayerTableRecord
  2
223 Fillers_ Stiffeners_ Backers and Blocks
 70
     0
 62
     7
  6
Continuous
370
    35
390
F
  0
LAYER
  5
135
330
2
100
AcDbSymbolTableRecord
100
AcDbLayerTableRecord
  2
224 Engineering Labels
 70
     0
 62
     7
  6
Continuous
370
    35
390
F
  0
LAYER
  5
136
330
2
100
AcDbSymbolTableRecord
100
AcDbLayerTableRecord
  2
225 Custom Layer
 70
     0
 62
    -7
  6
Continuous
370
    35
390
F
  0
LAYER
  5
137
330
2
100
AcDbSymbolTableRecord
100
AcDbLayerTableRecord
  2
226 Custom Layer
 70
     0
 62
    -7
  6
Continuous
370
    35
390
F
  0
LAYER
  5
138
330
2
100
AcDbSymbolTableRecord
100
AcDbLayerTableRecord
  2
227 Custom Layer
 70
     0
 62
    -7
  6
Continuous
370
    35
390
F
  0
LAYER
  5
139
330
2
100
AcDbSymbolTableRecord
100
AcDbLayerTableRecord
  2
228 Custom Layer
 70
     0
 62
    -7
  6
Continuous
370
    35
390
F
  0
LAYER
  5
13A
330
2
100
AcDbSymbolTableRecord
100
AcDbLayerTableRecord
  2
229 Custom Layer
 70
     0
 62
    -7
  6
Continuous
370
    35
390
F
  0
LAYER
  5
13B
330
2
100
AcDbSymbolTableRecord
100
AcDbLayerTableRecord
  2
230 Custom Layer
 70
     0
 62
    -7
  6
Continuous
370
    35
390
F
  0
LAYER
  5
13C
330
2
100
AcDbSymbolTableRecord
100
AcDbLayerTableRecord
  2
231 Custom Layer
 70
     0
 62
    -7
  6
Continuous
370
    35
390
F
  0
LAYER
  5
13D
330
2
100
AcDbSymbolTableRecord
100
AcDbLayerTableRecord
  2
232 Custom Layer
 70
     0
 62
    -7
  6
Continuous
370
    35
390
F
  0
LAYER
  5
13E
330
2
100
AcDbSymbolTableRecord
100
AcDbLayerTableRecord
  2
233 Custom Layer
 70
     0
 62
    -7
  6
Continuous
370
    35
390
F
  0
LAYER
  5
13F
330
2
100
AcDbSymbolTableRecord
100
AcDbLayerTableRecord
  2
234 Custom Layer
 70
     0
 62
    -7
  6
Continuous
370
    35
390
F
  0
LAYER
  5
140
330
2
100
AcDbSymbolTableRecord
100
AcDbLayerTableRecord
  2
235 Custom Layer
 70
     0
 62
    -7
  6
Continuous
370
    35
390
F
  0
LAYER
  5
141
330
2
100
AcDbSymbolTableRecord
100
AcDbLayerTableRecord
  2
236 Custom Layer
 70
     0
 62
    -7
  6
Continuous
370
    35
390
F
  0
LAYER
  5
142
330
2
100
AcDbSymbolTableRecord
100
AcDbLayerTableRecord
  2
237 Custom Layer
 70
     0
 62
    -7
  6
Continuous
370
    35
390
F
  0
LAYER
  5
143
330
2
100
AcDbSymbolTableRecord
100
AcDbLayerTableRecord
  2
238 Custom Layer
 70
     0
 62
    -7
  6
Continuous
370
    35
390
F
  0
LAYER
  5
144
330
2
100
AcDbSymbolTableRecord
100
AcDbLayerTableRecord
  2
239 Custom Layer
 70
     0
 62
    -7
  6
Continuous
370
    35
390
F
  0
LAYER
  5
145
330
2
100
AcDbSymbolTableRecord
100
AcDbLayerTableRecord
  2
240
 70
     0
 62
    -7
  6
Continuous
370
    35
390
F
  0
LAYER
  5
146
330
2
100
AcDbSymbolTableRecord
100
AcDbLayerTableRecord
  2
241
 70
     0
 62
    -7
  6
Continuous
370
    35
390
F
  0
LAYER
  5
147
330
2
100
AcDbSymbolTableRecord
100
AcDbLayerTableRecord
  2
242
 70
     0
 62
    -7
  6
Continuous
370
    35
390
F
  0
LAYER
  5
148
330
2
100
AcDbSymbolTableRecord
100
AcDbLayerTableRecord
  2
243
 70
     0
 62
    -7
  6
Continuous
370
    35
390
F
  0
LAYER
  5
149
330
2
100
AcDbSymbolTableRecord
100
AcDbLayerTableRecord
  2
244
 70
     0
 62
    -7
  6
Continuous
370
    35
390
F
  0
LAYER
  5
14A
330
2
100
AcDbSymbolTableRecord
100
AcDbLayerTableRecord
  2
245 Red Pen Markings
 70
     0
 62
     7
  6
Continuous
370
    35
390
F
  0
LAYER
  5
14B
330
2
100
AcDbSymbolTableRecord
100
AcDbLayerTableRecord
  2
246 Red Pen Markings
 70
     0
 62
     7
  6
Continuous
370
    35
390
F
  0
LAYER
  5
14C
330
2
100
AcDbSymbolTableRecord
100
AcDbLayerTableRecord
  2
247 Red Pen Markings
 70
     0
 62
     7
  6
Continuous
370
    35
390
F
  0
LAYER
  5
14D
330
2
100
AcDbSymbolTableRecord
100
AcDbLayerTableRecord
  2
248 Red Pen Markings
 70
     0
 62
     7
  6
Continuous
370
    35
390
F
  0
LAYER
  5
14E
330
2
100
AcDbSymbolTableRecord
100
AcDbLayerTableRecord
  2
249 Red Pen Markings
 70
     0
 62
     7
  6
Continuous
370
    35
390
F
  0
LAYER
  5
14F
330
2
100
AcDbSymbolTableRecord
100
AcDbLayerTableRecord
  2
250 Red Pen Markings
 70
     0
 62
     7
  6
Continuous
370
    35
390
F
  0
LAYER
  5
150
330
2
100
AcDbSymbolTableRecord
100
AcDbLayerTableRecord
  2
251 Red Pen Markings
 70
     0
 62
     7
  6
Continuous
370
    35
390
F
  0
LAYER
  5
151
330
2
100
AcDbSymbolTableRecord
100
AcDbLayerTableRecord
  2
252 Red Pen Markings
 70
     0
 62
     7
  6
Continuous
370
    35
390
F
  0
LAYER
  5
152
330
2
100
AcDbSymbolTableRecord
100
AcDbLayerTableRecord
  2
253 Red Pen Markings
 70
     0
 62
     7
  6
Continuous
370
    35
390
F
  0
LAYER
  5
153
330
2
100
AcDbSymbolTableRecord
100
AcDbLayerTableRecord
  2
254 Red Pen Markings
 70
     0
 62
     7
  6
Continuous
370
    35
390
F
  0
ENDTAB
  0
TABLE
  2
STYLE
  5
3
330
0
100
AcDbSymbolTable
 70
    11
  0
STYLE
  5
11
330
3
100
AcDbSymbolTableRecord
100
AcDbTextStyleTableRecord
  2
Standard
 70
     0
 40
0.0
 41
1.0
 50
0.0
 71
     0
 42
0.2
  3
txt
  4

  0
STYLE
  5
40
330
3
100
AcDbSymbolTableRecord
100
AcDbTextStyleTableRecord
  2
Arial
 70
     0
 40
0.0
 41
1.0
 50
0.0
 71
     0
 42
0.2
  3
ARIAL.TTF
  4

1001
ACAD
1000
Arial
1071
       34
  0
STYLE
  5
41
330
3
100
AcDbSymbolTableRecord
100
AcDbTextStyleTableRecord
  2
Courier New
 70
     0
 40
0.0
 41
1.0
 50
0.0
 71
     0
 42
0.2
  3
COUR.TTF
  4

1001
ACAD
1000
Courier New
1071
       34
  0
STYLE
  5
42
330
3
100
AcDbSymbolTableRecord
100
AcDbTextStyleTableRecord
  2
Arial Narrow
 70
     0
 40
0.0
 41
1.0
 50
0.0
 71
     0
 42
0.2
  3
ARIALN.TTF
  4

1001
ACAD
1000
Arial Narrow
1071
       34
  0
STYLE
  5
43
330
3
100
AcDbSymbolTableRecord
100
AcDbTextStyleTableRecord
  2
Times New Roman
 70
     0
 40
0.0
 41
1.0
 50
0.0
 71
     0
 42
0.2
  3
TIMES.TTF
  4

1001
ACAD
1000
Times New Roman
1071
       34
  0
STYLE
  5
44
330
3
100
AcDbSymbolTableRecord
100
AcDbTextStyleTableRecord
  2
Impact
 70
     0
 40
0.0
 41
1.0
 50
0.0
 71
     0
 42
0.2
  3
IMPACT.TTF
  4

1001
ACAD
1000
Impact
1071
       34
  0
STYLE
  5
45
330
3
100
AcDbSymbolTableRecord
100
AcDbTextStyleTableRecord
  2
Arial Black
 70
     0
 40
0.0
 41
1.0
 50
0.0
 71
     0
 42
0.2
  3
ARIBLK.TTF
  4

1001
ACAD
1000
Arial Black
1071
       34
  0
STYLE
  5
46
330
3
100
AcDbSymbolTableRecord
100
AcDbTextStyleTableRecord
  2
Symbol
 70
     0
 40
0.0
 41
1.0
 50
0.0
 71
     0
 42
0.2
  3
SYMBOL.TTF
  4

1001
ACAD
1000
Symbol
1071
       34
  0
STYLE
  5
47
330
3
100
AcDbSymbolTableRecord
100
AcDbTextStyleTableRecord
  2
Comic Sans MS
 70
     0
 40
0.0
 41
1.0
 50
0.0
 71
     0
 42
0.2
  3
COMIC.TTF
  4

1001
ACAD
1000
Comic Sans MS
1071
       34
  0
STYLE
  5
48
330
3
100
AcDbSymbolTableRecord
100
AcDbTextStyleTableRecord
  2
Trebuchet MS
 70
     0
 40
0.0
 41
1.0
 50
0.0
 71
     0
 42
0.2
  3
TREBUC.TTF
  4

1001
ACAD
1000
Trebuchet MS
1071
       34
  0
STYLE
  5
52
330
3
100
AcDbSymbolTableRecord
100
AcDbTextStyleTableRecord
  2

 70
     1
 40
0.0
 41
1.0
 50
0.0
 71
     0
 42
22.45
  3
ltypeshp.shx
  4

  0
ENDTAB
  0
TABLE
  2
VIEW
  5
6
330
0
100
AcDbSymbolTable
 70
     0
  0
ENDTAB
  0
TABLE
  2
UCS
  5
7
330
0
100
AcDbSymbolTable
 70
     0
  0
ENDTAB
  0
TABLE
  2
APPID
  5
9
330
0
100
AcDbSymbolTable
 70
     2
  0
APPID
  5
12
330
9
100
AcDbSymbolTableRecord
100
AcDbRegAppTableRecord
  2
ACAD
 70
     0
  0
APPID
  5
3F
330
9
100
AcDbSymbolTableRecord
100
AcDbRegAppTableRecord
  2
Vertex
 70
     0
  0
ENDTAB
  0
TABLE
  2
DIMSTYLE
  5
A
330
0
100
AcDbSymbolTable
 70
     3
100
AcDbDimStyleTable
  0
DIMSTYLE
105
27
330
A
100
AcDbSymbolTableRecord
100
AcDbDimStyleTableRecord
  2
Standard
 70
     0
178
     0
340
11
  0
DIMSTYLE
105
49
330
A
100
AcDbSymbolTableRecord
100
AcDbDimStyleTableRecord
  2
Vertex Style
 70
     0
 41
0.078740157480315
 44
0.0393700787401575
 46
0.0393700787401575
 73
     0
 74
     0
 77
     1
 78
     8
 79
     2
144
25.4
146
0.65
147
0.0669291338582677
172
     1
173
     1
176
   160
177
   160
178
     0
179
     1
271
     1
340
40
343
4A
344
4A
371
    25
372
    25
  0
DIMSTYLE
105
51
330
A
100
AcDbSymbolTableRecord
100
AcDbDimStyleTableRecord
  2
Vertex Style (Inches)
 70
     0
 41
0.078740157480315
 44
0.0393700787401575
 46
0.0393700787401575
 73
     0
 74
     0
 77
     1
 79
     2
146
0.65
147
0.0669291338582677
172
     1
173
     1
176
   160
177
   160
178
     0
179
     1
276
     2
277
     4
340
40
343
4A
344
4A
371
    25
372
    25
  0
ENDTAB
  0
TABLE
  2
BLOCK_RECORD
  5
1
330
0
100
AcDbSymbolTable
 70
   120
  0
BLOCK_RECORD
  5
1F
330
1
100
AcDbSymbolTableRecord
100
AcDbBlockTableRecord
  2
*Model_Space
340
22
  0
BLOCK_RECORD
  5
1B
330
1
100
AcDbSymbolTableRecord
100
AcDbBlockTableRecord
  2
*Paper_Space
340
1E
  0
BLOCK_RECORD
  5
23
330
1
100
AcDbSymbolTableRecord
100
AcDbBlockTableRecord
  2
*Paper_Space0
340
26
  0
BLOCK_RECORD
  5
4A
330
1
100
AcDbSymbolTableRecord
100
AcDbBlockTableRecord
  2
_CLOSED
340
0
  0
BLOCK_RECORD
  5
154
330
1
100
AcDbSymbolTableRecord
100
AcDbBlockTableRecord
  2
HATCH_0_2bc8ec10-bad6-4b8f-afbd-812fa5bd20f2
340
0
102
{BLKREFS
331
4C5
102
}
  0
BLOCK_RECORD
  5
158
330
1
100
AcDbSymbolTableRecord
100
AcDbBlockTableRecord
  2
HATCH_1_55938628-93f0-4121-ac46-caa6d02e3813
340
0
102
{BLKREFS
331
4C6
102
}
  0
BLOCK_RECORD
  5
15C
330
1
100
AcDbSymbolTableRecord
100
AcDbBlockTableRecord
  2
HATCH_2_bbdb0185-2b8d-4096-85d8-39d9fe06b245
340
0
102
{BLKREFS
331
4C7
102
}
  0
BLOCK_RECORD
  5
160
330
1
100
AcDbSymbolTableRecord
100
AcDbBlockTableRecord
  2
HATCH_3_b6c7c1cb-8d87-4590-ae49-067bf5a64369
340
0
102
{BLKREFS
331
4C8
102
}
  0
BLOCK_RECORD
  5
164
330
1
100
AcDbSymbolTableRecord
100
AcDbBlockTableRecord
  2
HATCH_4_83b21e66-10ed-4f94-94cf-67bfddb987e9
340
0
102
{BLKREFS
331
4C9
102
}
  0
BLOCK_RECORD
  5
168
330
1
100
AcDbSymbolTableRecord
100
AcDbBlockTableRecord
  2
HATCH_5_d0829f09-ece8-4aea-b996-1a300df12525
340
0
102
{BLKREFS
331
4CA
102
}
  0
BLOCK_RECORD
  5
16C
330
1
100
AcDbSymbolTableRecord
100
AcDbBlockTableRecord
  2
HATCH_6_2aa3ed64-0f26-4341-a040-f7acf2047b09
340
0
102
{BLKREFS
331
4CB
102
}
  0
BLOCK_RECORD
  5
170
330
1
100
AcDbSymbolTableRecord
100
AcDbBlockTableRecord
  2
HATCH_7_5711bd67-b479-4fad-b9b5-fc28fc303533
340
0
102
{BLKREFS
331
4CC
102
}
  0
BLOCK_RECORD
  5
175
330
1
100
AcDbSymbolTableRecord
100
AcDbBlockTableRecord
  2
HATCH_8_8bd2b7af-9375-4cdb-ae66-ca043efe4719
340
0
102
{BLKREFS
331
4CD
102
}
  0
BLOCK_RECORD
  5
17A
330
1
100
AcDbSymbolTableRecord
100
AcDbBlockTableRecord
  2
HATCH_9_2709e6cd-9ee5-47ed-be63-d943a214a591
340
0
102
{BLKREFS
331
4CE
102
}
  0
BLOCK_RECORD
  5
17F
330
1
100
AcDbSymbolTableRecord
100
AcDbBlockTableRecord
  2
HATCH_10_d6d8bf6a-4801-4666-ae99-fe0f5a50a9e5
340
0
102
{BLKREFS
331
4CF
102
}
  0
BLOCK_RECORD
  5
184
330
1
100
AcDbSymbolTableRecord
100
AcDbBlockTableRecord
  2
HATCH_11_8ca21b84-3c3c-4456-bd85-27648f7f0847
340
0
102
{BLKREFS
331
4D0
102
}
  0
BLOCK_RECORD
  5
189
330
1
100
AcDbSymbolTableRecord
100
AcDbBlockTableRecord
  2
HATCH_12_44349197-a959-4560-8651-60c8a3d4a60e
340
0
102
{BLKREFS
331
4D1
102
}
  0
BLOCK_RECORD
  5
18E
330
1
100
AcDbSymbolTableRecord
100
AcDbBlockTableRecord
  2
HATCH_13_ed72c06a-901f-4945-b1a3-a3c8dfa87224
340
0
102
{BLKREFS
331
4D2
102
}
  0
BLOCK_RECORD
  5
193
330
1
100
AcDbSymbolTableRecord
100
AcDbBlockTableRecord
  2
HATCH_14_7e24068e-070a-4144-91b6-34b9a225e2ef
340
0
102
{BLKREFS
331
4D3
102
}
  0
BLOCK_RECORD
  5
199
330
1
100
AcDbSymbolTableRecord
100
AcDbBlockTableRecord
  2
HATCH_15_4d2c0f4d-7c62-41ca-8dff-9e54ecb71802
340
0
102
{BLKREFS
331
4D4
102
}
  0
BLOCK_RECORD
  5
19F
330
1
100
AcDbSymbolTableRecord
100
AcDbBlockTableRecord
  2
HATCH_16_27679e06-2258-4ea8-9f5c-6bfaeabb4d18
340
0
102
{BLKREFS
331
4D5
102
}
  0
BLOCK_RECORD
  5
1A5
330
1
100
AcDbSymbolTableRecord
100
AcDbBlockTableRecord
  2
HATCH_17_46d5e9be-c21f-41ff-95ff-56102f5f4811
340
0
102
{BLKREFS
331
4D6
102
}
  0
BLOCK_RECORD
  5
1AB
330
1
100
AcDbSymbolTableRecord
100
AcDbBlockTableRecord
  2
HATCH_18_f1e92403-a697-4c6b-8fd9-09cd73fd86dc
340
0
102
{BLKREFS
331
4D7
102
}
  0
BLOCK_RECORD
  5
1B1
330
1
100
AcDbSymbolTableRecord
100
AcDbBlockTableRecord
  2
HATCH_19_6966ddc1-c456-46a2-8637-e7e41e4251a3
340
0
102
{BLKREFS
331
4D8
102
}
  0
BLOCK_RECORD
  5
1B7
330
1
100
AcDbSymbolTableRecord
100
AcDbBlockTableRecord
  2
HATCH_20_f68266b0-5e05-49af-84a9-ed93fd2ba127
340
0
102
{BLKREFS
331
4D9
102
}
  0
BLOCK_RECORD
  5
1BD
330
1
100
AcDbSymbolTableRecord
100
AcDbBlockTableRecord
  2
HATCH_21_dfa6373a-66f6-4634-aa39-c86206445a3a
340
0
102
{BLKREFS
331
4DA
102
}
  0
BLOCK_RECORD
  5
1C4
330
1
100
AcDbSymbolTableRecord
100
AcDbBlockTableRecord
  2
HATCH_22_45455eb1-4932-4cfd-809e-c372431f6db2
340
0
102
{BLKREFS
331
4DB
102
}
  0
BLOCK_RECORD
  5
1CB
330
1
100
AcDbSymbolTableRecord
100
AcDbBlockTableRecord
  2
HATCH_23_07e0b9d8-49a4-40be-b070-17301b9509f4
340
0
102
{BLKREFS
331
4DC
102
}
  0
BLOCK_RECORD
  5
1D2
330
1
100
AcDbSymbolTableRecord
100
AcDbBlockTableRecord
  2
HATCH_24_d0f6c7ce-1edf-475a-b413-d660277fb5ad
340
0
102
{BLKREFS
331
4DD
102
}
  0
BLOCK_RECORD
  5
1D9
330
1
100
AcDbSymbolTableRecord
100
AcDbBlockTableRecord
  2
HATCH_25_d8102b81-6ec7-4d79-8451-9b8271d5d9d9
340
0
102
{BLKREFS
331
4DE
102
}
  0
BLOCK_RECORD
  5
1E0
330
1
100
AcDbSymbolTableRecord
100
AcDbBlockTableRecord
  2
HATCH_26_c410b888-c0a3-483f-9d2c-2e10dd44e493
340
0
102
{BLKREFS
331
4DF
102
}
  0
BLOCK_RECORD
  5
1E7
330
1
100
AcDbSymbolTableRecord
100
AcDbBlockTableRecord
  2
HATCH_27_10c6a9aa-5ff5-4e73-b580-fbb9ff7029b0
340
0
102
{BLKREFS
331
4E0
102
}
  0
BLOCK_RECORD
  5
1EE
330
1
100
AcDbSymbolTableRecord
100
AcDbBlockTableRecord
  2
HATCH_28_0cc61b06-c00a-4e14-a093-6c94371b24e1
340
0
102
{BLKREFS
331
4E1
102
}
  0
BLOCK_RECORD
  5
1F5
330
1
100
AcDbSymbolTableRecord
100
AcDbBlockTableRecord
  2
HATCH_29_83bcbb75-9b79-4ea4-bc9c-517866d73fba
340
0
102
{BLKREFS
331
4E2
102
}
  0
BLOCK_RECORD
  5
1FC
330
1
100
AcDbSymbolTableRecord
100
AcDbBlockTableRecord
  2
HATCH_30_e626efbc-84b1-4969-8004-e3f911c9b118
340
0
102
{BLKREFS
331
4E3
102
}
  0
BLOCK_RECORD
  5
203
330
1
100
AcDbSymbolTableRecord
100
AcDbBlockTableRecord
  2
HATCH_31_a7bef6ec-21c1-446e-9569-88c013246249
340
0
102
{BLKREFS
331
4E4
102
}
  0
BLOCK_RECORD
  5
20A
330
1
100
AcDbSymbolTableRecord
100
AcDbBlockTableRecord
  2
HATCH_32_57765251-38b8-4971-a249-82447926517f
340
0
102
{BLKREFS
331
4E5
102
}
  0
BLOCK_RECORD
  5
211
330
1
100
AcDbSymbolTableRecord
100
AcDbBlockTableRecord
  2
HATCH_33_a8dadb9e-582b-414b-b125-8739c9d7d1b5
340
0
102
{BLKREFS
331
4E6
102
}
  0
BLOCK_RECORD
  5
218
330
1
100
AcDbSymbolTableRecord
100
AcDbBlockTableRecord
  2
HATCH_34_aca81093-377d-4b30-919e-a2a3db20307d
340
0
102
{BLKREFS
331
4E7
102
}
  0
BLOCK_RECORD
  5
21F
330
1
100
AcDbSymbolTableRecord
100
AcDbBlockTableRecord
  2
HATCH_35_f159c134-ae2d-4f78-a605-fa27445b48bc
340
0
102
{BLKREFS
331
4E8
102
}
  0
BLOCK_RECORD
  5
226
330
1
100
AcDbSymbolTableRecord
100
AcDbBlockTableRecord
  2
HATCH_36_3905081a-c08c-43c8-b825-2beca5d175c3
340
0
102
{BLKREFS
331
4E9
102
}
  0
BLOCK_RECORD
  5
22D
330
1
100
AcDbSymbolTableRecord
100
AcDbBlockTableRecord
  2
HATCH_37_87684754-87fe-42a9-b7ca-0dff58a8a03d
340
0
102
{BLKREFS
331
4EA
102
}
  0
BLOCK_RECORD
  5
234
330
1
100
AcDbSymbolTableRecord
100
AcDbBlockTableRecord
  2
HATCH_38_1e007088-e78d-4a66-a86b-61ce5f9e0f6d
340
0
102
{BLKREFS
331
4EB
102
}
  0
BLOCK_RECORD
  5
23B
330
1
100
AcDbSymbolTableRecord
100
AcDbBlockTableRecord
  2
HATCH_39_020f05f1-1cb9-4918-b1b2-a0d3d75b4ff9
340
0
102
{BLKREFS
331
4EC
102
}
  0
BLOCK_RECORD
  5
242
330
1
100
AcDbSymbolTableRecord
100
AcDbBlockTableRecord
  2
HATCH_40_1018c459-7748-4b5f-af25-dc883833b37a
340
0
102
{BLKREFS
331
4ED
102
}
  0
BLOCK_RECORD
  5
248
330
1
100
AcDbSymbolTableRecord
100
AcDbBlockTableRecord
  2
HATCH_41_9f96fc6b-02cd-4205-a600-82e7922f42ca
340
0
102
{BLKREFS
331
4EE
102
}
  0
BLOCK_RECORD
  5
24E
330
1
100
AcDbSymbolTableRecord
100
AcDbBlockTableRecord
  2
HATCH_42_4fd43c68-66cf-499c-97c3-1c6080e493b7
340
0
102
{BLKREFS
331
4EF
102
}
  0
BLOCK_RECORD
  5
254
330
1
100
AcDbSymbolTableRecord
100
AcDbBlockTableRecord
  2
HATCH_43_7887b016-3e90-48c4-8878-50414d511dc0
340
0
102
{BLKREFS
331
4F0
102
}
  0
BLOCK_RECORD
  5
25A
330
1
100
AcDbSymbolTableRecord
100
AcDbBlockTableRecord
  2
HATCH_44_13d0c749-7cea-42ab-8fdf-b55a3a9a6155
340
0
102
{BLKREFS
331
4F1
102
}
  0
BLOCK_RECORD
  5
260
330
1
100
AcDbSymbolTableRecord
100
AcDbBlockTableRecord
  2
HATCH_45_c75e4b08-944a-41fb-ae07-81480b97f83e
340
0
102
{BLKREFS
331
4F2
102
}
  0
BLOCK_RECORD
  5
266
330
1
100
AcDbSymbolTableRecord
100
AcDbBlockTableRecord
  2
HATCH_46_7a78a7f9-80ae-444e-b297-b155afdb91e6
340
0
102
{BLKREFS
331
4F3
102
}
  0
BLOCK_RECORD
  5
26C
330
1
100
AcDbSymbolTableRecord
100
AcDbBlockTableRecord
  2
HATCH_47_1a35440e-c0b1-4ff3-9dab-9ea5378efdc2
340
0
102
{BLKREFS
331
4F4
102
}
  0
BLOCK_RECORD
  5
272
330
1
100
AcDbSymbolTableRecord
100
AcDbBlockTableRecord
  2
HATCH_48_965455bd-4e1d-46ab-9ce1-40c4c93dea1c
340
0
102
{BLKREFS
331
4F5
102
}
  0
BLOCK_RECORD
  5
278
330
1
100
AcDbSymbolTableRecord
100
AcDbBlockTableRecord
  2
HATCH_49_51e5e662-a60e-4225-b80a-b593f6eda79b
340
0
102
{BLKREFS
331
4F6
102
}
  0
BLOCK_RECORD
  5
27D
330
1
100
AcDbSymbolTableRecord
100
AcDbBlockTableRecord
  2
HATCH_50_6fa1ed1d-f7ba-43d9-ab05-90b0360bee6b
340
0
102
{BLKREFS
331
4F7
102
}
  0
BLOCK_RECORD
  5
282
330
1
100
AcDbSymbolTableRecord
100
AcDbBlockTableRecord
  2
HATCH_51_2cc71294-63b0-4544-8484-8c82187acd7c
340
0
102
{BLKREFS
331
4F8
102
}
  0
BLOCK_RECORD
  5
287
330
1
100
AcDbSymbolTableRecord
100
AcDbBlockTableRecord
  2
HATCH_52_d35ce6de-3ed9-47e2-9c6c-53379d80518f
340
0
102
{BLKREFS
331
4F9
102
}
  0
BLOCK_RECORD
  5
28C
330
1
100
AcDbSymbolTableRecord
100
AcDbBlockTableRecord
  2
HATCH_53_91542d26-dee2-4153-8894-ce8eb177d510
340
0
102
{BLKREFS
331
4FA
102
}
  0
BLOCK_RECORD
  5
291
330
1
100
AcDbSymbolTableRecord
100
AcDbBlockTableRecord
  2
HATCH_54_abc9fdc2-4335-482a-84b7-2697f76d8c62
340
0
102
{BLKREFS
331
4FB
102
}
  0
BLOCK_RECORD
  5
296
330
1
100
AcDbSymbolTableRecord
100
AcDbBlockTableRecord
  2
HATCH_55_9128fe36-419a-4028-96dc-fdf570548cc1
340
0
102
{BLKREFS
331
4FC
102
}
  0
BLOCK_RECORD
  5
29A
330
1
100
AcDbSymbolTableRecord
100
AcDbBlockTableRecord
  2
HATCH_56_f09c5711-8c95-4c16-9e6c-903897ba71ca
340
0
102
{BLKREFS
331
4FD
102
}
  0
BLOCK_RECORD
  5
29E
330
1
100
AcDbSymbolTableRecord
100
AcDbBlockTableRecord
  2
HATCH_57_0ce53450-da1e-4bcb-9f07-012b994ed1d2
340
0
102
{BLKREFS
331
4FE
102
}
  0
BLOCK_RECORD
  5
2A2
330
1
100
AcDbSymbolTableRecord
100
AcDbBlockTableRecord
  2
HATCH_58_c8826ae9-e9fa-4031-b967-3bf97c4da2f6
340
0
102
{BLKREFS
331
4FF
102
}
  0
BLOCK_RECORD
  5
2A6
330
1
100
AcDbSymbolTableRecord
100
AcDbBlockTableRecord
  2
HATCH_59_accd9868-847e-45f8-bcf6-4bc9e04b2cc3
340
0
102
{BLKREFS
331
500
102
}
  0
BLOCK_RECORD
  5
2AA
330
1
100
AcDbSymbolTableRecord
100
AcDbBlockTableRecord
  2
HATCH_60_2e13bc97-5eb3-43f3-81cb-39f6e95ff6ec
340
0
102
{BLKREFS
331
501
102
}
  0
BLOCK_RECORD
  5
2AE
330
1
100
AcDbSymbolTableRecord
100
AcDbBlockTableRecord
  2
HATCH_61_bed00d27-bec8-402d-9766-066c6800e2e3
340
0
102
{BLKREFS
331
502
102
}
  0
BLOCK_RECORD
  5
2B2
330
1
100
AcDbSymbolTableRecord
100
AcDbBlockTableRecord
  2
HATCH_62_ef1d7913-cb92-461b-94c2-6c004d62497a
340
0
102
{BLKREFS
331
503
102
}
  0
BLOCK_RECORD
  5
2B6
330
1
100
AcDbSymbolTableRecord
100
AcDbBlockTableRecord
  2
HATCH_63_608ccc6b-d671-460b-bba3-3c243f1461da
340
0
102
{BLKREFS
331
504
102
}
  0
BLOCK_RECORD
  5
2BB
330
1
100
AcDbSymbolTableRecord
100
AcDbBlockTableRecord
  2
HATCH_64_02a9b9dd-7e15-44f0-b65e-556ab9bccdf4
340
0
102
{BLKREFS
331
505
102
}
  0
BLOCK_RECORD
  5
2C0
330
1
100
AcDbSymbolTableRecord
100
AcDbBlockTableRecord
  2
HATCH_65_702c4496-a382-4516-80e1-d49bae1fa385
340
0
102
{BLKREFS
331
506
102
}
  0
BLOCK_RECORD
  5
2C5
330
1
100
AcDbSymbolTableRecord
100
AcDbBlockTableRecord
  2
HATCH_66_76704473-6fa7-411b-b0e4-d3ceab635c6f
340
0
102
{BLKREFS
331
507
102
}
  0
BLOCK_RECORD
  5
2CB
330
1
100
AcDbSymbolTableRecord
100
AcDbBlockTableRecord
  2
HATCH_67_0465c402-7234-4c79-988d-282a45b76159
340
0
102
{BLKREFS
331
508
102
}
  0
BLOCK_RECORD
  5
2D1
330
1
100
AcDbSymbolTableRecord
100
AcDbBlockTableRecord
  2
HATCH_68_6674e7b5-b709-440a-a9e4-b037259c76ce
340
0
102
{BLKREFS
331
509
102
}
  0
BLOCK_RECORD
  5
2D7
330
1
100
AcDbSymbolTableRecord
100
AcDbBlockTableRecord
  2
HATCH_69_97deb99b-e597-4106-8826-40612c7cbce2
340
0
102
{BLKREFS
331
50A
102
}
  0
BLOCK_RECORD
  5
2DD
330
1
100
AcDbSymbolTableRecord
100
AcDbBlockTableRecord
  2
HATCH_70_8454edd0-4c27-4899-b79b-c962d6ef1bd8
340
0
102
{BLKREFS
331
50B
102
}
  0
BLOCK_RECORD
  5
2E3
330
1
100
AcDbSymbolTableRecord
100
AcDbBlockTableRecord
  2
HATCH_71_b7689de2-86d1-4af6-841b-baeb6af8ed2d
340
0
102
{BLKREFS
331
50C
102
}
  0
BLOCK_RECORD
  5
2E9
330
1
100
AcDbSymbolTableRecord
100
AcDbBlockTableRecord
  2
HATCH_72_ce54eb2c-90bb-4af1-9912-a2857475247b
340
0
102
{BLKREFS
331
50D
102
}
  0
BLOCK_RECORD
  5
2EF
330
1
100
AcDbSymbolTableRecord
100
AcDbBlockTableRecord
  2
HATCH_73_41fea209-6958-4265-85ae-a62d4210ce08
340
0
102
{BLKREFS
331
50E
102
}
  0
BLOCK_RECORD
  5
2F5
330
1
100
AcDbSymbolTableRecord
100
AcDbBlockTableRecord
  2
HATCH_74_8974ac50-19ad-491a-8663-62bd9f7f06ec
340
0
102
{BLKREFS
331
50F
102
}
  0
BLOCK_RECORD
  5
2FB
330
1
100
AcDbSymbolTableRecord
100
AcDbBlockTableRecord
  2
HATCH_75_2ea95685-4934-400f-9b2f-bdd81f1ed8d1
340
0
102
{BLKREFS
331
510
102
}
  0
BLOCK_RECORD
  5
301
330
1
100
AcDbSymbolTableRecord
100
AcDbBlockTableRecord
  2
HATCH_76_745bb88e-1d31-4256-ad35-d74ff70481fa
340
0
102
{BLKREFS
331
511
102
}
  0
BLOCK_RECORD
  5
307
330
1
100
AcDbSymbolTableRecord
100
AcDbBlockTableRecord
  2
HATCH_77_5fd7e987-4c2f-4bbc-89b8-564d57496dff
340
0
102
{BLKREFS
331
512
102
}
  0
BLOCK_RECORD
  5
30D
330
1
100
AcDbSymbolTableRecord
100
AcDbBlockTableRecord
  2
HATCH_78_f6a343ee-9bcc-4d58-96b3-8e0b21ee504f
340
0
102
{BLKREFS
331
513
102
}
  0
BLOCK_RECORD
  5
313
330
1
100
AcDbSymbolTableRecord
100
AcDbBlockTableRecord
  2
HATCH_79_df3ed753-2bc5-46bd-9fd8-87bc4c50e1d8
340
0
102
{BLKREFS
331
514
102
}
  0
BLOCK_RECORD
  5
31A
330
1
100
AcDbSymbolTableRecord
100
AcDbBlockTableRecord
  2
HATCH_80_30d97a78-a483-4565-853f-ff7fc53d90f0
340
0
102
{BLKREFS
331
515
102
}
  0
BLOCK_RECORD
  5
321
330
1
100
AcDbSymbolTableRecord
100
AcDbBlockTableRecord
  2
HATCH_81_c60d4bae-b74c-4281-a731-99db6f207fb4
340
0
102
{BLKREFS
331
516
102
}
  0
BLOCK_RECORD
  5
328
330
1
100
AcDbSymbolTableRecord
100
AcDbBlockTableRecord
  2
HATCH_82_9ece6eba-58c8-471a-8e52-122c292a0081
340
0
102
{BLKREFS
331
517
102
}
  0
BLOCK_RECORD
  5
32F
330
1
100
AcDbSymbolTableRecord
100
AcDbBlockTableRecord
  2
HATCH_83_98d13a04-5b13-4a0c-b86b-5fff0553727b
340
0
102
{BLKREFS
331
518
102
}
  0
BLOCK_RECORD
  5
336
330
1
100
AcDbSymbolTableRecord
100
AcDbBlockTableRecord
  2
HATCH_84_e7e46161-6933-4d7a-bad0-f28c51add83b
340
0
102
{BLKREFS
331
519
102
}
  0
BLOCK_RECORD
  5
33D
330
1
100
AcDbSymbolTableRecord
100
AcDbBlockTableRecord
  2
HATCH_85_dc5acb94-ef9e-4566-a4c8-e8f7e09842ff
340
0
102
{BLKREFS
331
51A
102
}
  0
BLOCK_RECORD
  5
344
330
1
100
AcDbSymbolTableRecord
100
AcDbBlockTableRecord
  2
HATCH_86_615ec308-5c4d-4b6a-8009-12b1caa2e9a5
340
0
102
{BLKREFS
331
51B
102
}
  0
BLOCK_RECORD
  5
34B
330
1
100
AcDbSymbolTableRecord
100
AcDbBlockTableRecord
  2
HATCH_87_1c5e0d28-997d-4974-8473-efed28b6be2b
340
0
102
{BLKREFS
331
51C
102
}
  0
BLOCK_RECORD
  5
352
330
1
100
AcDbSymbolTableRecord
100
AcDbBlockTableRecord
  2
HATCH_88_cdc33c89-8802-4c94-afdd-c7dc45b682b2
340
0
102
{BLKREFS
331
51D
102
}
  0
BLOCK_RECORD
  5
359
330
1
100
AcDbSymbolTableRecord
100
AcDbBlockTableRecord
  2
HATCH_89_d32f68fa-1136-491f-ae3d-4924cbbe1b5f
340
0
102
{BLKREFS
331
51E
102
}
  0
BLOCK_RECORD
  5
360
330
1
100
AcDbSymbolTableRecord
100
AcDbBlockTableRecord
  2
HATCH_90_68760132-7075-4a54-9468-200d763e62f8
340
0
102
{BLKREFS
331
51F
102
}
  0
BLOCK_RECORD
  5
367
330
1
100
AcDbSymbolTableRecord
100
AcDbBlockTableRecord
  2
HATCH_91_91883f61-95c0-40dd-897a-d8459b1a6e29
340
0
102
{BLKREFS
331
520
102
}
  0
BLOCK_RECORD
  5
36E
330
1
100
AcDbSymbolTableRecord
100
AcDbBlockTableRecord
  2
HATCH_92_94d39962-f1e8-4754-b0f0-dce9b1471b4e
340
0
102
{BLKREFS
331
521
102
}
  0
BLOCK_RECORD
  5
375
330
1
100
AcDbSymbolTableRecord
100
AcDbBlockTableRecord
  2
HATCH_93_bff37be4-00d9-4664-aa07-314547160ae8
340
0
102
{BLKREFS
331
522
102
}
  0
BLOCK_RECORD
  5
37C
330
1
100
AcDbSymbolTableRecord
100
AcDbBlockTableRecord
  2
HATCH_94_d01c0bf4-cc95-499c-8485-764a3f95f773
340
0
102
{BLKREFS
331
523
102
}
  0
BLOCK_RECORD
  5
382
330
1
100
AcDbSymbolTableRecord
100
AcDbBlockTableRecord
  2
HATCH_95_4cadb2c9-f6ba-4509-a0c4-fe2d9ad781cb
340
0
102
{BLKREFS
331
524
102
}
  0
BLOCK_RECORD
  5
388
330
1
100
AcDbSymbolTableRecord
100
AcDbBlockTableRecord
  2
HATCH_96_3d9b6670-e5b4-4ecc-8e72-7ae064367d68
340
0
102
{BLKREFS
331
525
102
}
  0
BLOCK_RECORD
  5
38E
330
1
100
AcDbSymbolTableRecord
100
AcDbBlockTableRecord
  2
HATCH_97_2feacd04-c107-40f2-ba24-6a6a301f3031
340
0
102
{BLKREFS
331
526
102
}
  0
BLOCK_RECORD
  5
394
330
1
100
AcDbSymbolTableRecord
100
AcDbBlockTableRecord
  2
HATCH_98_8881bf1d-6319-4374-9c41-2b8551f56597
340
0
102
{BLKREFS
331
527
102
}
  0
BLOCK_RECORD
  5
39A
330
1
100
AcDbSymbolTableRecord
100
AcDbBlockTableRecord
  2
HATCH_99_6ada1471-178a-497e-8093-0acd520dbf94
340
0
102
{BLKREFS
331
528
102
}
  0
BLOCK_RECORD
  5
3A0
330
1
100
AcDbSymbolTableRecord
100
AcDbBlockTableRecord
  2
HATCH_100_8ee3d71a-567f-40af-8e09-dec661b92681
340
0
102
{BLKREFS
331
529
102
}
  0
BLOCK_RECORD
  5
3A6
330
1
100
AcDbSymbolTableRecord
100
AcDbBlockTableRecord
  2
HATCH_101_0c3403cc-3caf-46ce-a13c-d877cfd96b63
340
0
102
{BLKREFS
331
52A
102
}
  0
BLOCK_RECORD
  5
3AC
330
1
100
AcDbSymbolTableRecord
100
AcDbBlockTableRecord
  2
HATCH_102_68381b0e-3702-486e-b8ce-4d4aeecc5b43
340
0
102
{BLKREFS
331
52B
102
}
  0
BLOCK_RECORD
  5
3B2
330
1
100
AcDbSymbolTableRecord
100
AcDbBlockTableRecord
  2
HATCH_103_d3dae4fb-6e63-4cd1-86c9-26dd9a691d8f
340
0
102
{BLKREFS
331
52C
102
}
  0
BLOCK_RECORD
  5
3B8
330
1
100
AcDbSymbolTableRecord
100
AcDbBlockTableRecord
  2
HATCH_104_85bb6879-d8ff-47f7-b161-f13068f5dee4
340
0
102
{BLKREFS
331
52D
102
}
  0
BLOCK_RECORD
  5
3BE
330
1
100
AcDbSymbolTableRecord
100
AcDbBlockTableRecord
  2
HATCH_105_5d68d0c0-4851-4e96-800c-6805c54089b7
340
0
102
{BLKREFS
331
52E
102
}
  0
BLOCK_RECORD
  5
3C4
330
1
100
AcDbSymbolTableRecord
100
AcDbBlockTableRecord
  2
HATCH_106_b95c1c77-18a8-4fc2-91d2-c269c4253fd1
340
0
102
{BLKREFS
331
52F
102
}
  0
BLOCK_RECORD
  5
3CA
330
1
100
AcDbSymbolTableRecord
100
AcDbBlockTableRecord
  2
HATCH_107_1830efad-ea9c-4c2f-80a8-e8d7756922cf
340
0
102
{BLKREFS
331
530
102
}
  0
BLOCK_RECORD
  5
3D0
330
1
100
AcDbSymbolTableRecord
100
AcDbBlockTableRecord
  2
HATCH_108_bbf8a675-6e3b-4a44-be7e-64b6d9e1577f
340
0
102
{BLKREFS
331
531
102
}
  0
BLOCK_RECORD
  5
3D6
330
1
100
AcDbSymbolTableRecord
100
AcDbBlockTableRecord
  2
HATCH_109_f564cc28-ea3f-414d-8cd6-a21efaeff73c
340
0
102
{BLKREFS
331
532
102
}
  0
BLOCK_RECORD
  5
3DB
330
1
100
AcDbSymbolTableRecord
100
AcDbBlockTableRecord
  2
HATCH_110_977108cd-2c7d-4f6c-accb-1098879b3290
340
0
102
{BLKREFS
331
533
102
}
  0
BLOCK_RECORD
  5
3DF
330
1
100
AcDbSymbolTableRecord
100
AcDbBlockTableRecord
  2
HATCH_111_c861e11c-4c49-4946-ad61-bacfabce8ba1
340
0
102
{BLKREFS
331
534
102
}
  0
BLOCK_RECORD
  5
3E3
330
1
100
AcDbSymbolTableRecord
100
AcDbBlockTableRecord
  2
HATCH_112_54c0769e-23cb-49c7-9085-0fcae6c6d559
340
0
102
{BLKREFS
331
535
102
}
  0
BLOCK_RECORD
  5
3E7
330
1
100
AcDbSymbolTableRecord
100
AcDbBlockTableRecord
  2
HATCH_113_e7b2094f-780c-43cb-9d8c-460817df751c
340
0
102
{BLKREFS
331
536
102
}
  0
BLOCK_RECORD
  5
3EB
330
1
100
AcDbSymbolTableRecord
100
AcDbBlockTableRecord
  2
HATCH_114_d9706cd1-ff19-49de-b2f6-d8392d80740a
340
0
102
{BLKREFS
331
537
102
}
  0
BLOCK_RECORD
  5
3EF
330
1
100
AcDbSymbolTableRecord
100
AcDbBlockTableRecord
  2
HATCH_115_5190bac2-76bb-4c6c-9875-0fa5264de8bc
340
0
102
{BLKREFS
331
538
102
}
  0
BLOCK_RECORD
  5
3F3
330
1
100
AcDbSymbolTableRecord
100
AcDbBlockTableRecord
  2
HATCH_116_d7dde26b-0a24-4928-ba19-ceb80eab2077
340
0
102
{BLKREFS
331
539
102
}
  0
BLOCK_RECORD
  5
3F7
330
1
100
AcDbSymbolTableRecord
100
AcDbBlockTableRecord
  2
HATCH_117_2b3f215a-bf2e-47ea-a670-6034cb207e9e
340
0
102
{BLKREFS
331
53A
102
}
  0
ENDTAB
  0
ENDSEC
  0
SECTION
  2
BLOCKS
  0
BLOCK
  5
20
330
1F
100
AcDbEntity
  8
0
100
AcDbBlockBegin
  2
*Model_Space
 70
     0
 10
0.0
 20
0.0
 30
0.0
  3
*Model_Space
  1

  0
ENDBLK
  5
21
330
1F
100
AcDbEntity
  8
0
100
AcDbBlockEnd
  0
BLOCK
  5
1C
330
1B
100
AcDbEntity
 67
     1
  8
0
100
AcDbBlockBegin
  2
*Paper_Space
 70
     0
 10
0.0
 20
0.0
 30
0.0
  3
*Paper_Space
  1

  0
ENDBLK
  5
1D
330
1B
100
AcDbEntity
 67
     1
  8
0
100
AcDbBlockEnd
  0
BLOCK
  5
24
330
23
100
AcDbEntity
  8
0
100
AcDbBlockBegin
  2
*Paper_Space0
 70
     0
 10
0.0
 20
0.0
 30
0.0
  3
*Paper_Space0
  1

  0
ENDBLK
  5
25
330
23
100
AcDbEntity
  8
0
100
AcDbBlockEnd
  0
BLOCK
  5
4B
330
4A
100
AcDbEntity
  8
0
100
AcDbBlockBegin
  2
_CLOSED
 70
     0
 10
0.0
 20
0.0
 30
0.0
  3
_CLOSED
  1

  0
LINE
  5
4D
330
4A
100
AcDbEntity
  8
0
  6
ByBlock
 62
     0
370
    -2
100
AcDbLine
 10
-1.0
 20
0.166667
 30
0.0
 11
0.0
 21
0.0
 31
0.0
  0
LINE
  5
4E
330
4A
100
AcDbEntity
  8
0
  6
ByBlock
 62
     0
370
    -2
100
AcDbLine
 10
0.0
 20
0.0
 30
0.0
 11
-1.0
 21
-0.166667
 31
0.0
  0
LINE
  5
4F
330
4A
100
AcDbEntity
  8
0
  6
ByBlock
 62
     0
370
    -2
100
AcDbLine
 10
-1.0
 20
0.166667
 30
0.0
 11
-1.0
 21
-0.166667
 31
0.0
  0
LINE
  5
50
330
4A
100
AcDbEntity
  8
0
  6
ByBlock
 62
     0
370
    -2
100
AcDbLine
 10
0.0
 20
0.0
 30
0.0
 11
-1.0
 21
0.0
 31
0.0
  0
ENDBLK
  5
4C
330
4A
100
AcDbEntity
  8
0
100
AcDbBlockEnd
  0
BLOCK
  5
155
330
154
100
AcDbEntity
  8
0
100
AcDbBlockBegin
  2
HATCH_0_2bc8ec10-bad6-4b8f-afbd-812fa5bd20f2
 70
     0
 10
0.0
 20
0.0
 30
0.0
  3
HATCH_0_2bc8ec10-bad6-4b8f-afbd-812fa5bd20f2
  1

  0
LINE
  5
157
330
154
100
AcDbEntity
  8
DETAILS
 62
     0
370
     9
100
AcDbLine
 10
24.25163611669547
 20
25.5
 30
0.0
 11
24.2505732859588
 21
25.5
 31
0.0
  0
ENDBLK
  5
156
330
154
100
AcDbEntity
  8
0
100
AcDbBlockEnd
  0
BLOCK
  5
159
330
158
100
AcDbEntity
  8
0
100
AcDbBlockBegin
  2
HATCH_1_55938628-93f0-4121-ac46-caa6d02e3813
 70
     0
 10
0.0
 20
0.0
 30
0.0
  3
HATCH_1_55938628-93f0-4121-ac46-caa6d02e3813
  1

  0
LINE
  5
15B
330
158
100
AcDbEntity
  8
DETAILS
 62
     0
370
     9
100
AcDbLine
 10
24.25170087770127
 20
25.5
 30
0.0
 11
24.25163611669547
 21
25.5
 31
0.0
  0
ENDBLK
  5
15A
330
158
100
AcDbEntity
  8
0
100
AcDbBlockEnd
  0
BLOCK
  5
15D
330
15C
100
AcDbEntity
  8
0
100
AcDbBlockBegin
  2
HATCH_2_bbdb0185-2b8d-4096-85d8-39d9fe06b245
 70
     0
 10
0.0
 20
0.0
 30
0.0
  3
HATCH_2_bbdb0185-2b8d-4096-85d8-39d9fe06b245
  1

  0
LINE
  5
15F
330
15C
100
AcDbEntity
  8
DETAILS
 62
     0
370
     9
100
AcDbLine
 10
24.25261328515667
 20
25.5
 30
0.0
 11
24.25170087770127
 21
25.5
 31
0.0
  0
ENDBLK
  5
15E
330
15C
100
AcDbEntity
  8
0
100
AcDbBlockEnd
  0
BLOCK
  5
161
330
160
100
AcDbEntity
  8
0
100
AcDbBlockBegin
  2
HATCH_3_b6c7c1cb-8d87-4590-ae49-067bf5a64369
 70
     0
 10
0.0
 20
0.0
 30
0.0
  3
HATCH_3_b6c7c1cb-8d87-4590-ae49-067bf5a64369
  1

  0
LINE
  5
163
330
160
100
AcDbEntity
  8
DETAILS
 62
     0
370
     9
100
AcDbLine
 10
24.25393416656448
 20
25.5
 30
0.0
 11
24.25261328515667
 21
25.5
 31
0.0
  0
ENDBLK
  5
162
330
160
100
AcDbEntity
  8
0
100
AcDbBlockEnd
  0
BLOCK
  5
165
330
164
100
AcDbEntity
  8
0
100
AcDbBlockBegin
  2
HATCH_4_83b21e66-10ed-4f94-94cf-67bfddb987e9
 70
     0
 10
0.0
 20
0.0
 30
0.0
  3
HATCH_4_83b21e66-10ed-4f94-94cf-67bfddb987e9
  1

  0
LINE
  5
167
330
164
100
AcDbEntity
  8
DETAILS
 62
     0
370
     9
100
AcDbLine
 10
24.27472602073919
 20
25.5
 30
0.0
 11
24.25393416656448
 21
25.5
 31
0.0
  0
ENDBLK
  5
166
330
164
100
AcDbEntity
  8
0
100
AcDbBlockEnd
  0
BLOCK
  5
169
330
168
100
AcDbEntity
  8
0
100
AcDbBlockBegin
  2
HATCH_5_d0829f09-ece8-4aea-b996-1a300df12525
 70
     0
 10
0.0
 20
0.0
 30
0.0
  3
HATCH_5_d0829f09-ece8-4aea-b996-1a300df12525
  1

  0
LINE
  5
16B
330
168
100
AcDbEntity
  8
DETAILS
 62
     0
370
     9
100
AcDbLine
 10
24.27577234070153
 20
25.5
 30
0.0
 11
24.27472602073919
 21
25.5
 31
0.0
  0
ENDBLK
  5
16A
330
168
100
AcDbEntity
  8
0
100
AcDbBlockEnd
  0
BLOCK
  5
16D
330
16C
100
AcDbEntity
  8
0
100
AcDbBlockBegin
  2
HATCH_6_2aa3ed64-0f26-4341-a040-f7acf2047b09
 70
     0
 10
0.0
 20
0.0
 30
0.0
  3
HATCH_6_2aa3ed64-0f26-4341-a040-f7acf2047b09
  1

  0
LINE
  5
16F
330
16C
100
AcDbEntity
  8
DETAILS
 62
     0
370
     9
100
AcDbLine
 10
24.27856510765393
 20
25.5
 30
0.0
 11
24.27577234070153
 21
25.5
 31
0.0
  0
ENDBLK
  5
16E
330
16C
100
AcDbEntity
  8
0
100
AcDbBlockEnd
  0
BLOCK
  5
171
330
170
100
AcDbEntity
  8
0
100
AcDbBlockBegin
  2
HATCH_7_5711bd67-b479-4fad-b9b5-fc28fc303533
 70
     0
 10
0.0
 20
0.0
 30
0.0
  3
HATCH_7_5711bd67-b479-4fad-b9b5-fc28fc303533
  1

  0
LINE
  5
173
330
170
100
AcDbEntity
  8
DETAILS
 62
     0
370
     9
100
AcDbLine
 10
24.2868142091323
 20
25.5
 30
0.0
 11
24.27856510765393
 21
25.5
 31
0.0
  0
LINE
  5
174
330
170
100
AcDbEntity
  8
DETAILS
 62
     0
370
     9
100
AcDbLine
 10
24.30719218974275
 20
25.25
 30
0.0
 11
24.27891123614591
 21
25.25
 31
0.0
  0
ENDBLK
  5
172
330
170
100
AcDbEntity
  8
0
100
AcDbBlockEnd
  0
BLOCK
  5
176
330
175
100
AcDbEntity
  8
0
100
AcDbBlockBegin
  2
HATCH_8_8bd2b7af-9375-4cdb-ae66-ca043efe4719
 70
     0
 10
0.0
 20
0.0
 30
0.0
  3
HATCH_8_8bd2b7af-9375-4cdb-ae66-ca043efe4719
  1

  0
LINE
  5
178
330
175
100
AcDbEntity
  8
DETAILS
 62
     0
370
     9
100
AcDbLine
 10
24.31234867953237
 20
25.25
 30
0.0
 11
24.30719218974275
 21
25.25
 31
0.0
  0
LINE
  5
179
330
175
100
AcDbEntity
  8
DETAILS
 62
     0
370
     9
100
AcDbLine
 10
24.31234867953237
 20
25.5
 30
0.0
 11
24.2868142091323
 21
25.5
 31
0.0
  0
ENDBLK
  5
177
330
175
100
AcDbEntity
  8
0
100
AcDbBlockEnd
  0
BLOCK
  5
17B
330
17A
100
AcDbEntity
  8
0
100
AcDbBlockBegin
  2
HATCH_9_2709e6cd-9ee5-47ed-be63-d943a214a591
 70
     0
 10
0.0
 20
0.0
 30
0.0
  3
HATCH_9_2709e6cd-9ee5-47ed-be63-d943a214a591
  1

  0
LINE
  5
17D
330
17A
100
AcDbEntity
  8
DETAILS
 62
     0
370
     9
100
AcDbLine
 10
24.31519975516795
 20
25.5
 30
0.0
 11
24.31234867953237
 21
25.5
 31
0.0
  0
LINE
  5
17E
330
17A
100
AcDbEntity
  8
DETAILS
 62
     0
370
     9
100
AcDbLine
 10
24.31940012691285
 20
25.25
 30
0.0
 11
24.31234867953237
 21
25.25
 31
0.0
  0
ENDBLK
  5
17C
330
17A
100
AcDbEntity
  8
0
100
AcDbBlockEnd
  0
BLOCK
  5
180
330
17F
100
AcDbEntity
  8
0
100
AcDbBlockBegin
  2
HATCH_10_d6d8bf6a-4801-4666-ae99-fe0f5a50a9e5
 70
     0
 10
0.0
 20
0.0
 30
0.0
  3
HATCH_10_d6d8bf6a-4801-4666-ae99-fe0f5a50a9e5
  1

  0
LINE
  5
182
330
17F
100
AcDbEntity
  8
DETAILS
 62
     0
370
     9
100
AcDbLine
 10
24.32072939503616
 20
25.25
 30
0.0
 11
24.31940012691285
 21
25.25
 31
0.0
  0
LINE
  5
183
330
17F
100
AcDbEntity
  8
DETAILS
 62
     0
370
     9
100
AcDbLine
 10
24.32072939503616
 20
25.5
 30
0.0
 11
24.31519975516795
 21
25.5
 31
0.0
  0
ENDBLK
  5
181
330
17F
100
AcDbEntity
  8
0
100
AcDbBlockEnd
  0
BLOCK
  5
185
330
184
100
AcDbEntity
  8
0
100
AcDbBlockBegin
  2
HATCH_11_8ca21b84-3c3c-4456-bd85-27648f7f0847
 70
     0
 10
0.0
 20
0.0
 30
0.0
  3
HATCH_11_8ca21b84-3c3c-4456-bd85-27648f7f0847
  1

  0
LINE
  5
187
330
184
100
AcDbEntity
  8
DETAILS
 62
     0
370
     9
100
AcDbLine
 10
24.33440232244291
 20
25.5
 30
0.0
 11
24.32072939503616
 21
25.5
 31
0.0
  0
LINE
  5
188
330
184
100
AcDbEntity
  8
DETAILS
 62
     0
370
     9
100
AcDbLine
 10
24.35329676329815
 20
25.25
 30
0.0
 11
24.32072939503616
 21
25.25
 31
0.0
  0
ENDBLK
  5
186
330
184
100
AcDbEntity
  8
0
100
AcDbBlockEnd
  0
BLOCK
  5
18A
330
189
100
AcDbEntity
  8
0
100
AcDbBlockBegin
  2
HATCH_12_44349197-a959-4560-8651-60c8a3d4a60e
 70
     0
 10
0.0
 20
0.0
 30
0.0
  3
HATCH_12_44349197-a959-4560-8651-60c8a3d4a60e
  1

  0
LINE
  5
18C
330
189
100
AcDbEntity
  8
DETAILS
 62
     0
370
     9
100
AcDbLine
 10
24.36324360743244
 20
25.25
 30
0.0
 11
24.35329676329815
 21
25.25
 31
0.0
  0
LINE
  5
18D
330
189
100
AcDbEntity
  8
DETAILS
 62
     0
370
     9
100
AcDbLine
 10
24.36324360743244
 20
25.5
 30
0.0
 11
24.33440232244291
 21
25.5
 31
0.0
  0
ENDBLK
  5
18B
330
189
100
AcDbEntity
  8
0
100
AcDbBlockEnd
  0
BLOCK
  5
18F
330
18E
100
AcDbEntity
  8
0
100
AcDbBlockBegin
  2
HATCH_13_ed72c06a-901f-4945-b1a3-a3c8dfa87224
 70
     0
 10
0.0
 20
0.0
 30
0.0
  3
HATCH_13_ed72c06a-901f-4945-b1a3-a3c8dfa87224
  1

  0
LINE
  5
191
330
18E
100
AcDbEntity
  8
DETAILS
 62
     0
370
     9
100
AcDbLine
 10
24.36857187097505
 20
25.5
 30
0.0
 11
24.36324360743244
 21
25.5
 31
0.0
  0
LINE
  5
192
330
18E
100
AcDbEntity
  8
DETAILS
 62
     0
370
     9
100
AcDbLine
 10
24.37417277652726
 20
25.25
 30
0.0
 11
24.36324360743244
 21
25.25
 31
0.0
  0
ENDBLK
  5
190
330
18E
100
AcDbEntity
  8
0
100
AcDbBlockEnd
  0
BLOCK
  5
194
330
193
100
AcDbEntity
  8
0
100
AcDbBlockBegin
  2
HATCH_14_7e24068e-070a-4144-91b6-34b9a225e2ef
 70
     0
 10
0.0
 20
0.0
 30
0.0
  3
HATCH_14_7e24068e-070a-4144-91b6-34b9a225e2ef
  1

  0
LINE
  5
196
330
193
100
AcDbEntity
  8
DETAILS
 62
     0
370
     9
100
AcDbLine
 10
24.37751615461503
 20
25.25
 30
0.0
 11
24.37417277652726
 21
25.25
 31
0.0
  0
LINE
  5
197
330
193
100
AcDbEntity
  8
DETAILS
 62
     0
370
     9
100
AcDbLine
 10
24.37751615461503
 20
25.5
 30
0.0
 11
24.36857187097505
 21
25.5
 31
0.0
  0
LINE
  5
198
330
193
100
AcDbEntity
  8
DETAILS
 62
     0
370
     9
100
AcDbLine
 10
24.37751615461503
 20
25.75
 30
0.0
 11
24.37641285091259
 21
25.75
 31
0.0
  0
ENDBLK
  5
195
330
193
100
AcDbEntity
  8
0
100
AcDbBlockEnd
  0
BLOCK
  5
19A
330
199
100
AcDbEntity
  8
0
100
AcDbBlockBegin
  2
HATCH_15_4d2c0f4d-7c62-41ca-8dff-9e54ecb71802
 70
     0
 10
0.0
 20
0.0
 30
0.0
  3
HATCH_15_4d2c0f4d-7c62-41ca-8dff-9e54ecb71802
  1

  0
LINE
  5
19C
330
199
100
AcDbEntity
  8
DETAILS
 62
     0
370
     9
100
AcDbLine
 10
24.37758731049179
 20
25.75
 30
0.0
 11
24.37751615461503
 21
25.75
 31
0.0
  0
LINE
  5
19D
330
199
100
AcDbEntity
  8
DETAILS
 62
     0
370
     9
100
AcDbLine
 10
24.39503516378556
 20
25.5
 30
0.0
 11
24.37751615461503
 21
25.5
 31
0.0
  0
LINE
  5
19E
330
199
100
AcDbEntity
  8
DETAILS
 62
     0
370
     9
100
AcDbLine
 10
24.41248301707932
 20
25.25
 30
0.0
 11
24.37751615461503
 21
25.25
 31
0.0
  0
ENDBLK
  5
19B
330
199
100
AcDbEntity
  8
0
100
AcDbBlockEnd
  0
BLOCK
  5
1A0
330
19F
100
AcDbEntity
  8
0
100
AcDbBlockBegin
  2
HATCH_16_27679e06-2258-4ea8-9f5c-6bfaeabb4d18
 70
     0
 10
0.0
 20
0.0
 30
0.0
  3
HATCH_16_27679e06-2258-4ea8-9f5c-6bfaeabb4d18
  1

  0
LINE
  5
1A2
330
19F
100
AcDbEntity
  8
DETAILS
 62
     0
370
     9
100
AcDbLine
 10
24.42570565313019
 20
25.25
 30
0.0
 11
24.41248301707932
 21
25.25
 31
0.0
  0
LINE
  5
1A3
330
19F
100
AcDbEntity
  8
DETAILS
 62
     0
370
     9
100
AcDbLine
 10
24.42570565313019
 20
25.5
 30
0.0
 11
24.39503516378556
 21
25.5
 31
0.0
  0
LINE
  5
1A4
330
19F
100
AcDbEntity
  8
DETAILS
 62
     0
370
     9
100
AcDbLine
 10
24.42570565313019
 20
25.75
 30
0.0
 11
24.37758731049179
 21
25.75
 31
0.0
  0
ENDBLK
  5
1A1
330
19F
100
AcDbEntity
  8
0
100
AcDbBlockEnd
  0
BLOCK
  5
1A6
330
1A5
100
AcDbEntity
  8
0
100
AcDbBlockBegin
  2
HATCH_17_46d5e9be-c21f-41ff-95ff-56102f5f4811
 70
     0
 10
0.0
 20
0.0
 30
0.0
  3
HATCH_17_46d5e9be-c21f-41ff-95ff-56102f5f4811
  1

  0
LINE
  5
1A8
330
1A5
100
AcDbEntity
  8
DETAILS
 62
     0
370
     9
100
AcDbLine
 10
24.42698140536574
 20
25.75
 30
0.0
 11
24.42570565313019
 21
25.75
 31
0.0
  0
LINE
  5
1A9
330
1A5
100
AcDbEntity
  8
DETAILS
 62
     0
370
     9
100
AcDbLine
 10
24.43398319619381
 20
25.5
 30
0.0
 11
24.42570565313019
 21
25.5
 31
0.0
  0
LINE
  5
1AA
330
1A5
100
AcDbEntity
  8
DETAILS
 62
     0
370
     9
100
AcDbLine
 10
24.44098498702187
 20
25.25
 30
0.0
 11
24.42570565313019
 21
25.25
 31
0.0
  0
ENDBLK
  5
1A7
330
1A5
100
AcDbEntity
  8
0
100
AcDbBlockEnd
  0
BLOCK
  5
1AC
330
1AB
100
AcDbEntity
  8
0
100
AcDbBlockBegin
  2
HATCH_18_f1e92403-a697-4c6b-8fd9-09cd73fd86dc
 70
     0
 10
0.0
 20
0.0
 30
0.0
  3
HATCH_18_f1e92403-a697-4c6b-8fd9-09cd73fd86dc
  1

  0
LINE
  5
1AE
330
1AB
100
AcDbEntity
  8
DETAILS
 62
     0
370
     9
100
AcDbLine
 10
24.44678398810945
 20
25.25
 30
0.0
 11
24.44098498702187
 21
25.25
 31
0.0
  0
LINE
  5
1AF
330
1AB
100
AcDbEntity
  8
DETAILS
 62
     0
370
     9
100
AcDbLine
 10
24.44678398810945
 20
25.5
 30
0.0
 11
24.43398319619381
 21
25.5
 31
0.0
  0
LINE
  5
1B0
330
1AB
100
AcDbEntity
  8
DETAILS
 62
     0
370
     9
100
AcDbLine
 10
24.44678398810945
 20
25.75
 30
0.0
 11
24.42698140536574
 21
25.75
 31
0.0
  0
ENDBLK
  5
1AD
330
1AB
100
AcDbEntity
  8
0
100
AcDbBlockEnd
  0
BLOCK
  5
1B2
330
1B1
100
AcDbEntity
  8
0
100
AcDbBlockBegin
  2
HATCH_19_6966ddc1-c456-46a2-8637-e7e41e4251a3
 70
     0
 10
0.0
 20
0.0
 30
0.0
  3
HATCH_19_6966ddc1-c456-46a2-8637-e7e41e4251a3
  1

  0
LINE
  5
1B4
330
1B1
100
AcDbEntity
  8
DETAILS
 62
     0
370
     9
100
AcDbLine
 10
24.45055433071864
 20
25.75
 30
0.0
 11
24.44678398810945
 21
25.75
 31
0.0
  0
LINE
  5
1B5
330
1B1
100
AcDbEntity
  8
DETAILS
 62
     0
370
     9
100
AcDbLine
 10
24.46657257475589
 20
25.5
 30
0.0
 11
24.44678398810945
 21
25.5
 31
0.0
  0
LINE
  5
1B6
330
1B1
100
AcDbEntity
  8
DETAILS
 62
     0
370
     9
100
AcDbLine
 10
24.48259081879314
 20
25.25
 30
0.0
 11
24.44678398810945
 21
25.25
 31
0.0
  0
ENDBLK
  5
1B3
330
1B1
100
AcDbEntity
  8
0
100
AcDbBlockEnd
  0
BLOCK
  5
1B8
330
1B7
100
AcDbEntity
  8
0
100
AcDbBlockBegin
  2
HATCH_20_f68266b0-5e05-49af-84a9-ed93fd2ba127
 70
     0
 10
0.0
 20
0.0
 30
0.0
  3
HATCH_20_f68266b0-5e05-49af-84a9-ed93fd2ba127
  1

  0
LINE
  5
1BA
330
1B7
100
AcDbEntity
  8
DETAILS
 62
     0
370
     9
100
AcDbLine
 10
24.49764212795519
 20
25.25
 30
0.0
 11
24.48259081879314
 21
25.25
 31
0.0
  0
LINE
  5
1BB
330
1B7
100
AcDbEntity
  8
DETAILS
 62
     0
370
     9
100
AcDbLine
 10
24.49764212795519
 20
25.5
 30
0.0
 11
24.46657257475589
 21
25.5
 31
0.0
  0
LINE
  5
1BC
330
1B7
100
AcDbEntity
  8
DETAILS
 62
     0
370
     9
100
AcDbLine
 10
24.49764212795519
 20
25.75
 30
0.0
 11
24.45055433071864
 21
25.75
 31
0.0
  0
ENDBLK
  5
1B9
330
1B7
100
AcDbEntity
  8
0
100
AcDbBlockEnd
  0
BLOCK
  5
1BE
330
1BD
100
AcDbEntity
  8
0
100
AcDbBlockBegin
  2
HATCH_21_dfa6373a-66f6-4634-aa39-c86206445a3a
 70
     0
 10
0.0
 20
0.0
 30
0.0
  3
HATCH_21_dfa6373a-66f6-4634-aa39-c86206445a3a
  1

  0
LINE
  5
1C0
330
1BD
100
AcDbEntity
  8
DETAILS
 62
     0
370
     9
100
AcDbLine
 10
24.50069815501721
 20
25.75
 30
0.0
 11
24.49764212795519
 21
25.75
 31
0.0
  0
LINE
  5
1C1
330
1BD
100
AcDbEntity
  8
DETAILS
 62
     0
370
     9
100
AcDbLine
 10
24.50910127062222
 20
25.5
 30
0.0
 11
24.49764212795519
 21
25.5
 31
0.0
  0
LINE
  5
1C2
330
1BD
100
AcDbEntity
  8
DETAILS
 62
     0
370
     9
100
AcDbLine
 10
24.51750438622723
 20
25.25
 30
0.0
 11
24.49764212795519
 21
25.25
 31
0.0
  0
LINE
  5
1C3
330
1BD
100
AcDbEntity
  8
DETAILS
 62
     0
370
     9
100
AcDbLine
 10
24.52590750183224
 20
25.0
 30
0.0
 11
24.52519616590064
 21
25.0
 31
0.0
  0
ENDBLK
  5
1BF
330
1BD
100
AcDbEntity
  8
0
100
AcDbBlockEnd
  0
BLOCK
  5
1C5
330
1C4
100
AcDbEntity
  8
0
100
AcDbBlockBegin
  2
HATCH_22_45455eb1-4932-4cfd-809e-c372431f6db2
 70
     0
 10
0.0
 20
0.0
 30
0.0
  3
HATCH_22_45455eb1-4932-4cfd-809e-c372431f6db2
  1

  0
LINE
  5
1C7
330
1C4
100
AcDbEntity
  8
DETAILS
 62
     0
370
     9
100
AcDbLine
 10
24.5259208426275
 20
25.0
 30
0.0
 11
24.52590750183224
 21
25.0
 31
0.0
  0
LINE
  5
1C8
330
1C4
100
AcDbEntity
  8
DETAILS
 62
     0
370
     9
100
AcDbLine
 10
24.5259208426275
 20
25.25
 30
0.0
 11
24.51750438622723
 21
25.25
 31
0.0
  0
LINE
  5
1C9
330
1C4
100
AcDbEntity
  8
DETAILS
 62
     0
370
     9
100
AcDbLine
 10
24.5259208426275
 20
25.5
 30
0.0
 11
24.50910127062222
 21
25.5
 31
0.0
  0
LINE
  5
1CA
330
1C4
100
AcDbEntity
  8
DETAILS
 62
     0
370
     9
100
AcDbLine
 10
24.5259208426275
 20
25.75
 30
0.0
 11
24.50069815501721
 21
25.75
 31
0.0
  0
ENDBLK
  5
1C6
330
1C4
100
AcDbEntity
  8
0
100
AcDbBlockEnd
  0
BLOCK
  5
1CC
330
1CB
100
AcDbEntity
  8
0
100
AcDbBlockBegin
  2
HATCH_23_07e0b9d8-49a4-40be-b070-17301b9509f4
 70
     0
 10
0.0
 20
0.0
 30
0.0
  3
HATCH_23_07e0b9d8-49a4-40be-b070-17301b9509f4
  1

  0
LINE
  5
1CE
330
1CB
100
AcDbEntity
  8
DETAILS
 62
     0
370
     9
100
AcDbLine
 10
24.53188814884204
 20
25.75
 30
0.0
 11
24.5259208426275
 21
25.75
 31
0.0
  0
LINE
  5
1CF
330
1CB
100
AcDbEntity
  8
DETAILS
 62
     0
370
     9
100
AcDbLine
 10
24.54648615973346
 20
25.5
 30
0.0
 11
24.5259208426275
 21
25.5
 31
0.0
  0
LINE
  5
1D0
330
1CB
100
AcDbEntity
  8
DETAILS
 62
     0
370
     9
100
AcDbLine
 10
24.56108417062488
 20
25.25
 30
0.0
 11
24.5259208426275
 21
25.25
 31
0.0
  0
LINE
  5
1D1
330
1CB
100
AcDbEntity
  8
DETAILS
 62
     0
370
     9
100
AcDbLine
 10
24.57568218151631
 20
25.0
 30
0.0
 11
24.5259208426275
 21
25.0
 31
0.0
  0
ENDBLK
  5
1CD
330
1CB
100
AcDbEntity
  8
0
100
AcDbBlockEnd
  0
BLOCK
  5
1D3
330
1D2
100
AcDbEntity
  8
0
100
AcDbBlockBegin
  2
HATCH_24_d0f6c7ce-1edf-475a-b413-d660277fb5ad
 70
     0
 10
0.0
 20
0.0
 30
0.0
  3
HATCH_24_d0f6c7ce-1edf-475a-b413-d660277fb5ad
  1

  0
LINE
  5
1D5
330
1D2
100
AcDbEntity
  8
DETAILS
 62
     0
370
     9
100
AcDbLine
 10
24.57664291798669
 20
25.0
 30
0.0
 11
24.57568218151631
 21
25.0
 31
0.0
  0
LINE
  5
1D6
330
1D2
100
AcDbEntity
  8
DETAILS
 62
     0
370
     9
100
AcDbLine
 10
24.57664291798669
 20
25.25
 30
0.0
 11
24.56108417062488
 21
25.25
 31
0.0
  0
LINE
  5
1D7
330
1D2
100
AcDbEntity
  8
DETAILS
 62
     0
370
     9
100
AcDbLine
 10
24.57664291798669
 20
25.5
 30
0.0
 11
24.54648615973346
 21
25.5
 31
0.0
  0
LINE
  5
1D8
330
1D2
100
AcDbEntity
  8
DETAILS
 62
     0
370
     9
100
AcDbLine
 10
24.57664291798669
 20
25.75
 30
0.0
 11
24.53188814884204
 21
25.75
 31
0.0
  0
ENDBLK
  5
1D4
330
1D2
100
AcDbEntity
  8
0
100
AcDbBlockEnd
  0
BLOCK
  5
1DA
330
1D9
100
AcDbEntity
  8
0
100
AcDbBlockBegin
  2
HATCH_25_d8102b81-6ec7-4d79-8451-9b8271d5d9d9
 70
     0
 10
0.0
 20
0.0
 30
0.0
  3
HATCH_25_d8102b81-6ec7-4d79-8451-9b8271d5d9d9
  1

  0
LINE
  5
1DC
330
1D9
100
AcDbEntity
  8
DETAILS
 62
     0
370
     9
100
AcDbLine
 10
24.58144406033019
 20
25.75
 30
0.0
 11
24.57664291798669
 21
25.75
 31
0.0
  0
LINE
  5
1DD
330
1D9
100
AcDbEntity
  8
DETAILS
 62
     0
370
     9
100
AcDbLine
 10
24.59124902835618
 20
25.5
 30
0.0
 11
24.57664291798669
 21
25.5
 31
0.0
  0
LINE
  5
1DE
330
1D9
100
AcDbEntity
  8
DETAILS
 62
     0
370
     9
100
AcDbLine
 10
24.60105399638216
 20
25.25
 30
0.0
 11
24.57664291798669
 21
25.25
 31
0.0
  0
LINE
  5
1DF
330
1D9
100
AcDbEntity
  8
DETAILS
 62
     0
370
     9
100
AcDbLine
 10
24.61085896440814
 20
25.0
 30
0.0
 11
24.57664291798669
 21
25.0
 31
0.0
  0
ENDBLK
  5
1DB
330
1D9
100
AcDbEntity
  8
0
100
AcDbBlockEnd
  0
BLOCK
  5
1E1
330
1E0
100
AcDbEntity
  8
0
100
AcDbBlockBegin
  2
HATCH_26_c410b888-c0a3-483f-9d2c-2e10dd44e493
 70
     0
 10
0.0
 20
0.0
 30
0.0
  3
HATCH_26_c410b888-c0a3-483f-9d2c-2e10dd44e493
  1

  0
LINE
  5
1E3
330
1E0
100
AcDbEntity
  8
DETAILS
 62
     0
370
     9
100
AcDbLine
 10
24.61194250978163
 20
25.0
 30
0.0
 11
24.61085896440814
 21
25.0
 31
0.0
  0
LINE
  5
1E4
330
1E0
100
AcDbEntity
  8
DETAILS
 62
     0
370
     9
100
AcDbLine
 10
24.61194250978163
 20
25.25
 30
0.0
 11
24.60105399638216
 21
25.25
 31
0.0
  0
LINE
  5
1E5
330
1E0
100
AcDbEntity
  8
DETAILS
 62
     0
370
     9
100
AcDbLine
 10
24.61194250978163
 20
25.5
 30
0.0
 11
24.59124902835618
 21
25.5
 31
0.0
  0
LINE
  5
1E6
330
1E0
100
AcDbEntity
  8
DETAILS
 62
     0
370
     9
100
AcDbLine
 10
24.61194250978163
 20
25.75
 30
0.0
 11
24.58144406033019
 21
25.75
 31
0.0
  0
ENDBLK
  5
1E2
330
1E0
100
AcDbEntity
  8
0
100
AcDbBlockEnd
  0
BLOCK
  5
1E8
330
1E7
100
AcDbEntity
  8
0
100
AcDbBlockBegin
  2
HATCH_27_10c6a9aa-5ff5-4e73-b580-fbb9ff7029b0
 70
     0
 10
0.0
 20
0.0
 30
0.0
  3
HATCH_27_10c6a9aa-5ff5-4e73-b580-fbb9ff7029b0
  1

  0
LINE
  5
1EA
330
1E7
100
AcDbEntity
  8
DETAILS
 62
     0
370
     9
100
AcDbLine
 10
24.61876781516736
 20
25.75
 30
0.0
 11
24.61194250978163
 21
25.75
 31
0.0
  0
LINE
  5
1EB
330
1E7
100
AcDbEntity
  8
DETAILS
 62
     0
370
     9
100
AcDbLine
 10
24.63195144714078
 20
25.5
 30
0.0
 11
24.61194250978163
 21
25.5
 31
0.0
  0
LINE
  5
1EC
330
1E7
100
AcDbEntity
  8
DETAILS
 62
     0
370
     9
100
AcDbLine
 10
24.6451350791142
 20
25.25
 30
0.0
 11
24.61194250978163
 21
25.25
 31
0.0
  0
LINE
  5
1ED
330
1E7
100
AcDbEntity
  8
DETAILS
 62
     0
370
     9
100
AcDbLine
 10
24.65831871108763
 20
25.0
 30
0.0
 11
24.61194250978163
 21
25.0
 31
0.0
  0
ENDBLK
  5
1E9
330
1E7
100
AcDbEntity
  8
0
100
AcDbBlockEnd
  0
BLOCK
  5
1EF
330
1EE
100
AcDbEntity
  8
0
100
AcDbBlockBegin
  2
HATCH_28_0cc61b06-c00a-4e14-a093-6c94371b24e1
 70
     0
 10
0.0
 20
0.0
 30
0.0
  3
HATCH_28_0cc61b06-c00a-4e14-a093-6c94371b24e1
  1

  0
LINE
  5
1F1
330
1EE
100
AcDbEntity
  8
DETAILS
 62
     0
370
     9
100
AcDbLine
 10
24.66006123097818
 20
25.0
 30
0.0
 11
24.65831871108763
 21
25.0
 31
0.0
  0
LINE
  5
1F2
330
1EE
100
AcDbEntity
  8
DETAILS
 62
     0
370
     9
100
AcDbLine
 10
24.66006123097818
 20
25.25
 30
0.0
 11
24.6451350791142
 21
25.25
 31
0.0
  0
LINE
  5
1F3
330
1EE
100
AcDbEntity
  8
DETAILS
 62
     0
370
     9
100
AcDbLine
 10
24.66006123097818
 20
25.5
 30
0.0
 11
24.63195144714078
 21
25.5
 31
0.0
  0
LINE
  5
1F4
330
1EE
100
AcDbEntity
  8
DETAILS
 62
     0
370
     9
100
AcDbLine
 10
24.66006123097818
 20
25.75
 30
0.0
 11
24.61876781516736
 21
25.75
 31
0.0
  0
ENDBLK
  5
1F0
330
1EE
100
AcDbEntity
  8
0
100
AcDbBlockEnd
  0
BLOCK
  5
1F6
330
1F5
100
AcDbEntity
  8
0
100
AcDbBlockBegin
  2
HATCH_29_83bcbb75-9b79-4ea4-bc9c-517866d73fba
 70
     0
 10
0.0
 20
0.0
 30
0.0
  3
HATCH_29_83bcbb75-9b79-4ea4-bc9c-517866d73fba
  1

  0
LINE
  5
1F8
330
1F5
100
AcDbEntity
  8
DETAILS
 62
     0
370
     9
100
AcDbLine
 10
24.66629191478349
 20
25.75
 30
0.0
 11
24.66006123097818
 21
25.75
 31
0.0
  0
LINE
  5
1F9
330
1F5
100
AcDbEntity
  8
DETAILS
 62
     0
370
     9
100
AcDbLine
 10
24.67749935115002
 20
25.5
 30
0.0
 11
24.66006123097818
 21
25.5
 31
0.0
  0
LINE
  5
1FA
330
1F5
100
AcDbEntity
  8
DETAILS
 62
     0
370
     9
100
AcDbLine
 10
24.68870678751655
 20
25.25
 30
0.0
 11
24.66006123097818
 21
25.25
 31
0.0
  0
LINE
  5
1FB
330
1F5
100
AcDbEntity
  8
DETAILS
 62
     0
370
     9
100
AcDbLine
 10
24.69991422388308
 20
25.0
 30
0.0
 11
24.66006123097818
 21
25.0
 31
0.0
  0
ENDBLK
  5
1F7
330
1F5
100
AcDbEntity
  8
0
100
AcDbBlockEnd
  0
BLOCK
  5
1FD
330
1FC
100
AcDbEntity
  8
0
100
AcDbBlockBegin
  2
HATCH_30_e626efbc-84b1-4969-8004-e3f911c9b118
 70
     0
 10
0.0
 20
0.0
 30
0.0
  3
HATCH_30_e626efbc-84b1-4969-8004-e3f911c9b118
  1

  0
LINE
  5
1FF
330
1FC
100
AcDbEntity
  8
DETAILS
 62
     0
370
     9
100
AcDbLine
 10
24.70160515858823
 20
25.0
 30
0.0
 11
24.69991422388308
 21
25.0
 31
0.0
  0
LINE
  5
200
330
1FC
100
AcDbEntity
  8
DETAILS
 62
     0
370
     9
100
AcDbLine
 10
24.70160515858823
 20
25.25
 30
0.0
 11
24.68870678751655
 21
25.25
 31
0.0
  0
LINE
  5
201
330
1FC
100
AcDbEntity
  8
DETAILS
 62
     0
370
     9
100
AcDbLine
 10
24.70160515858823
 20
25.5
 30
0.0
 11
24.67749935115002
 21
25.5
 31
0.0
  0
LINE
  5
202
330
1FC
100
AcDbEntity
  8
DETAILS
 62
     0
370
     9
100
AcDbLine
 10
24.70160515858823
 20
25.75
 30
0.0
 11
24.66629191478349
 21
25.75
 31
0.0
  0
ENDBLK
  5
1FE
330
1FC
100
AcDbEntity
  8
0
100
AcDbBlockEnd
  0
BLOCK
  5
204
330
203
100
AcDbEntity
  8
0
100
AcDbBlockBegin
  2
HATCH_31_a7bef6ec-21c1-446e-9569-88c013246249
 70
     0
 10
0.0
 20
0.0
 30
0.0
  3
HATCH_31_a7bef6ec-21c1-446e-9569-88c013246249
  1

  0
LINE
  5
206
330
203
100
AcDbEntity
  8
DETAILS
 62
     0
370
     9
100
AcDbLine
 10
24.70817541392312
 20
25.75
 30
0.0
 11
24.70160515858823
 21
25.75
 31
0.0
  0
LINE
  5
207
330
203
100
AcDbEntity
  8
DETAILS
 62
     0
370
     9
100
AcDbLine
 10
24.71994866810533
 20
25.5
 30
0.0
 11
24.70160515858823
 21
25.5
 31
0.0
  0
LINE
  5
208
330
203
100
AcDbEntity
  8
DETAILS
 62
     0
370
     9
100
AcDbLine
 10
24.73172192228754
 20
25.25
 30
0.0
 11
24.70160515858823
 21
25.25
 31
0.0
  0
LINE
  5
209
330
203
100
AcDbEntity
  8
DETAILS
 62
     0
370
     9
100
AcDbLine
 10
24.74349517646976
 20
25.0
 30
0.0
 11
24.70160515858823
 21
25.0
 31
0.0
  0
ENDBLK
  5
205
330
203
100
AcDbEntity
  8
0
100
AcDbBlockEnd
  0
BLOCK
  5
20B
330
20A
100
AcDbEntity
  8
0
100
AcDbBlockBegin
  2
HATCH_32_57765251-38b8-4971-a249-82447926517f
 70
     0
 10
0.0
 20
0.0
 30
0.0
  3
HATCH_32_57765251-38b8-4971-a249-82447926517f
  1

  0
LINE
  5
20D
330
20A
100
AcDbEntity
  8
DETAILS
 62
     0
370
     9
100
AcDbLine
 10
24.74510227280226
 20
25.0
 30
0.0
 11
24.74349517646976
 21
25.0
 31
0.0
  0
LINE
  5
20E
330
20A
100
AcDbEntity
  8
DETAILS
 62
     0
370
     9
100
AcDbLine
 10
24.74510227280226
 20
25.25
 30
0.0
 11
24.73172192228754
 21
25.25
 31
0.0
  0
LINE
  5
20F
330
20A
100
AcDbEntity
  8
DETAILS
 62
     0
370
     9
100
AcDbLine
 10
24.74510227280226
 20
25.5
 30
0.0
 11
24.71994866810533
 21
25.5
 31
0.0
  0
LINE
  5
210
330
20A
100
AcDbEntity
  8
DETAILS
 62
     0
370
     9
100
AcDbLine
 10
24.74510227280226
 20
25.75
 30
0.0
 11
24.70817541392312
 21
25.75
 31
0.0
  0
ENDBLK
  5
20C
330
20A
100
AcDbEntity
  8
0
100
AcDbBlockEnd
  0
BLOCK
  5
212
330
211
100
AcDbEntity
  8
0
100
AcDbBlockBegin
  2
HATCH_33_a8dadb9e-582b-414b-b125-8739c9d7d1b5
 70
     0
 10
0.0
 20
0.0
 30
0.0
  3
HATCH_33_a8dadb9e-582b-414b-b125-8739c9d7d1b5
  1

  0
LINE
  5
214
330
211
100
AcDbEntity
  8
DETAILS
 62
     0
370
     9
100
AcDbLine
 10
24.75216787551342
 20
25.75
 30
0.0
 11
24.74510227280226
 21
25.75
 31
0.0
  0
LINE
  5
215
330
211
100
AcDbEntity
  8
DETAILS
 62
     0
370
     9
100
AcDbLine
 10
24.7647784845705
 20
25.5
 30
0.0
 11
24.74510227280226
 21
25.5
 31
0.0
  0
LINE
  5
216
330
211
100
AcDbEntity
  8
DETAILS
 62
     0
370
     9
100
AcDbLine
 10
24.77738909362757
 20
25.25
 30
0.0
 11
24.74510227280226
 21
25.25
 31
0.0
  0
LINE
  5
217
330
211
100
AcDbEntity
  8
DETAILS
 62
     0
370
     9
100
AcDbLine
 10
24.78999970268465
 20
25.0
 30
0.0
 11
24.74510227280226
 21
25.0
 31
0.0
  0
ENDBLK
  5
213
330
211
100
AcDbEntity
  8
0
100
AcDbBlockEnd
  0
BLOCK
  5
219
330
218
100
AcDbEntity
  8
0
100
AcDbBlockBegin
  2
HATCH_34_aca81093-377d-4b30-919e-a2a3db20307d
 70
     0
 10
0.0
 20
0.0
 30
0.0
  3
HATCH_34_aca81093-377d-4b30-919e-a2a3db20307d
  1

  0
LINE
  5
21B
330
218
100
AcDbEntity
  8
DETAILS
 62
     0
370
     9
100
AcDbLine
 10
24.79152765859617
 20
25.0
 30
0.0
 11
24.78999970268465
 21
25.0
 31
0.0
  0
LINE
  5
21C
330
218
100
AcDbEntity
  8
DETAILS
 62
     0
370
     9
100
AcDbLine
 10
24.79152765859617
 20
25.25
 30
0.0
 11
24.77738909362757
 21
25.25
 31
0.0
  0
LINE
  5
21D
330
218
100
AcDbEntity
  8
DETAILS
 62
     0
370
     9
100
AcDbLine
 10
24.79152765859617
 20
25.5
 30
0.0
 11
24.7647784845705
 21
25.5
 31
0.0
  0
LINE
  5
21E
330
218
100
AcDbEntity
  8
DETAILS
 62
     0
370
     9
100
AcDbLine
 10
24.79152765859617
 20
25.75
 30
0.0
 11
24.75216787551342
 21
25.75
 31
0.0
  0
ENDBLK
  5
21A
330
218
100
AcDbEntity
  8
0
100
AcDbBlockEnd
  0
BLOCK
  5
220
330
21F
100
AcDbEntity
  8
0
100
AcDbBlockBegin
  2
HATCH_35_f159c134-ae2d-4f78-a605-fa27445b48bc
 70
     0
 10
0.0
 20
0.0
 30
0.0
  3
HATCH_35_f159c134-ae2d-4f78-a605-fa27445b48bc
  1

  0
LINE
  5
222
330
21F
100
AcDbEntity
  8
DETAILS
 62
     0
370
     9
100
AcDbLine
 10
24.79700407822918
 20
25.75
 30
0.0
 11
24.79152765859617
 21
25.75
 31
0.0
  0
LINE
  5
223
330
21F
100
AcDbEntity
  8
DETAILS
 62
     0
370
     9
100
AcDbLine
 10
24.80736989454175
 20
25.5
 30
0.0
 11
24.79152765859617
 21
25.5
 31
0.0
  0
LINE
  5
224
330
21F
100
AcDbEntity
  8
DETAILS
 62
     0
370
     9
100
AcDbLine
 10
24.81773571085431
 20
25.25
 30
0.0
 11
24.79152765859617
 21
25.25
 31
0.0
  0
LINE
  5
225
330
21F
100
AcDbEntity
  8
DETAILS
 62
     0
370
     9
100
AcDbLine
 10
24.82810152716688
 20
25.0
 30
0.0
 11
24.79152765859617
 21
25.0
 31
0.0
  0
ENDBLK
  5
221
330
21F
100
AcDbEntity
  8
0
100
AcDbBlockEnd
  0
BLOCK
  5
227
330
226
100
AcDbEntity
  8
0
100
AcDbBlockBegin
  2
HATCH_36_3905081a-c08c-43c8-b825-2beca5d175c3
 70
     0
 10
0.0
 20
0.0
 30
0.0
  3
HATCH_36_3905081a-c08c-43c8-b825-2beca5d175c3
  1

  0
LINE
  5
229
330
226
100
AcDbEntity
  8
DETAILS
 62
     0
370
     9
100
AcDbLine
 10
24.82891688245632
 20
25.0
 30
0.0
 11
24.82810152716688
 21
25.0
 31
0.0
  0
LINE
  5
22A
330
226
100
AcDbEntity
  8
DETAILS
 62
     0
370
     9
100
AcDbLine
 10
24.82891688245632
 20
25.25
 30
0.0
 11
24.81773571085431
 21
25.25
 31
0.0
  0
LINE
  5
22B
330
226
100
AcDbEntity
  8
DETAILS
 62
     0
370
     9
100
AcDbLine
 10
24.82891688245632
 20
25.5
 30
0.0
 11
24.80736989454175
 21
25.5
 31
0.0
  0
LINE
  5
22C
330
226
100
AcDbEntity
  8
DETAILS
 62
     0
370
     9
100
AcDbLine
 10
24.82891688245632
 20
25.75
 30
0.0
 11
24.79700407822918
 21
25.75
 31
0.0
  0
ENDBLK
  5
228
330
226
100
AcDbEntity
  8
0
100
AcDbBlockEnd
  0
BLOCK
  5
22E
330
22D
100
AcDbEntity
  8
0
100
AcDbBlockBegin
  2
HATCH_37_87684754-87fe-42a9-b7ca-0dff58a8a03d
 70
     0
 10
0.0
 20
0.0
 30
0.0
  3
HATCH_37_87684754-87fe-42a9-b7ca-0dff58a8a03d
  1

  0
LINE
  5
230
330
22D
100
AcDbEntity
  8
DETAILS
 62
     0
370
     9
100
AcDbLine
 10
24.83596010122903
 20
25.75
 30
0.0
 11
24.82891688245632
 21
25.75
 31
0.0
  0
LINE
  5
231
330
22D
100
AcDbEntity
  8
DETAILS
 62
     0
370
     9
100
AcDbLine
 10
24.84997467593434
 20
25.5
 30
0.0
 11
24.82891688245632
 21
25.5
 31
0.0
  0
LINE
  5
232
330
22D
100
AcDbEntity
  8
DETAILS
 62
     0
370
     9
100
AcDbLine
 10
24.86398925063965
 20
25.25
 30
0.0
 11
24.82891688245632
 21
25.25
 31
0.0
  0
LINE
  5
233
330
22D
100
AcDbEntity
  8
DETAILS
 62
     0
370
     9
100
AcDbLine
 10
24.87800382534497
 20
25.0
 30
0.0
 11
24.82891688245632
 21
25.0
 31
0.0
  0
ENDBLK
  5
22F
330
22D
100
AcDbEntity
  8
0
100
AcDbBlockEnd
  0
BLOCK
  5
235
330
234
100
AcDbEntity
  8
0
100
AcDbBlockBegin
  2
HATCH_38_1e007088-e78d-4a66-a86b-61ce5f9e0f6d
 70
     0
 10
0.0
 20
0.0
 30
0.0
  3
HATCH_38_1e007088-e78d-4a66-a86b-61ce5f9e0f6d
  1

  0
LINE
  5
237
330
234
100
AcDbEntity
  8
DETAILS
 62
     0
370
     9
100
AcDbLine
 10
24.87831908050472
 20
25.0
 30
0.0
 11
24.87800382534497
 21
25.0
 31
0.0
  0
LINE
  5
238
330
234
100
AcDbEntity
  8
DETAILS
 62
     0
370
     9
100
AcDbLine
 10
24.87831908050472
 20
25.25
 30
0.0
 11
24.86398925063965
 21
25.25
 31
0.0
  0
LINE
  5
239
330
234
100
AcDbEntity
  8
DETAILS
 62
     0
370
     9
100
AcDbLine
 10
24.87831908050472
 20
25.5
 30
0.0
 11
24.84997467593434
 21
25.5
 31
0.0
  0
LINE
  5
23A
330
234
100
AcDbEntity
  8
DETAILS
 62
     0
370
     9
100
AcDbLine
 10
24.87831908050472
 20
25.75
 30
0.0
 11
24.83596010122903
 21
25.75
 31
0.0
  0
ENDBLK
  5
236
330
234
100
AcDbEntity
  8
0
100
AcDbBlockEnd
  0
BLOCK
  5
23C
330
23B
100
AcDbEntity
  8
0
100
AcDbBlockBegin
  2
HATCH_39_020f05f1-1cb9-4918-b1b2-a0d3d75b4ff9
 70
     0
 10
0.0
 20
0.0
 30
0.0
  3
HATCH_39_020f05f1-1cb9-4918-b1b2-a0d3d75b4ff9
  1

  0
LINE
  5
23E
330
23B
100
AcDbEntity
  8
DETAILS
 62
     0
370
     9
100
AcDbLine
 10
24.88935159992336
 20
25.0
 30
0.0
 11
24.87831908050472
 21
25.0
 31
0.0
  0
LINE
  5
23F
330
23B
100
AcDbEntity
  8
DETAILS
 62
     0
370
     9
100
AcDbLine
 10
24.88216838345778
 20
25.75
 30
0.0
 11
24.87831908050472
 21
25.75
 31
0.0
  0
LINE
  5
240
330
23B
100
AcDbEntity
  8
DETAILS
 62
     0
370
     9
100
AcDbLine
 10
24.89112906800854
 20
25.5
 30
0.0
 11
24.87831908050472
 21
25.5
 31
0.0
  0
LINE
  5
241
330
23B
100
AcDbEntity
  8
DETAILS
 62
     0
370
     9
100
AcDbLine
 10
24.90008975255929
 20
25.25
 30
0.0
 11
24.87831908050472
 21
25.25
 31
0.0
  0
ENDBLK
  5
23D
330
23B
100
AcDbEntity
  8
0
100
AcDbBlockEnd
  0
BLOCK
  5
243
330
242
100
AcDbEntity
  8
0
100
AcDbBlockBegin
  2
HATCH_40_1018c459-7748-4b5f-af25-dc883833b37a
 70
     0
 10
0.0
 20
0.0
 30
0.0
  3
HATCH_40_1018c459-7748-4b5f-af25-dc883833b37a
  1

  0
LINE
  5
245
330
242
100
AcDbEntity
  8
DETAILS
 62
     0
370
     9
100
AcDbLine
 10
24.90869698854149
 20
25.25
 30
0.0
 11
24.90008975255929
 21
25.25
 31
0.0
  0
LINE
  5
246
330
242
100
AcDbEntity
  8
DETAILS
 62
     0
370
     9
100
AcDbLine
 10
24.90869698854149
 20
25.5
 30
0.0
 11
24.89112906800854
 21
25.5
 31
0.0
  0
LINE
  5
247
330
242
100
AcDbEntity
  8
DETAILS
 62
     0
370
     9
100
AcDbLine
 10
24.90869698854149
 20
25.75
 30
0.0
 11
24.88216838345778
 21
25.75
 31
0.0
  0
ENDBLK
  5
244
330
242
100
AcDbEntity
  8
0
100
AcDbBlockEnd
  0
BLOCK
  5
249
330
248
100
AcDbEntity
  8
0
100
AcDbBlockBegin
  2
HATCH_41_9f96fc6b-02cd-4205-a600-82e7922f42ca
 70
     0
 10
0.0
 20
0.0
 30
0.0
  3
HATCH_41_9f96fc6b-02cd-4205-a600-82e7922f42ca
  1

  0
LINE
  5
24B
330
248
100
AcDbEntity
  8
DETAILS
 62
     0
370
     9
100
AcDbLine
 10
24.91462878563627
 20
25.75
 30
0.0
 11
24.90869698854149
 21
25.75
 31
0.0
  0
LINE
  5
24C
330
248
100
AcDbEntity
  8
DETAILS
 62
     0
370
     9
100
AcDbLine
 10
24.9300482077549
 20
25.5
 30
0.0
 11
24.90869698854149
 21
25.5
 31
0.0
  0
LINE
  5
24D
330
248
100
AcDbEntity
  8
DETAILS
 62
     0
370
     9
100
AcDbLine
 10
24.94546762987352
 20
25.25
 30
0.0
 11
24.90869698854149
 21
25.25
 31
0.0
  0
ENDBLK
  5
24A
330
248
100
AcDbEntity
  8
0
100
AcDbBlockEnd
  0
BLOCK
  5
24F
330
24E
100
AcDbEntity
  8
0
100
AcDbBlockBegin
  2
HATCH_42_4fd43c68-66cf-499c-97c3-1c6080e493b7
 70
     0
 10
0.0
 20
0.0
 30
0.0
  3
HATCH_42_4fd43c68-66cf-499c-97c3-1c6080e493b7
  1

  0
LINE
  5
251
330
24E
100
AcDbEntity
  8
DETAILS
 62
     0
370
     9
100
AcDbLine
 10
24.95870656629085
 20
25.25
 30
0.0
 11
24.94546762987352
 21
25.25
 31
0.0
  0
LINE
  5
252
330
24E
100
AcDbEntity
  8
DETAILS
 62
     0
370
     9
100
AcDbLine
 10
24.95870656629085
 20
25.5
 30
0.0
 11
24.9300482077549
 21
25.5
 31
0.0
  0
LINE
  5
253
330
24E
100
AcDbEntity
  8
DETAILS
 62
     0
370
     9
100
AcDbLine
 10
24.95870656629085
 20
25.75
 30
0.0
 11
24.91462878563627
 21
25.75
 31
0.0
  0
ENDBLK
  5
250
330
24E
100
AcDbEntity
  8
0
100
AcDbBlockEnd
  0
BLOCK
  5
255
330
254
100
AcDbEntity
  8
0
100
AcDbBlockBegin
  2
HATCH_43_7887b016-3e90-48c4-8878-50414d511dc0
 70
     0
 10
0.0
 20
0.0
 30
0.0
  3
HATCH_43_7887b016-3e90-48c4-8878-50414d511dc0
  1

  0
LINE
  5
257
330
254
100
AcDbEntity
  8
DETAILS
 62
     0
370
     9
100
AcDbLine
 10
24.96071363770198
 20
25.75
 30
0.0
 11
24.95870656629085
 21
25.75
 31
0.0
  0
LINE
  5
258
330
254
100
AcDbEntity
  8
DETAILS
 62
     0
370
     9
100
AcDbLine
 10
24.96827113578998
 20
25.5
 30
0.0
 11
24.95870656629085
 21
25.5
 31
0.0
  0
LINE
  5
259
330
254
100
AcDbEntity
  8
DETAILS
 62
     0
370
     9
100
AcDbLine
 10
24.97582863387798
 20
25.25
 30
0.0
 11
24.95870656629085
 21
25.25
 31
0.0
  0
ENDBLK
  5
256
330
254
100
AcDbEntity
  8
0
100
AcDbBlockEnd
  0
BLOCK
  5
25B
330
25A
100
AcDbEntity
  8
0
100
AcDbBlockBegin
  2
HATCH_44_13d0c749-7cea-42ab-8fdf-b55a3a9a6155
 70
     0
 10
0.0
 20
0.0
 30
0.0
  3
HATCH_44_13d0c749-7cea-42ab-8fdf-b55a3a9a6155
  1

  0
LINE
  5
25D
330
25A
100
AcDbEntity
  8
DETAILS
 62
     0
370
     9
100
AcDbLine
 10
24.98176968910165
 20
25.25
 30
0.0
 11
24.97582863387798
 21
25.25
 31
0.0
  0
LINE
  5
25E
330
25A
100
AcDbEntity
  8
DETAILS
 62
     0
370
     9
100
AcDbLine
 10
24.98176968910165
 20
25.5
 30
0.0
 11
24.96827113578998
 21
25.5
 31
0.0
  0
LINE
  5
25F
330
25A
100
AcDbEntity
  8
DETAILS
 62
     0
370
     9
100
AcDbLine
 10
24.98176968910165
 20
25.75
 30
0.0
 11
24.96071363770198
 21
25.75
 31
0.0
  0
ENDBLK
  5
25C
330
25A
100
AcDbEntity
  8
0
100
AcDbBlockEnd
  0
BLOCK
  5
261
330
260
100
AcDbEntity
  8
0
100
AcDbBlockBegin
  2
HATCH_45_c75e4b08-944a-41fb-ae07-81480b97f83e
 70
     0
 10
0.0
 20
0.0
 30
0.0
  3
HATCH_45_c75e4b08-944a-41fb-ae07-81480b97f83e
  1

  0
LINE
  5
263
330
260
100
AcDbEntity
  8
DETAILS
 62
     0
370
     9
100
AcDbLine
 10
24.9853137091287
 20
25.75
 30
0.0
 11
24.98176968910165
 21
25.75
 31
0.0
  0
LINE
  5
264
330
260
100
AcDbEntity
  8
DETAILS
 62
     0
370
     9
100
AcDbLine
 10
25.00213894945538
 20
25.5
 30
0.0
 11
24.98176968910165
 21
25.5
 31
0.0
  0
LINE
  5
265
330
260
100
AcDbEntity
  8
DETAILS
 62
     0
370
     9
100
AcDbLine
 10
25.01896418978205
 20
25.25
 30
0.0
 11
24.98176968910165
 21
25.25
 31
0.0
  0
ENDBLK
  5
262
330
260
100
AcDbEntity
  8
0
100
AcDbBlockEnd
  0
BLOCK
  5
267
330
266
100
AcDbEntity
  8
0
100
AcDbBlockBegin
  2
HATCH_46_7a78a7f9-80ae-444e-b297-b155afdb91e6
 70
     0
 10
0.0
 20
0.0
 30
0.0
  3
HATCH_46_7a78a7f9-80ae-444e-b297-b155afdb91e6
  1

  0
LINE
  5
269
330
266
100
AcDbEntity
  8
DETAILS
 62
     0
370
     9
100
AcDbLine
 10
25.02965874693191
 20
25.25
 30
0.0
 11
25.01896418978205
 21
25.25
 31
0.0
  0
LINE
  5
26A
330
266
100
AcDbEntity
  8
DETAILS
 62
     0
370
     9
100
AcDbLine
 10
25.02965874693191
 20
25.5
 30
0.0
 11
25.00213894945538
 21
25.5
 31
0.0
  0
LINE
  5
26B
330
266
100
AcDbEntity
  8
DETAILS
 62
     0
370
     9
100
AcDbLine
 10
25.02965874693191
 20
25.75
 30
0.0
 11
24.9853137091287
 21
25.75
 31
0.0
  0
ENDBLK
  5
268
330
266
100
AcDbEntity
  8
0
100
AcDbBlockEnd
  0
BLOCK
  5
26D
330
26C
100
AcDbEntity
  8
0
100
AcDbBlockBegin
  2
HATCH_47_1a35440e-c0b1-4ff3-9dab-9ea5378efdc2
 70
     0
 10
0.0
 20
0.0
 30
0.0
  3
HATCH_47_1a35440e-c0b1-4ff3-9dab-9ea5378efdc2
  1

  0
LINE
  5
26F
330
26C
100
AcDbEntity
  8
DETAILS
 62
     0
370
     9
100
AcDbLine
 10
25.02992034331926
 20
25.75
 30
0.0
 11
25.02965874693191
 21
25.75
 31
0.0
  0
LINE
  5
270
330
26C
100
AcDbEntity
  8
DETAILS
 62
     0
370
     9
100
AcDbLine
 10
25.03607648170986
 20
25.5
 30
0.0
 11
25.02965874693191
 21
25.5
 31
0.0
  0
LINE
  5
271
330
26C
100
AcDbEntity
  8
DETAILS
 62
     0
370
     9
100
AcDbLine
 10
25.04223262010046
 20
25.25
 30
0.0
 11
25.02965874693191
 21
25.25
 31
0.0
  0
ENDBLK
  5
26E
330
26C
100
AcDbEntity
  8
0
100
AcDbBlockEnd
  0
BLOCK
  5
273
330
272
100
AcDbEntity
  8
0
100
AcDbBlockBegin
  2
HATCH_48_965455bd-4e1d-46ab-9ce1-40c4c93dea1c
 70
     0
 10
0.0
 20
0.0
 30
0.0
  3
HATCH_48_965455bd-4e1d-46ab-9ce1-40c4c93dea1c
  1

  0
LINE
  5
275
330
272
100
AcDbEntity
  8
DETAILS
 62
     0
370
     9
100
AcDbLine
 10
25.04568680283134
 20
25.25
 30
0.0
 11
25.04223262010046
 21
25.25
 31
0.0
  0
LINE
  5
276
330
272
100
AcDbEntity
  8
DETAILS
 62
     0
370
     9
100
AcDbLine
 10
25.04568680283134
 20
25.5
 30
0.0
 11
25.03607648170986
 21
25.5
 31
0.0
  0
LINE
  5
277
330
272
100
AcDbEntity
  8
DETAILS
 62
     0
370
     9
100
AcDbLine
 10
25.04176136998976
 20
25.75
 30
0.0
 11
25.02992034331926
 21
25.75
 31
0.0
  0
ENDBLK
  5
274
330
272
100
AcDbEntity
  8
0
100
AcDbBlockEnd
  0
BLOCK
  5
279
330
278
100
AcDbEntity
  8
0
100
AcDbBlockBegin
  2
HATCH_49_51e5e662-a60e-4225-b80a-b593f6eda79b
 70
     0
 10
0.0
 20
0.0
 30
0.0
  3
HATCH_49_51e5e662-a60e-4225-b80a-b593f6eda79b
  1

  0
LINE
  5
27B
330
278
100
AcDbEntity
  8
DETAILS
 62
     0
370
     9
100
AcDbLine
 10
25.06366763528708
 20
25.5
 30
0.0
 11
25.04568680283134
 21
25.5
 31
0.0
  0
LINE
  5
27C
330
278
100
AcDbEntity
  8
DETAILS
 62
     0
370
     9
100
AcDbLine
 10
25.08189975389116
 20
25.25
 30
0.0
 11
25.04568680283134
 21
25.25
 31
0.0
  0
ENDBLK
  5
27A
330
278
100
AcDbEntity
  8
0
100
AcDbBlockEnd
  0
BLOCK
  5
27E
330
27D
100
AcDbEntity
  8
0
100
AcDbBlockBegin
  2
HATCH_50_6fa1ed1d-f7ba-43d9-ab05-90b0360bee6b
 70
     0
 10
0.0
 20
0.0
 30
0.0
  3
HATCH_50_6fa1ed1d-f7ba-43d9-ab05-90b0360bee6b
  1

  0
LINE
  5
280
330
27D
100
AcDbEntity
  8
DETAILS
 62
     0
370
     9
100
AcDbLine
 10
25.08850005370745
 20
25.25
 30
0.0
 11
25.08189975389116
 21
25.25
 31
0.0
  0
LINE
  5
281
330
27D
100
AcDbEntity
  8
DETAILS
 62
     0
370
     9
100
AcDbLine
 10
25.08850005370745
 20
25.5
 30
0.0
 11
25.06366763528708
 21
25.5
 31
0.0
  0
ENDBLK
  5
27F
330
27D
100
AcDbEntity
  8
0
100
AcDbBlockEnd
  0
BLOCK
  5
283
330
282
100
AcDbEntity
  8
0
100
AcDbBlockBegin
  2
HATCH_51_2cc71294-63b0-4544-8484-8c82187acd7c
 70
     0
 10
0.0
 20
0.0
 30
0.0
  3
HATCH_51_2cc71294-63b0-4544-8484-8c82187acd7c
  1

  0
LINE
  5
285
330
282
100
AcDbEntity
  8
DETAILS
 62
     0
370
     9
100
AcDbLine
 10
25.0921569775792
 20
25.5
 30
0.0
 11
25.08850005370745
 21
25.5
 31
0.0
  0
LINE
  5
286
330
282
100
AcDbEntity
  8
DETAILS
 62
     0
370
     9
100
AcDbLine
 10
25.0969138541983
 20
25.25
 30
0.0
 11
25.08850005370745
 21
25.25
 31
0.0
  0
ENDBLK
  5
284
330
282
100
AcDbEntity
  8
0
100
AcDbBlockEnd
  0
BLOCK
  5
288
330
287
100
AcDbEntity
  8
0
100
AcDbBlockBegin
  2
HATCH_52_d35ce6de-3ed9-47e2-9c6c-53379d80518f
 70
     0
 10
0.0
 20
0.0
 30
0.0
  3
HATCH_52_d35ce6de-3ed9-47e2-9c6c-53379d80518f
  1

  0
LINE
  5
28A
330
287
100
AcDbEntity
  8
DETAILS
 62
     0
370
     9
100
AcDbLine
 10
25.09830689138581
 20
25.25
 30
0.0
 11
25.0969138541983
 21
25.25
 31
0.0
  0
LINE
  5
28B
330
287
100
AcDbEntity
  8
DETAILS
 62
     0
370
     9
100
AcDbLine
 10
25.09830689138581
 20
25.5
 30
0.0
 11
25.0921569775792
 21
25.5
 31
0.0
  0
ENDBLK
  5
289
330
287
100
AcDbEntity
  8
0
100
AcDbBlockEnd
  0
BLOCK
  5
28D
330
28C
100
AcDbEntity
  8
0
100
AcDbBlockBegin
  2
HATCH_53_91542d26-dee2-4153-8894-ce8eb177d510
 70
     0
 10
0.0
 20
0.0
 30
0.0
  3
HATCH_53_91542d26-dee2-4153-8894-ce8eb177d510
  1

  0
LINE
  5
28F
330
28C
100
AcDbEntity
  8
DETAILS
 62
     0
370
     9
100
AcDbLine
 10
25.11242729480624
 20
25.5
 30
0.0
 11
25.09830689138581
 21
25.5
 31
0.0
  0
LINE
  5
290
330
28C
100
AcDbEntity
  8
DETAILS
 62
     0
370
     9
100
AcDbLine
 10
25.1320674412995
 20
25.25
 30
0.0
 11
25.09830689138581
 21
25.25
 31
0.0
  0
ENDBLK
  5
28E
330
28C
100
AcDbEntity
  8
0
100
AcDbBlockEnd
  0
BLOCK
  5
292
330
291
100
AcDbEntity
  8
0
100
AcDbBlockBegin
  2
HATCH_54_abc9fdc2-4335-482a-84b7-2697f76d8c62
 70
     0
 10
0.0
 20
0.0
 30
0.0
  3
HATCH_54_abc9fdc2-4335-482a-84b7-2697f76d8c62
  1

  0
LINE
  5
294
330
291
100
AcDbEntity
  8
DETAILS
 62
     0
370
     9
100
AcDbLine
 10
25.13301161246227
 20
25.25
 30
0.0
 11
25.1320674412995
 21
25.25
 31
0.0
  0
LINE
  5
295
330
291
100
AcDbEntity
  8
DETAILS
 62
     0
370
     9
100
AcDbLine
 10
25.13020631413983
 20
25.5
 30
0.0
 11
25.11242729480624
 21
25.5
 31
0.0
  0
ENDBLK
  5
293
330
291
100
AcDbEntity
  8
0
100
AcDbBlockEnd
  0
BLOCK
  5
297
330
296
100
AcDbEntity
  8
0
100
AcDbBlockBegin
  2
HATCH_55_9128fe36-419a-4028-96dc-fdf570548cc1
 70
     0
 10
0.0
 20
0.0
 30
0.0
  3
HATCH_55_9128fe36-419a-4028-96dc-fdf570548cc1
  1

  0
LINE
  5
299
330
296
100
AcDbEntity
  8
DETAILS
 62
     0
370
     9
100
AcDbLine
 10
25.1370131326721
 20
25.25
 30
0.0
 11
25.13301161246227
 21
25.25
 31
0.0
  0
ENDBLK
  5
298
330
296
100
AcDbEntity
  8
0
100
AcDbBlockEnd
  0
BLOCK
  5
29B
330
29A
100
AcDbEntity
  8
0
100
AcDbBlockBegin
  2
HATCH_56_f09c5711-8c95-4c16-9e6c-903897ba71ca
 70
     0
 10
0.0
 20
0.0
 30
0.0
  3
HATCH_56_f09c5711-8c95-4c16-9e6c-903897ba71ca
  1

  0
LINE
  5
29D
330
29A
100
AcDbEntity
  8
DETAILS
 62
     0
370
     9
100
AcDbLine
 10
30.08609552291625
 20
23.0
 30
0.0
 11
30.07999208648146
 21
23.0
 31
0.0
  0
ENDBLK
  5
29C
330
29A
100
AcDbEntity
  8
0
100
AcDbBlockEnd
  0
BLOCK
  5
29F
330
29E
100
AcDbEntity
  8
0
100
AcDbBlockBegin
  2
HATCH_57_0ce53450-da1e-4bcb-9f07-012b994ed1d2
 70
     0
 10
0.0
 20
0.0
 30
0.0
  3
HATCH_57_0ce53450-da1e-4bcb-9f07-012b994ed1d2
  1

  0
LINE
  5
2A1
330
29E
100
AcDbEntity
  8
DETAILS
 62
     0
370
     9
100
AcDbLine
 10
30.08646075335056
 20
23.0
 30
0.0
 11
30.08609552291625
 21
23.0
 31
0.0
  0
ENDBLK
  5
2A0
330
29E
100
AcDbEntity
  8
0
100
AcDbBlockEnd
  0
BLOCK
  5
2A3
330
2A2
100
AcDbEntity
  8
0
100
AcDbBlockBegin
  2
HATCH_58_c8826ae9-e9fa-4031-b967-3bf97c4da2f6
 70
     0
 10
0.0
 20
0.0
 30
0.0
  3
HATCH_58_c8826ae9-e9fa-4031-b967-3bf97c4da2f6
  1

  0
LINE
  5
2A5
330
2A2
100
AcDbEntity
  8
DETAILS
 62
     0
370
     9
100
AcDbLine
 10
30.08719512619777
 20
23.0
 30
0.0
 11
30.08646075335056
 21
23.0
 31
0.0
  0
ENDBLK
  5
2A4
330
2A2
100
AcDbEntity
  8
0
100
AcDbBlockEnd
  0
BLOCK
  5
2A7
330
2A6
100
AcDbEntity
  8
0
100
AcDbBlockBegin
  2
HATCH_59_accd9868-847e-45f8-bcf6-4bc9e04b2cc3
 70
     0
 10
0.0
 20
0.0
 30
0.0
  3
HATCH_59_accd9868-847e-45f8-bcf6-4bc9e04b2cc3
  1

  0
LINE
  5
2A9
330
2A6
100
AcDbEntity
  8
DETAILS
 62
     0
370
     9
100
AcDbLine
 10
30.09356145820645
 20
23.0
 30
0.0
 11
30.08719512619777
 21
23.0
 31
0.0
  0
ENDBLK
  5
2A8
330
2A6
100
AcDbEntity
  8
0
100
AcDbBlockEnd
  0
BLOCK
  5
2AB
330
2AA
100
AcDbEntity
  8
0
100
AcDbBlockBegin
  2
HATCH_60_2e13bc97-5eb3-43f3-81cb-39f6e95ff6ec
 70
     0
 10
0.0
 20
0.0
 30
0.0
  3
HATCH_60_2e13bc97-5eb3-43f3-81cb-39f6e95ff6ec
  1

  0
LINE
  5
2AD
330
2AA
100
AcDbEntity
  8
DETAILS
 62
     0
370
     9
100
AcDbLine
 10
30.11198372508265
 20
23.0
 30
0.0
 11
30.09356145820645
 21
23.0
 31
0.0
  0
ENDBLK
  5
2AC
330
2AA
100
AcDbEntity
  8
0
100
AcDbBlockEnd
  0
BLOCK
  5
2AF
330
2AE
100
AcDbEntity
  8
0
100
AcDbBlockBegin
  2
HATCH_61_bed00d27-bec8-402d-9766-066c6800e2e3
 70
     0
 10
0.0
 20
0.0
 30
0.0
  3
HATCH_61_bed00d27-bec8-402d-9766-066c6800e2e3
  1

  0
LINE
  5
2B1
330
2AE
100
AcDbEntity
  8
DETAILS
 62
     0
370
     9
100
AcDbLine
 10
30.1137664729407
 20
23.0
 30
0.0
 11
30.11198372508265
 21
23.0
 31
0.0
  0
ENDBLK
  5
2B0
330
2AE
100
AcDbEntity
  8
0
100
AcDbBlockEnd
  0
BLOCK
  5
2B3
330
2B2
100
AcDbEntity
  8
0
100
AcDbBlockBegin
  2
HATCH_62_ef1d7913-cb92-461b-94c2-6c004d62497a
 70
     0
 10
0.0
 20
0.0
 30
0.0
  3
HATCH_62_ef1d7913-cb92-461b-94c2-6c004d62497a
  1

  0
LINE
  5
2B5
330
2B2
100
AcDbEntity
  8
DETAILS
 62
     0
370
     9
100
AcDbLine
 10
30.1163025295069
 20
23.0
 30
0.0
 11
30.1137664729407
 21
23.0
 31
0.0
  0
ENDBLK
  5
2B4
330
2B2
100
AcDbEntity
  8
0
100
AcDbBlockEnd
  0
BLOCK
  5
2B7
330
2B6
100
AcDbEntity
  8
0
100
AcDbBlockBegin
  2
HATCH_63_608ccc6b-d671-460b-bba3-3c243f1461da
 70
     0
 10
0.0
 20
0.0
 30
0.0
  3
HATCH_63_608ccc6b-d671-460b-bba3-3c243f1461da
  1

  0
LINE
  5
2B9
330
2B6
100
AcDbEntity
  8
DETAILS
 62
     0
370
     9
100
AcDbLine
 10
30.13005641554516
 20
23.0
 30
0.0
 11
30.1163025295069
 21
23.0
 31
0.0
  0
LINE
  5
2BA
330
2B6
100
AcDbEntity
  8
DETAILS
 62
     0
370
     9
100
AcDbLine
 10
30.15036825106375
 20
22.75
 30
0.0
 11
30.13097248773963
 21
22.75
 31
0.0
  0
ENDBLK
  5
2B8
330
2B6
100
AcDbEntity
  8
0
100
AcDbBlockEnd
  0
BLOCK
  5
2BC
330
2BB
100
AcDbEntity
  8
0
100
AcDbBlockBegin
  2
HATCH_64_02a9b9dd-7e15-44f0-b65e-556ab9bccdf4
 70
     0
 10
0.0
 20
0.0
 30
0.0
  3
HATCH_64_02a9b9dd-7e15-44f0-b65e-556ab9bccdf4
  1

  0
LINE
  5
2BE
330
2BB
100
AcDbEntity
  8
DETAILS
 62
     0
370
     9
100
AcDbLine
 10
30.15415005771179
 20
22.75
 30
0.0
 11
30.15036825106375
 21
22.75
 31
0.0
  0
LINE
  5
2BF
330
2BB
100
AcDbEntity
  8
DETAILS
 62
     0
370
     9
100
AcDbLine
 10
30.15415005771179
 20
23.0
 30
0.0
 11
30.13005641554516
 21
23.0
 31
0.0
  0
ENDBLK
  5
2BD
330
2BB
100
AcDbEntity
  8
0
100
AcDbBlockEnd
  0
BLOCK
  5
2C1
330
2C0
100
AcDbEntity
  8
0
100
AcDbBlockBegin
  2
HATCH_65_702c4496-a382-4516-80e1-d49bae1fa385
 70
     0
 10
0.0
 20
0.0
 30
0.0
  3
HATCH_65_702c4496-a382-4516-80e1-d49bae1fa385
  1

  0
LINE
  5
2C3
330
2C0
100
AcDbEntity
  8
DETAILS
 62
     0
370
     9
100
AcDbLine
 10
30.15827105065839
 20
23.0
 30
0.0
 11
30.15415005771179
 21
23.0
 31
0.0
  0
LINE
  5
2C4
330
2C0
100
AcDbEntity
  8
DETAILS
 62
     0
370
     9
100
AcDbLine
 10
30.1625604376917
 20
22.75
 30
0.0
 11
30.15415005771179
 21
22.75
 31
0.0
  0
ENDBLK
  5
2C2
330
2C0
100
AcDbEntity
  8
0
100
AcDbBlockEnd
  0
BLOCK
  5
2C6
330
2C5
100
AcDbEntity
  8
0
100
AcDbBlockBegin
  2
HATCH_66_76704473-6fa7-411b-b0e4-d3ceab635c6f
 70
     0
 10
0.0
 20
0.0
 30
0.0
  3
HATCH_66_76704473-6fa7-411b-b0e4-d3ceab635c6f
  1

  0
LINE
  5
2C8
330
2C5
100
AcDbEntity
  8
DETAILS
 62
     0
370
     9
100
AcDbLine
 10
30.16357316270646
 20
22.75
 30
0.0
 11
30.1625604376917
 21
22.75
 31
0.0
  0
LINE
  5
2C9
330
2C5
100
AcDbEntity
  8
DETAILS
 62
     0
370
     9
100
AcDbLine
 10
30.16357316270646
 20
23.0
 30
0.0
 11
30.15827105065839
 21
23.0
 31
0.0
  0
LINE
  5
2CA
330
2C5
100
AcDbEntity
  8
DETAILS
 62
     0
370
     9
100
AcDbLine
 10
30.16357316270646
 20
23.25
 30
0.0
 11
30.15938913749216
 21
23.25
 31
0.0
  0
ENDBLK
  5
2C7
330
2C5
100
AcDbEntity
  8
0
100
AcDbBlockEnd
  0
BLOCK
  5
2CC
330
2CB
100
AcDbEntity
  8
0
100
AcDbBlockBegin
  2
HATCH_67_0465c402-7234-4c79-988d-282a45b76159
 70
     0
 10
0.0
 20
0.0
 30
0.0
  3
HATCH_67_0465c402-7234-4c79-988d-282a45b76159
  1

  0
LINE
  5
2CE
330
2CB
100
AcDbEntity
  8
DETAILS
 62
     0
370
     9
100
AcDbLine
 10
30.1641653097458
 20
23.25
 30
0.0
 11
30.16357316270646
 21
23.25
 31
0.0
  0
LINE
  5
2CF
330
2CB
100
AcDbEntity
  8
DETAILS
 62
     0
370
     9
100
AcDbLine
 10
30.18305212267987
 20
23.0
 30
0.0
 11
30.16357316270646
 21
23.0
 31
0.0
  0
LINE
  5
2D0
330
2CB
100
AcDbEntity
  8
DETAILS
 62
     0
370
     9
100
AcDbLine
 10
30.20193893561395
 20
22.75
 30
0.0
 11
30.16357316270646
 21
22.75
 31
0.0
  0
ENDBLK
  5
2CD
330
2CB
100
AcDbEntity
  8
0
100
AcDbBlockEnd
  0
BLOCK
  5
2D2
330
2D1
100
AcDbEntity
  8
0
100
AcDbBlockBegin
  2
HATCH_68_6674e7b5-b709-440a-a9e4-b037259c76ce
 70
     0
 10
0.0
 20
0.0
 30
0.0
  3
HATCH_68_6674e7b5-b709-440a-a9e4-b037259c76ce
  1

  0
LINE
  5
2D4
330
2D1
100
AcDbEntity
  8
DETAILS
 62
     0
370
     9
100
AcDbLine
 10
30.21115859691891
 20
22.75
 30
0.0
 11
30.20193893561395
 21
22.75
 31
0.0
  0
LINE
  5
2D5
330
2D1
100
AcDbEntity
  8
DETAILS
 62
     0
370
     9
100
AcDbLine
 10
30.21115859691891
 20
23.0
 30
0.0
 11
30.18305212267987
 21
23.0
 31
0.0
  0
LINE
  5
2D6
330
2D1
100
AcDbEntity
  8
DETAILS
 62
     0
370
     9
100
AcDbLine
 10
30.21115859691891
 20
23.25
 30
0.0
 11
30.1641653097458
 21
23.25
 31
0.0
  0
ENDBLK
  5
2D3
330
2D1
100
AcDbEntity
  8
0
100
AcDbBlockEnd
  0
BLOCK
  5
2D8
330
2D7
100
AcDbEntity
  8
0
100
AcDbBlockBegin
  2
HATCH_69_97deb99b-e597-4106-8826-40612c7cbce2
 70
     0
 10
0.0
 20
0.0
 30
0.0
  3
HATCH_69_97deb99b-e597-4106-8826-40612c7cbce2
  1

  0
LINE
  5
2DA
330
2D7
100
AcDbEntity
  8
DETAILS
 62
     0
370
     9
100
AcDbLine
 10
30.2126630157235
 20
23.25
 30
0.0
 11
30.21115859691891
 21
23.25
 31
0.0
  0
LINE
  5
2DB
330
2D7
100
AcDbEntity
  8
DETAILS
 62
     0
370
     9
100
AcDbLine
 10
30.21836917774138
 20
23.0
 30
0.0
 11
30.21115859691891
 21
23.0
 31
0.0
  0
LINE
  5
2DC
330
2D7
100
AcDbEntity
  8
DETAILS
 62
     0
370
     9
100
AcDbLine
 10
30.22407533975927
 20
22.75
 30
0.0
 11
30.21115859691891
 21
22.75
 31
0.0
  0
ENDBLK
  5
2D9
330
2D7
100
AcDbEntity
  8
0
100
AcDbBlockEnd
  0
BLOCK
  5
2DE
330
2DD
100
AcDbEntity
  8
0
100
AcDbBlockBegin
  2
HATCH_70_8454edd0-4c27-4899-b79b-c962d6ef1bd8
 70
     0
 10
0.0
 20
0.0
 30
0.0
  3
HATCH_70_8454edd0-4c27-4899-b79b-c962d6ef1bd8
  1

  0
LINE
  5
2E0
330
2DD
100
AcDbEntity
  8
DETAILS
 62
     0
370
     9
100
AcDbLine
 10
30.22719448739896
 20
22.75
 30
0.0
 11
30.22407533975927
 21
22.75
 31
0.0
  0
LINE
  5
2E1
330
2DD
100
AcDbEntity
  8
DETAILS
 62
     0
370
     9
100
AcDbLine
 10
30.22719448739896
 20
23.0
 30
0.0
 11
30.21836917774138
 21
23.0
 31
0.0
  0
LINE
  5
2E2
330
2DD
100
AcDbEntity
  8
DETAILS
 62
     0
370
     9
100
AcDbLine
 10
30.22719448739896
 20
23.25
 30
0.0
 11
30.2126630157235
 21
23.25
 31
0.0
  0
ENDBLK
  5
2DF
330
2DD
100
AcDbEntity
  8
0
100
AcDbBlockEnd
  0
BLOCK
  5
2E4
330
2E3
100
AcDbEntity
  8
0
100
AcDbBlockBegin
  2
HATCH_71_b7689de2-86d1-4af6-841b-baeb6af8ed2d
 70
     0
 10
0.0
 20
0.0
 30
0.0
  3
HATCH_71_b7689de2-86d1-4af6-841b-baeb6af8ed2d
  1

  0
LINE
  5
2E6
330
2E3
100
AcDbEntity
  8
DETAILS
 62
     0
370
     9
100
AcDbLine
 10
30.23316561077569
 20
23.25
 30
0.0
 11
30.22719448739896
 21
23.25
 31
0.0
  0
LINE
  5
2E7
330
2E3
100
AcDbEntity
  8
DETAILS
 62
     0
370
     9
100
AcDbLine
 10
30.25062862042013
 20
23.0
 30
0.0
 11
30.22719448739896
 21
23.0
 31
0.0
  0
LINE
  5
2E8
330
2E3
100
AcDbEntity
  8
DETAILS
 62
     0
370
     9
100
AcDbLine
 10
30.26809163006458
 20
22.75
 30
0.0
 11
30.22719448739896
 21
22.75
 31
0.0
  0
ENDBLK
  5
2E5
330
2E3
100
AcDbEntity
  8
0
100
AcDbBlockEnd
  0
BLOCK
  5
2EA
330
2E9
100
AcDbEntity
  8
0
100
AcDbBlockBegin
  2
HATCH_72_ce54eb2c-90bb-4af1-9912-a2857475247b
 70
     0
 10
0.0
 20
0.0
 30
0.0
  3
HATCH_72_ce54eb2c-90bb-4af1-9912-a2857475247b
  1

  0
LINE
  5
2EC
330
2E9
100
AcDbEntity
  8
DETAILS
 62
     0
370
     9
100
AcDbLine
 10
30.28106798527552
 20
22.75
 30
0.0
 11
30.26809163006458
 21
22.75
 31
0.0
  0
LINE
  5
2ED
330
2E9
100
AcDbEntity
  8
DETAILS
 62
     0
370
     9
100
AcDbLine
 10
30.28106798527552
 20
23.0
 30
0.0
 11
30.25062862042013
 21
23.0
 31
0.0
  0
LINE
  5
2EE
330
2E9
100
AcDbEntity
  8
DETAILS
 62
     0
370
     9
100
AcDbLine
 10
30.28106798527552
 20
23.25
 30
0.0
 11
30.23316561077569
 21
23.25
 31
0.0
  0
ENDBLK
  5
2EB
330
2E9
100
AcDbEntity
  8
0
100
AcDbBlockEnd
  0
BLOCK
  5
2F0
330
2EF
100
AcDbEntity
  8
0
100
AcDbBlockBegin
  2
HATCH_73_41fea209-6958-4265-85ae-a62d4210ce08
 70
     0
 10
0.0
 20
0.0
 30
0.0
  3
HATCH_73_41fea209-6958-4265-85ae-a62d4210ce08
  1

  0
LINE
  5
2F2
330
2EF
100
AcDbEntity
  8
DETAILS
 62
     0
370
     9
100
AcDbLine
 10
30.28476656806037
 20
23.25
 30
0.0
 11
30.28106798527552
 21
23.25
 31
0.0
  0
LINE
  5
2F3
330
2EF
100
AcDbEntity
  8
DETAILS
 62
     0
370
     9
100
AcDbLine
 10
30.29189104309942
 20
23.0
 30
0.0
 11
30.28106798527552
 21
23.0
 31
0.0
  0
LINE
  5
2F4
330
2EF
100
AcDbEntity
  8
DETAILS
 62
     0
370
     9
100
AcDbLine
 10
30.29901551813848
 20
22.75
 30
0.0
 11
30.28106798527552
 21
22.75
 31
0.0
  0
ENDBLK
  5
2F1
330
2EF
100
AcDbEntity
  8
0
100
AcDbBlockEnd
  0
BLOCK
  5
2F6
330
2F5
100
AcDbEntity
  8
0
100
AcDbBlockBegin
  2
HATCH_74_8974ac50-19ad-491a-8663-62bd9f7f06ec
 70
     0
 10
0.0
 20
0.0
 30
0.0
  3
HATCH_74_8974ac50-19ad-491a-8663-62bd9f7f06ec
  1

  0
LINE
  5
2F8
330
2F5
100
AcDbEntity
  8
DETAILS
 62
     0
370
     9
100
AcDbLine
 10
30.30472701661116
 20
22.75
 30
0.0
 11
30.29901551813848
 21
22.75
 31
0.0
  0
LINE
  5
2F9
330
2F5
100
AcDbEntity
  8
DETAILS
 62
     0
370
     9
100
AcDbLine
 10
30.30472701661116
 20
23.0
 30
0.0
 11
30.29189104309942
 21
23.0
 31
0.0
  0
LINE
  5
2FA
330
2F5
100
AcDbEntity
  8
DETAILS
 62
     0
370
     9
100
AcDbLine
 10
30.30472701661116
 20
23.25
 30
0.0
 11
30.28476656806037
 21
23.25
 31
0.0
  0
ENDBLK
  5
2F7
330
2F5
100
AcDbEntity
  8
0
100
AcDbBlockEnd
  0
BLOCK
  5
2FC
330
2FB
100
AcDbEntity
  8
0
100
AcDbBlockBegin
  2
HATCH_75_2ea95685-4934-400f-9b2f-bdd81f1ed8d1
 70
     0
 10
0.0
 20
0.0
 30
0.0
  3
HATCH_75_2ea95685-4934-400f-9b2f-bdd81f1ed8d1
  1

  0
LINE
  5
2FE
330
2FB
100
AcDbEntity
  8
DETAILS
 62
     0
370
     9
100
AcDbLine
 10
30.31430245340082
 20
23.25
 30
0.0
 11
30.30472701661116
 21
23.25
 31
0.0
  0
LINE
  5
2FF
330
2FB
100
AcDbEntity
  8
DETAILS
 62
     0
370
     9
100
AcDbLine
 10
30.33034278620436
 20
23.0
 30
0.0
 11
30.30472701661116
 21
23.0
 31
0.0
  0
LINE
  5
300
330
2FB
100
AcDbEntity
  8
DETAILS
 62
     0
370
     9
100
AcDbLine
 10
30.34638311900789
 20
22.75
 30
0.0
 11
30.30472701661116
 21
22.75
 31
0.0
  0
ENDBLK
  5
2FD
330
2FB
100
AcDbEntity
  8
0
100
AcDbBlockEnd
  0
BLOCK
  5
302
330
301
100
AcDbEntity
  8
0
100
AcDbBlockBegin
  2
HATCH_76_745bb88e-1d31-4256-ad35-d74ff70481fa
 70
     0
 10
0.0
 20
0.0
 30
0.0
  3
HATCH_76_745bb88e-1d31-4256-ad35-d74ff70481fa
  1

  0
LINE
  5
304
330
301
100
AcDbEntity
  8
DETAILS
 62
     0
370
     9
100
AcDbLine
 10
30.36149754240822
 20
22.75
 30
0.0
 11
30.34638311900789
 21
22.75
 31
0.0
  0
LINE
  5
305
330
301
100
AcDbEntity
  8
DETAILS
 62
     0
370
     9
100
AcDbLine
 10
30.36149754240822
 20
23.0
 30
0.0
 11
30.33034278620436
 21
23.0
 31
0.0
  0
LINE
  5
306
330
301
100
AcDbEntity
  8
DETAILS
 62
     0
370
     9
100
AcDbLine
 10
30.36149754240822
 20
23.25
 30
0.0
 11
30.31430245340082
 21
23.25
 31
0.0
  0
ENDBLK
  5
303
330
301
100
AcDbEntity
  8
0
100
AcDbBlockEnd
  0
BLOCK
  5
308
330
307
100
AcDbEntity
  8
0
100
AcDbBlockBegin
  2
HATCH_77_5fd7e987-4c2f-4bbc-89b8-564d57496dff
 70
     0
 10
0.0
 20
0.0
 30
0.0
  3
HATCH_77_5fd7e987-4c2f-4bbc-89b8-564d57496dff
  1

  0
LINE
  5
30A
330
307
100
AcDbEntity
  8
DETAILS
 62
     0
370
     9
100
AcDbLine
 10
30.36781474841483
 20
23.25
 30
0.0
 11
30.36149754240822
 21
23.25
 31
0.0
  0
LINE
  5
30B
330
307
100
AcDbEntity
  8
DETAILS
 62
     0
370
     9
100
AcDbLine
 10
30.37665130497766
 20
23.0
 30
0.0
 11
30.36149754240822
 21
23.0
 31
0.0
  0
LINE
  5
30C
330
307
100
AcDbEntity
  8
DETAILS
 62
     0
370
     9
100
AcDbLine
 10
30.3854878615405
 20
22.75
 30
0.0
 11
30.36149754240822
 21
22.75
 31
0.0
  0
ENDBLK
  5
309
330
307
100
AcDbEntity
  8
0
100
AcDbBlockEnd
  0
BLOCK
  5
30E
330
30D
100
AcDbEntity
  8
0
100
AcDbBlockBegin
  2
HATCH_78_f6a343ee-9bcc-4d58-96b3-8e0b21ee504f
 70
     0
 10
0.0
 20
0.0
 30
0.0
  3
HATCH_78_f6a343ee-9bcc-4d58-96b3-8e0b21ee504f
  1

  0
LINE
  5
310
330
30D
100
AcDbEntity
  8
DETAILS
 62
     0
370
     9
100
AcDbLine
 10
30.39426300226461
 20
22.75
 30
0.0
 11
30.3854878615405
 21
22.75
 31
0.0
  0
LINE
  5
311
330
30D
100
AcDbEntity
  8
DETAILS
 62
     0
370
     9
100
AcDbLine
 10
30.39426300226461
 20
23.0
 30
0.0
 11
30.37665130497766
 21
23.0
 31
0.0
  0
LINE
  5
312
330
30D
100
AcDbEntity
  8
DETAILS
 62
     0
370
     9
100
AcDbLine
 10
30.39426300226461
 20
23.25
 30
0.0
 11
30.36781474841483
 21
23.25
 31
0.0
  0
ENDBLK
  5
30F
330
30D
100
AcDbEntity
  8
0
100
AcDbBlockEnd
  0
BLOCK
  5
314
330
313
100
AcDbEntity
  8
0
100
AcDbBlockBegin
  2
HATCH_79_df3ed753-2bc5-46bd-9fd8-87bc4c50e1d8
 70
     0
 10
0.0
 20
0.0
 30
0.0
  3
HATCH_79_df3ed753-2bc5-46bd-9fd8-87bc4c50e1d8
  1

  0
LINE
  5
316
330
313
100
AcDbEntity
  8
DETAILS
 62
     0
370
     9
100
AcDbLine
 10
30.40550389735775
 20
23.25
 30
0.0
 11
30.39426300226461
 21
23.25
 31
0.0
  0
LINE
  5
317
330
313
100
AcDbEntity
  8
DETAILS
 62
     0
370
     9
100
AcDbLine
 10
30.41986079677213
 20
23.0
 30
0.0
 11
30.39426300226461
 21
23.0
 31
0.0
  0
LINE
  5
318
330
313
100
AcDbEntity
  8
DETAILS
 62
     0
370
     9
100
AcDbLine
 10
30.43421769618651
 20
22.75
 30
0.0
 11
30.39426300226461
 21
22.75
 31
0.0
  0
LINE
  5
319
330
313
100
AcDbEntity
  8
DETAILS
 62
     0
370
     9
100
AcDbLine
 10
30.44857459560088
 20
22.5
 30
0.0
 11
30.3987481360705
 21
22.5
 31
0.0
  0
ENDBLK
  5
315
330
313
100
AcDbEntity
  8
0
100
AcDbBlockEnd
  0
BLOCK
  5
31B
330
31A
100
AcDbEntity
  8
0
100
AcDbBlockBegin
  2
HATCH_80_30d97a78-a483-4565-853f-ff7fc53d90f0
 70
     0
 10
0.0
 20
0.0
 30
0.0
  3
HATCH_80_30d97a78-a483-4565-853f-ff7fc53d90f0
  1

  0
LINE
  5
31D
330
31A
100
AcDbEntity
  8
DETAILS
 62
     0
370
     9
100
AcDbLine
 10
30.44970833621347
 20
22.5
 30
0.0
 11
30.44857459560088
 21
22.5
 31
0.0
  0
LINE
  5
31E
330
31A
100
AcDbEntity
  8
DETAILS
 62
     0
370
     9
100
AcDbLine
 10
30.44970833621347
 20
22.75
 30
0.0
 11
30.43421769618651
 21
22.75
 31
0.0
  0
LINE
  5
31F
330
31A
100
AcDbEntity
  8
DETAILS
 62
     0
370
     9
100
AcDbLine
 10
30.44970833621347
 20
23.0
 30
0.0
 11
30.41986079677213
 21
23.0
 31
0.0
  0
LINE
  5
320
330
31A
100
AcDbEntity
  8
DETAILS
 62
     0
370
     9
100
AcDbLine
 10
30.44970833621347
 20
23.25
 30
0.0
 11
30.40550389735775
 21
23.25
 31
0.0
  0
ENDBLK
  5
31C
330
31A
100
AcDbEntity
  8
0
100
AcDbBlockEnd
  0
BLOCK
  5
322
330
321
100
AcDbEntity
  8
0
100
AcDbBlockBegin
  2
HATCH_81_c60d4bae-b74c-4281-a731-99db6f207fb4
 70
     0
 10
0.0
 20
0.0
 30
0.0
  3
HATCH_81_c60d4bae-b74c-4281-a731-99db6f207fb4
  1

  0
LINE
  5
324
330
321
100
AcDbEntity
  8
DETAILS
 62
     0
370
     9
100
AcDbLine
 10
30.45853549928424
 20
23.25
 30
0.0
 11
30.44970833621347
 21
23.25
 31
0.0
  0
LINE
  5
325
330
321
100
AcDbEntity
  8
DETAILS
 62
     0
370
     9
100
AcDbLine
 10
30.46891910696559
 20
23.0
 30
0.0
 11
30.44970833621347
 21
23.0
 31
0.0
  0
LINE
  5
326
330
321
100
AcDbEntity
  8
DETAILS
 62
     0
370
     9
100
AcDbLine
 10
30.47930271464693
 20
22.75
 30
0.0
 11
30.44970833621347
 21
22.75
 31
0.0
  0
LINE
  5
327
330
321
100
AcDbEntity
  8
DETAILS
 62
     0
370
     9
100
AcDbLine
 10
30.48968632232828
 20
22.5
 30
0.0
 11
30.44970833621347
 21
22.5
 31
0.0
  0
ENDBLK
  5
323
330
321
100
AcDbEntity
  8
0
100
AcDbBlockEnd
  0
BLOCK
  5
329
330
328
100
AcDbEntity
  8
0
100
AcDbBlockBegin
  2
HATCH_82_9ece6eba-58c8-471a-8e52-122c292a0081
 70
     0
 10
0.0
 20
0.0
 30
0.0
  3
HATCH_82_9ece6eba-58c8-471a-8e52-122c292a0081
  1

  0
LINE
  5
32B
330
328
100
AcDbEntity
  8
DETAILS
 62
     0
370
     9
100
AcDbLine
 10
30.4908255379897
 20
22.5
 30
0.0
 11
30.48968632232828
 21
22.5
 31
0.0
  0
LINE
  5
32C
330
328
100
AcDbEntity
  8
DETAILS
 62
     0
370
     9
100
AcDbLine
 10
30.4908255379897
 20
22.75
 30
0.0
 11
30.47930271464693
 21
22.75
 31
0.0
  0
LINE
  5
32D
330
328
100
AcDbEntity
  8
DETAILS
 62
     0
370
     9
100
AcDbLine
 10
30.4908255379897
 20
23.0
 30
0.0
 11
30.46891910696559
 21
23.0
 31
0.0
  0
LINE
  5
32E
330
328
100
AcDbEntity
  8
DETAILS
 62
     0
370
     9
100
AcDbLine
 10
30.4908255379897
 20
23.25
 30
0.0
 11
30.45853549928424
 21
23.25
 31
0.0
  0
ENDBLK
  5
32A
330
328
100
AcDbEntity
  8
0
100
AcDbBlockEnd
  0
BLOCK
  5
330
330
32F
100
AcDbEntity
  8
0
100
AcDbBlockBegin
  2
HATCH_83_98d13a04-5b13-4a0c-b86b-5fff0553727b
 70
     0
 10
0.0
 20
0.0
 30
0.0
  3
HATCH_83_98d13a04-5b13-4a0c-b86b-5fff0553727b
  1

  0
LINE
  5
332
330
32F
100
AcDbEntity
  8
DETAILS
 62
     0
370
     9
100
AcDbLine
 10
30.50235567356619
 20
23.25
 30
0.0
 11
30.4908255379897
 21
23.25
 31
0.0
  0
LINE
  5
333
330
32F
100
AcDbEntity
  8
DETAILS
 62
     0
370
     9
100
AcDbLine
 10
30.515168378646
 20
23.0
 30
0.0
 11
30.4908255379897
 21
23.0
 31
0.0
  0
LINE
  5
334
330
32F
100
AcDbEntity
  8
DETAILS
 62
     0
370
     9
100
AcDbLine
 10
30.52798108372582
 20
22.75
 30
0.0
 11
30.4908255379897
 21
22.75
 31
0.0
  0
LINE
  5
335
330
32F
100
AcDbEntity
  8
DETAILS
 62
     0
370
     9
100
AcDbLine
 10
30.54079378880563
 20
22.5
 30
0.0
 11
30.4908255379897
 21
22.5
 31
0.0
  0
ENDBLK
  5
331
330
32F
100
AcDbEntity
  8
0
100
AcDbBlockEnd
  0
BLOCK
  5
337
330
336
100
AcDbEntity
  8
0
100
AcDbBlockBegin
  2
HATCH_84_e7e46161-6933-4d7a-bad0-f28c51add83b
 70
     0
 10
0.0
 20
0.0
 30
0.0
  3
HATCH_84_e7e46161-6933-4d7a-bad0-f28c51add83b
  1

  0
LINE
  5
339
330
336
100
AcDbEntity
  8
DETAILS
 62
     0
370
     9
100
AcDbLine
 10
30.54269645390541
 20
22.5
 30
0.0
 11
30.54079378880563
 21
22.5
 31
0.0
  0
LINE
  5
33A
330
336
100
AcDbEntity
  8
DETAILS
 62
     0
370
     9
100
AcDbLine
 10
30.54269645390541
 20
22.75
 30
0.0
 11
30.52798108372582
 21
22.75
 31
0.0
  0
LINE
  5
33B
330
336
100
AcDbEntity
  8
DETAILS
 62
     0
370
     9
100
AcDbLine
 10
30.54269645390541
 20
23.0
 30
0.0
 11
30.515168378646
 21
23.0
 31
0.0
  0
LINE
  5
33C
330
336
100
AcDbEntity
  8
DETAILS
 62
     0
370
     9
100
AcDbLine
 10
30.54269645390541
 20
23.25
 30
0.0
 11
30.50235567356619
 21
23.25
 31
0.0
  0
ENDBLK
  5
338
330
336
100
AcDbEntity
  8
0
100
AcDbBlockEnd
  0
BLOCK
  5
33E
330
33D
100
AcDbEntity
  8
0
100
AcDbBlockBegin
  2
HATCH_85_dc5acb94-ef9e-4566-a4c8-e8f7e09842ff
 70
     0
 10
0.0
 20
0.0
 30
0.0
  3
HATCH_85_dc5acb94-ef9e-4566-a4c8-e8f7e09842ff
  1

  0
LINE
  5
340
330
33D
100
AcDbEntity
  8
DETAILS
 62
     0
370
     9
100
AcDbLine
 10
30.5536698296596
 20
23.25
 30
0.0
 11
30.54269645390541
 21
23.25
 31
0.0
  0
LINE
  5
341
330
33D
100
AcDbEntity
  8
DETAILS
 62
     0
370
     9
100
AcDbLine
 10
30.56556387569502
 20
23.0
 30
0.0
 11
30.54269645390541
 21
23.0
 31
0.0
  0
LINE
  5
342
330
33D
100
AcDbEntity
  8
DETAILS
 62
     0
370
     9
100
AcDbLine
 10
30.57745792173045
 20
22.75
 30
0.0
 11
30.54269645390541
 21
22.75
 31
0.0
  0
LINE
  5
343
330
33D
100
AcDbEntity
  8
DETAILS
 62
     0
370
     9
100
AcDbLine
 10
30.58935196776588
 20
22.5
 30
0.0
 11
30.54269645390541
 21
22.5
 31
0.0
  0
ENDBLK
  5
33F
330
33D
100
AcDbEntity
  8
0
100
AcDbBlockEnd
  0
BLOCK
  5
345
330
344
100
AcDbEntity
  8
0
100
AcDbBlockBegin
  2
HATCH_86_615ec308-5c4d-4b6a-8009-12b1caa2e9a5
 70
     0
 10
0.0
 20
0.0
 30
0.0
  3
HATCH_86_615ec308-5c4d-4b6a-8009-12b1caa2e9a5
  1

  0
LINE
  5
347
330
344
100
AcDbEntity
  8
DETAILS
 62
     0
370
     9
100
AcDbLine
 10
30.59111821354659
 20
22.5
 30
0.0
 11
30.58935196776588
 21
22.5
 31
0.0
  0
LINE
  5
348
330
344
100
AcDbEntity
  8
DETAILS
 62
     0
370
     9
100
AcDbLine
 10
30.59111821354659
 20
22.75
 30
0.0
 11
30.57745792173045
 21
22.75
 31
0.0
  0
LINE
  5
349
330
344
100
AcDbEntity
  8
DETAILS
 62
     0
370
     9
100
AcDbLine
 10
30.59111821354659
 20
23.0
 30
0.0
 11
30.56556387569502
 21
23.0
 31
0.0
  0
LINE
  5
34A
330
344
100
AcDbEntity
  8
DETAILS
 62
     0
370
     9
100
AcDbLine
 10
30.59111821354659
 20
23.25
 30
0.0
 11
30.5536698296596
 21
23.25
 31
0.0
  0
ENDBLK
  5
346
330
344
100
AcDbEntity
  8
0
100
AcDbBlockEnd
  0
BLOCK
  5
34C
330
34B
100
AcDbEntity
  8
0
100
AcDbBlockBegin
  2
HATCH_87_1c5e0d28-997d-4974-8473-efed28b6be2b
 70
     0
 10
0.0
 20
0.0
 30
0.0
  3
HATCH_87_1c5e0d28-997d-4974-8473-efed28b6be2b
  1

  0
LINE
  5
34E
330
34B
100
AcDbEntity
  8
DETAILS
 62
     0
370
     9
100
AcDbLine
 10
30.60176778686658
 20
23.25
 30
0.0
 11
30.59111821354659
 21
23.25
 31
0.0
  0
LINE
  5
34F
330
34B
100
AcDbEntity
  8
DETAILS
 62
     0
370
     9
100
AcDbLine
 10
30.61305174075676
 20
23.0
 30
0.0
 11
30.59111821354659
 21
23.0
 31
0.0
  0
LINE
  5
350
330
34B
100
AcDbEntity
  8
DETAILS
 62
     0
370
     9
100
AcDbLine
 10
30.62433569464695
 20
22.75
 30
0.0
 11
30.59111821354659
 21
22.75
 31
0.0
  0
LINE
  5
351
330
34B
100
AcDbEntity
  8
DETAILS
 62
     0
370
     9
100
AcDbLine
 10
30.63561964853713
 20
22.5
 30
0.0
 11
30.59111821354659
 21
22.5
 31
0.0
  0
ENDBLK
  5
34D
330
34B
100
AcDbEntity
  8
0
100
AcDbBlockEnd
  0
BLOCK
  5
353
330
352
100
AcDbEntity
  8
0
100
AcDbBlockBegin
  2
HATCH_88_cdc33c89-8802-4c94-afdd-c7dc45b682b2
 70
     0
 10
0.0
 20
0.0
 30
0.0
  3
HATCH_88_cdc33c89-8802-4c94-afdd-c7dc45b682b2
  1

  0
LINE
  5
355
330
352
100
AcDbEntity
  8
DETAILS
 62
     0
370
     9
100
AcDbLine
 10
30.63729529666301
 20
22.5
 30
0.0
 11
30.63561964853713
 21
22.5
 31
0.0
  0
LINE
  5
356
330
352
100
AcDbEntity
  8
DETAILS
 62
     0
370
     9
100
AcDbLine
 10
30.63729529666301
 20
22.75
 30
0.0
 11
30.62433569464695
 21
22.75
 31
0.0
  0
LINE
  5
357
330
352
100
AcDbEntity
  8
DETAILS
 62
     0
370
     9
100
AcDbLine
 10
30.63729529666301
 20
23.0
 30
0.0
 11
30.61305174075676
 21
23.0
 31
0.0
  0
LINE
  5
358
330
352
100
AcDbEntity
  8
DETAILS
 62
     0
370
     9
100
AcDbLine
 10
30.63729529666301
 20
23.25
 30
0.0
 11
30.60176778686658
 21
23.25
 31
0.0
  0
ENDBLK
  5
354
330
352
100
AcDbEntity
  8
0
100
AcDbBlockEnd
  0
BLOCK
  5
35A
330
359
100
AcDbEntity
  8
0
100
AcDbBlockBegin
  2
HATCH_89_d32f68fa-1136-491f-ae3d-4924cbbe1b5f
 70
     0
 10
0.0
 20
0.0
 30
0.0
  3
HATCH_89_d32f68fa-1136-491f-ae3d-4924cbbe1b5f
  1

  0
LINE
  5
35C
330
359
100
AcDbEntity
  8
DETAILS
 62
     0
370
     9
100
AcDbLine
 10
30.64960649022554
 20
23.25
 30
0.0
 11
30.63729529666301
 21
23.25
 31
0.0
  0
LINE
  5
35D
330
359
100
AcDbEntity
  8
DETAILS
 62
     0
370
     9
100
AcDbLine
 10
30.66291293631477
 20
23.0
 30
0.0
 11
30.63729529666301
 21
23.0
 31
0.0
  0
LINE
  5
35E
330
359
100
AcDbEntity
  8
DETAILS
 62
     0
370
     9
100
AcDbLine
 10
30.676219382404
 20
22.75
 30
0.0
 11
30.63729529666301
 21
22.75
 31
0.0
  0
LINE
  5
35F
330
359
100
AcDbEntity
  8
DETAILS
 62
     0
370
     9
100
AcDbLine
 10
30.68952582849322
 20
22.5
 30
0.0
 11
30.63729529666301
 21
22.5
 31
0.0
  0
ENDBLK
  5
35B
330
359
100
AcDbEntity
  8
0
100
AcDbBlockEnd
  0
BLOCK
  5
361
330
360
100
AcDbEntity
  8
0
100
AcDbBlockBegin
  2
HATCH_90_68760132-7075-4a54-9468-200d763e62f8
 70
     0
 10
0.0
 20
0.0
 30
0.0
  3
HATCH_90_68760132-7075-4a54-9468-200d763e62f8
  1

  0
LINE
  5
363
330
360
100
AcDbEntity
  8
DETAILS
 62
     0
370
     9
100
AcDbLine
 10
30.69096779217993
 20
22.5
 30
0.0
 11
30.68952582849322
 21
22.5
 31
0.0
  0
LINE
  5
364
330
360
100
AcDbEntity
  8
DETAILS
 62
     0
370
     9
100
AcDbLine
 10
30.69096779217993
 20
22.75
 30
0.0
 11
30.676219382404
 21
22.75
 31
0.0
  0
LINE
  5
365
330
360
100
AcDbEntity
  8
DETAILS
 62
     0
370
     9
100
AcDbLine
 10
30.69096779217993
 20
23.0
 30
0.0
 11
30.66291293631477
 21
23.0
 31
0.0
  0
LINE
  5
366
330
360
100
AcDbEntity
  8
DETAILS
 62
     0
370
     9
100
AcDbLine
 10
30.69096779217993
 20
23.25
 30
0.0
 11
30.64960649022554
 21
23.25
 31
0.0
  0
ENDBLK
  5
362
330
360
100
AcDbEntity
  8
0
100
AcDbBlockEnd
  0
BLOCK
  5
368
330
367
100
AcDbEntity
  8
0
100
AcDbBlockBegin
  2
HATCH_91_91883f61-95c0-40dd-897a-d8459b1a6e29
 70
     0
 10
0.0
 20
0.0
 30
0.0
  3
HATCH_91_91883f61-95c0-40dd-897a-d8459b1a6e29
  1

  0
LINE
  5
36A
330
367
100
AcDbEntity
  8
DETAILS
 62
     0
370
     9
100
AcDbLine
 10
30.6998881801744
 20
23.25
 30
0.0
 11
30.69096779217993
 21
23.25
 31
0.0
  0
LINE
  5
36B
330
367
100
AcDbEntity
  8
DETAILS
 62
     0
370
     9
100
AcDbLine
 10
30.70976006931275
 20
23.0
 30
0.0
 11
30.69096779217993
 21
23.0
 31
0.0
  0
LINE
  5
36C
330
367
100
AcDbEntity
  8
DETAILS
 62
     0
370
     9
100
AcDbLine
 10
30.7196319584511
 20
22.75
 30
0.0
 11
30.69096779217993
 21
22.75
 31
0.0
  0
LINE
  5
36D
330
367
100
AcDbEntity
  8
DETAILS
 62
     0
370
     9
100
AcDbLine
 10
30.72950384758945
 20
22.5
 30
0.0
 11
30.69096779217993
 21
22.5
 31
0.0
  0
ENDBLK
  5
369
330
367
100
AcDbEntity
  8
0
100
AcDbBlockEnd
  0
BLOCK
  5
36F
330
36E
100
AcDbEntity
  8
0
100
AcDbBlockBegin
  2
HATCH_92_94d39962-f1e8-4754-b0f0-dce9b1471b4e
 70
     0
 10
0.0
 20
0.0
 30
0.0
  3
HATCH_92_94d39962-f1e8-4754-b0f0-dce9b1471b4e
  1

  0
LINE
  5
371
330
36E
100
AcDbEntity
  8
DETAILS
 62
     0
370
     9
100
AcDbLine
 10
30.73028341435495
 20
22.5
 30
0.0
 11
30.72950384758945
 21
22.5
 31
0.0
  0
LINE
  5
372
330
36E
100
AcDbEntity
  8
DETAILS
 62
     0
370
     9
100
AcDbLine
 10
30.73028341435495
 20
22.75
 30
0.0
 11
30.7196319584511
 21
22.75
 31
0.0
  0
LINE
  5
373
330
36E
100
AcDbEntity
  8
DETAILS
 62
     0
370
     9
100
AcDbLine
 10
30.73028341435495
 20
23.0
 30
0.0
 11
30.70976006931275
 21
23.0
 31
0.0
  0
LINE
  5
374
330
36E
100
AcDbEntity
  8
DETAILS
 62
     0
370
     9
100
AcDbLine
 10
30.73028341435495
 20
23.25
 30
0.0
 11
30.6998881801744
 21
23.25
 31
0.0
  0
ENDBLK
  5
370
330
36E
100
AcDbEntity
  8
0
100
AcDbBlockEnd
  0
BLOCK
  5
376
330
375
100
AcDbEntity
  8
0
100
AcDbBlockBegin
  2
HATCH_93_bff37be4-00d9-4664-aa07-314547160ae8
 70
     0
 10
0.0
 20
0.0
 30
0.0
  3
HATCH_93_bff37be4-00d9-4664-aa07-314547160ae8
  1

  0
LINE
  5
378
330
375
100
AcDbEntity
  8
DETAILS
 62
     0
370
     9
100
AcDbLine
 10
30.78124361449792
 20
22.5
 30
0.0
 11
30.73028341435495
 21
22.5
 31
0.0
  0
LINE
  5
379
330
375
100
AcDbEntity
  8
DETAILS
 62
     0
370
     9
100
AcDbLine
 10
30.74288681999482
 20
23.25
 30
0.0
 11
30.73028341435495
 21
23.25
 31
0.0
  0
LINE
  5
37A
330
375
100
AcDbEntity
  8
DETAILS
 62
     0
370
     9
100
AcDbLine
 10
30.75761723273694
 20
23.0
 30
0.0
 11
30.73028341435495
 21
23.0
 31
0.0
  0
LINE
  5
37B
330
375
100
AcDbEntity
  8
DETAILS
 62
     0
370
     9
100
AcDbLine
 10
30.77234764547907
 20
22.75
 30
0.0
 11
30.73028341435495
 21
22.75
 31
0.0
  0
ENDBLK
  5
377
330
375
100
AcDbEntity
  8
0
100
AcDbBlockEnd
  0
BLOCK
  5
37D
330
37C
100
AcDbEntity
  8
0
100
AcDbBlockBegin
  2
HATCH_94_d01c0bf4-cc95-499c-8485-764a3f95f773
 70
     0
 10
0.0
 20
0.0
 30
0.0
  3
HATCH_94_d01c0bf4-cc95-499c-8485-764a3f95f773
  1

  0
LINE
  5
37F
330
37C
100
AcDbEntity
  8
DETAILS
 62
     0
370
     9
100
AcDbLine
 10
30.78694785120809
 20
22.75
 30
0.0
 11
30.77234764547907
 21
22.75
 31
0.0
  0
LINE
  5
380
330
37C
100
AcDbEntity
  8
DETAILS
 62
     0
370
     9
100
AcDbLine
 10
30.78694785120809
 20
23.0
 30
0.0
 11
30.75761723273694
 21
23.0
 31
0.0
  0
LINE
  5
381
330
37C
100
AcDbEntity
  8
DETAILS
 62
     0
370
     9
100
AcDbLine
 10
30.78694785120809
 20
23.25
 30
0.0
 11
30.74288681999482
 21
23.25
 31
0.0
  0
ENDBLK
  5
37E
330
37C
100
AcDbEntity
  8
0
100
AcDbBlockEnd
  0
BLOCK
  5
383
330
382
100
AcDbEntity
  8
0
100
AcDbBlockBegin
  2
HATCH_95_4cadb2c9-f6ba-4509-a0c4-fe2d9ad781cb
 70
     0
 10
0.0
 20
0.0
 30
0.0
  3
HATCH_95_4cadb2c9-f6ba-4509-a0c4-fe2d9ad781cb
  1

  0
LINE
  5
385
330
382
100
AcDbEntity
  8
DETAILS
 62
     0
370
     9
100
AcDbLine
 10
30.79360121886497
 20
23.25
 30
0.0
 11
30.78694785120809
 21
23.25
 31
0.0
  0
LINE
  5
386
330
382
100
AcDbEntity
  8
DETAILS
 62
     0
370
     9
100
AcDbLine
 10
30.80206167187328
 20
23.0
 30
0.0
 11
30.78694785120809
 21
23.0
 31
0.0
  0
LINE
  5
387
330
382
100
AcDbEntity
  8
DETAILS
 62
     0
370
     9
100
AcDbLine
 10
30.81052212488159
 20
22.75
 30
0.0
 11
30.78694785120809
 21
22.75
 31
0.0
  0
ENDBLK
  5
384
330
382
100
AcDbEntity
  8
0
100
AcDbBlockEnd
  0
BLOCK
  5
389
330
388
100
AcDbEntity
  8
0
100
AcDbBlockBegin
  2
HATCH_96_3d9b6670-e5b4-4ecc-8e72-7ae064367d68
 70
     0
 10
0.0
 20
0.0
 30
0.0
  3
HATCH_96_3d9b6670-e5b4-4ecc-8e72-7ae064367d68
  1

  0
LINE
  5
38B
330
388
100
AcDbEntity
  8
DETAILS
 62
     0
370
     9
100
AcDbLine
 10
30.8184942081602
 20
22.75
 30
0.0
 11
30.81052212488159
 21
22.75
 31
0.0
  0
LINE
  5
38C
330
388
100
AcDbEntity
  8
DETAILS
 62
     0
370
     9
100
AcDbLine
 10
30.8184942081602
 20
23.0
 30
0.0
 11
30.80206167187328
 21
23.0
 31
0.0
  0
LINE
  5
38D
330
388
100
AcDbEntity
  8
DETAILS
 62
     0
370
     9
100
AcDbLine
 10
30.8184942081602
 20
23.25
 30
0.0
 11
30.79360121886497
 21
23.25
 31
0.0
  0
ENDBLK
  5
38A
330
388
100
AcDbEntity
  8
0
100
AcDbBlockEnd
  0
BLOCK
  5
38F
330
38E
100
AcDbEntity
  8
0
100
AcDbBlockBegin
  2
HATCH_97_2feacd04-c107-40f2-ba24-6a6a301f3031
 70
     0
 10
0.0
 20
0.0
 30
0.0
  3
HATCH_97_2feacd04-c107-40f2-ba24-6a6a301f3031
  1

  0
LINE
  5
391
330
38E
100
AcDbEntity
  8
DETAILS
 62
     0
370
     9
100
AcDbLine
 10
30.83010888409816
 20
23.25
 30
0.0
 11
30.8184942081602
 21
23.25
 31
0.0
  0
LINE
  5
392
330
38E
100
AcDbEntity
  8
DETAILS
 62
     0
370
     9
100
AcDbLine
 10
30.84626919642513
 20
23.0
 30
0.0
 11
30.8184942081602
 21
23.0
 31
0.0
  0
LINE
  5
393
330
38E
100
AcDbEntity
  8
DETAILS
 62
     0
370
     9
100
AcDbLine
 10
30.86242950875209
 20
22.75
 30
0.0
 11
30.8184942081602
 21
22.75
 31
0.0
  0
ENDBLK
  5
390
330
38E
100
AcDbEntity
  8
0
100
AcDbBlockEnd
  0
BLOCK
  5
395
330
394
100
AcDbEntity
  8
0
100
AcDbBlockBegin
  2
HATCH_98_8881bf1d-6319-4374-9c41-2b8551f56597
 70
     0
 10
0.0
 20
0.0
 30
0.0
  3
HATCH_98_8881bf1d-6319-4374-9c41-2b8551f56597
  1

  0
LINE
  5
397
330
394
100
AcDbEntity
  8
DETAILS
 62
     0
370
     9
100
AcDbLine
 10
30.87538017265193
 20
22.75
 30
0.0
 11
30.86242950875209
 21
22.75
 31
0.0
  0
LINE
  5
398
330
394
100
AcDbEntity
  8
DETAILS
 62
     0
370
     9
100
AcDbLine
 10
30.87538017265193
 20
23.0
 30
0.0
 11
30.84626919642513
 21
23.0
 31
0.0
  0
LINE
  5
399
330
394
100
AcDbEntity
  8
DETAILS
 62
     0
370
     9
100
AcDbLine
 10
30.87538017265193
 20
23.25
 30
0.0
 11
30.83010888409816
 21
23.25
 31
0.0
  0
ENDBLK
  5
396
330
394
100
AcDbEntity
  8
0
100
AcDbBlockEnd
  0
BLOCK
  5
39B
330
39A
100
AcDbEntity
  8
0
100
AcDbBlockBegin
  2
HATCH_99_6ada1471-178a-497e-8093-0acd520dbf94
 70
     0
 10
0.0
 20
0.0
 30
0.0
  3
HATCH_99_6ada1471-178a-497e-8093-0acd520dbf94
  1

  0
LINE
  5
39D
330
39A
100
AcDbEntity
  8
DETAILS
 62
     0
370
     9
100
AcDbLine
 10
30.87958629427826
 20
23.25
 30
0.0
 11
30.87538017265193
 21
23.25
 31
0.0
  0
LINE
  5
39E
330
39A
100
AcDbEntity
  8
DETAILS
 62
     0
370
     9
100
AcDbLine
 10
30.88663584967825
 20
23.0
 30
0.0
 11
30.87538017265193
 21
23.0
 31
0.0
  0
LINE
  5
39F
330
39A
100
AcDbEntity
  8
DETAILS
 62
     0
370
     9
100
AcDbLine
 10
30.89368540507824
 20
22.75
 30
0.0
 11
30.87538017265193
 21
22.75
 31
0.0
  0
ENDBLK
  5
39C
330
39A
100
AcDbEntity
  8
0
100
AcDbBlockEnd
  0
BLOCK
  5
3A1
330
3A0
100
AcDbEntity
  8
0
100
AcDbBlockBegin
  2
HATCH_100_8ee3d71a-567f-40af-8e09-dec661b92681
 70
     0
 10
0.0
 20
0.0
 30
0.0
  3
HATCH_100_8ee3d71a-567f-40af-8e09-dec661b92681
  1

  0
LINE
  5
3A3
330
3A0
100
AcDbEntity
  8
DETAILS
 62
     0
370
     9
100
AcDbLine
 10
30.8989237652929
 20
22.75
 30
0.0
 11
30.89368540507824
 21
22.75
 31
0.0
  0
LINE
  5
3A4
330
3A0
100
AcDbEntity
  8
DETAILS
 62
     0
370
     9
100
AcDbLine
 10
30.8989237652929
 20
23.0
 30
0.0
 11
30.88663584967825
 21
23.0
 31
0.0
  0
LINE
  5
3A5
330
3A0
100
AcDbEntity
  8
DETAILS
 62
     0
370
     9
100
AcDbLine
 10
30.8989237652929
 20
23.25
 30
0.0
 11
30.87958629427826
 21
23.25
 31
0.0
  0
ENDBLK
  5
3A2
330
3A0
100
AcDbEntity
  8
0
100
AcDbBlockEnd
  0
BLOCK
  5
3A7
330
3A6
100
AcDbEntity
  8
0
100
AcDbBlockBegin
  2
HATCH_101_0c3403cc-3caf-46ce-a13c-d877cfd96b63
 70
     0
 10
0.0
 20
0.0
 30
0.0
  3
HATCH_101_0c3403cc-3caf-46ce-a13c-d877cfd96b63
  1

  0
LINE
  5
3A9
330
3A6
100
AcDbEntity
  8
DETAILS
 62
     0
370
     9
100
AcDbLine
 10
30.90806098276035
 20
23.25
 30
0.0
 11
30.8989237652929
 21
23.25
 31
0.0
  0
LINE
  5
3AA
330
3A6
100
AcDbEntity
  8
DETAILS
 62
     0
370
     9
100
AcDbLine
 10
30.92566066598842
 20
23.0
 30
0.0
 11
30.8989237652929
 21
23.0
 31
0.0
  0
LINE
  5
3AB
330
3A6
100
AcDbEntity
  8
DETAILS
 62
     0
370
     9
100
AcDbLine
 10
30.94326034921649
 20
22.75
 30
0.0
 11
30.8989237652929
 21
22.75
 31
0.0
  0
ENDBLK
  5
3A8
330
3A6
100
AcDbEntity
  8
0
100
AcDbBlockEnd
  0
BLOCK
  5
3AD
330
3AC
100
AcDbEntity
  8
0
100
AcDbBlockBegin
  2
HATCH_102_68381b0e-3702-486e-b8ce-4d4aeecc5b43
 70
     0
 10
0.0
 20
0.0
 30
0.0
  3
HATCH_102_68381b0e-3702-486e-b8ce-4d4aeecc5b43
  1

  0
LINE
  5
3AF
330
3AC
100
AcDbEntity
  8
DETAILS
 62
     0
370
     9
100
AcDbLine
 10
30.95287578844903
 20
22.75
 30
0.0
 11
30.94326034921649
 21
22.75
 31
0.0
  0
LINE
  5
3B0
330
3AC
100
AcDbEntity
  8
DETAILS
 62
     0
370
     9
100
AcDbLine
 10
30.95287578844903
 20
23.0
 30
0.0
 11
30.92566066598842
 21
23.0
 31
0.0
  0
LINE
  5
3B1
330
3AC
100
AcDbEntity
  8
DETAILS
 62
     0
370
     9
100
AcDbLine
 10
30.95287578844903
 20
23.25
 30
0.0
 11
30.90806098276035
 21
23.25
 31
0.0
  0
ENDBLK
  5
3AE
330
3AC
100
AcDbEntity
  8
0
100
AcDbBlockEnd
  0
BLOCK
  5
3B3
330
3B2
100
AcDbEntity
  8
0
100
AcDbBlockBegin
  2
HATCH_103_d3dae4fb-6e63-4cd1-86c9-26dd9a691d8f
 70
     0
 10
0.0
 20
0.0
 30
0.0
  3
HATCH_103_d3dae4fb-6e63-4cd1-86c9-26dd9a691d8f
  1

  0
LINE
  5
3B5
330
3B2
100
AcDbEntity
  8
DETAILS
 62
     0
370
     9
100
AcDbLine
 10
30.95480219220279
 20
23.25
 30
0.0
 11
30.95287578844903
 21
23.25
 31
0.0
  0
LINE
  5
3B6
330
3B2
100
AcDbEntity
  8
DETAILS
 62
     0
370
     9
100
AcDbLine
 10
30.96044129855331
 20
23.0
 30
0.0
 11
30.95287578844903
 21
23.0
 31
0.0
  0
LINE
  5
3B7
330
3B2
100
AcDbEntity
  8
DETAILS
 62
     0
370
     9
100
AcDbLine
 10
30.96608040490382
 20
22.75
 30
0.0
 11
30.95287578844903
 21
22.75
 31
0.0
  0
ENDBLK
  5
3B4
330
3B2
100
AcDbEntity
  8
0
100
AcDbBlockEnd
  0
BLOCK
  5
3B9
330
3B8
100
AcDbEntity
  8
0
100
AcDbBlockBegin
  2
HATCH_104_85bb6879-d8ff-47f7-b161-f13068f5dee4
 70
     0
 10
0.0
 20
0.0
 30
0.0
  3
HATCH_104_85bb6879-d8ff-47f7-b161-f13068f5dee4
  1

  0
LINE
  5
3BB
330
3B8
100
AcDbEntity
  8
DETAILS
 62
     0
370
     9
100
AcDbLine
 10
30.96883315364951
 20
22.75
 30
0.0
 11
30.96608040490382
 21
22.75
 31
0.0
  0
LINE
  5
3BC
330
3B8
100
AcDbEntity
  8
DETAILS
 62
     0
370
     9
100
AcDbLine
 10
30.96883315364951
 20
23.0
 30
0.0
 11
30.96044129855331
 21
23.0
 31
0.0
  0
LINE
  5
3BD
330
3B8
100
AcDbEntity
  8
DETAILS
 62
     0
370
     9
100
AcDbLine
 10
30.96883315364951
 20
23.25
 30
0.0
 11
30.95480219220279
 21
23.25
 31
0.0
  0
ENDBLK
  5
3BA
330
3B8
100
AcDbEntity
  8
0
100
AcDbBlockEnd
  0
BLOCK
  5
3BF
330
3BE
100
AcDbEntity
  8
0
100
AcDbBlockBegin
  2
HATCH_105_5d68d0c0-4851-4e96-800c-6805c54089b7
 70
     0
 10
0.0
 20
0.0
 30
0.0
  3
HATCH_105_5d68d0c0-4851-4e96-800c-6805c54089b7
  1

  0
LINE
  5
3C1
330
3BE
100
AcDbEntity
  8
DETAILS
 62
     0
370
     9
100
AcDbLine
 10
30.97385801069061
 20
23.25
 30
0.0
 11
30.96883315364951
 21
23.25
 31
0.0
  0
LINE
  5
3C2
330
3BE
100
AcDbEntity
  8
DETAILS
 62
     0
370
     9
100
AcDbLine
 10
30.99291418487953
 20
23.0
 30
0.0
 11
30.96883315364951
 21
23.0
 31
0.0
  0
LINE
  5
3C3
330
3BE
100
AcDbEntity
  8
DETAILS
 62
     0
370
     9
100
AcDbLine
 10
31.01197035906846
 20
22.75
 30
0.0
 11
30.96883315364951
 21
22.75
 31
0.0
  0
ENDBLK
  5
3C0
330
3BE
100
AcDbEntity
  8
0
100
AcDbBlockEnd
  0
BLOCK
  5
3C5
330
3C4
100
AcDbEntity
  8
0
100
AcDbBlockBegin
  2
HATCH_106_b95c1c77-18a8-4fc2-91d2-c269c4253fd1
 70
     0
 10
0.0
 20
0.0
 30
0.0
  3
HATCH_106_b95c1c77-18a8-4fc2-91d2-c269c4253fd1
  1

  0
LINE
  5
3C7
330
3C4
100
AcDbEntity
  8
DETAILS
 62
     0
370
     9
100
AcDbLine
 10
31.01646485496505
 20
22.75
 30
0.0
 11
31.01197035906846
 21
22.75
 31
0.0
  0
LINE
  5
3C8
330
3C4
100
AcDbEntity
  8
DETAILS
 62
     0
370
     9
100
AcDbLine
 10
31.01646485496505
 20
23.0
 30
0.0
 11
30.99291418487953
 21
23.0
 31
0.0
  0
LINE
  5
3C9
330
3C4
100
AcDbEntity
  8
DETAILS
 62
     0
370
     9
100
AcDbLine
 10
31.01646485496505
 20
23.25
 30
0.0
 11
30.97385801069061
 21
23.25
 31
0.0
  0
ENDBLK
  5
3C6
330
3C4
100
AcDbEntity
  8
0
100
AcDbBlockEnd
  0
BLOCK
  5
3CB
330
3CA
100
AcDbEntity
  8
0
100
AcDbBlockBegin
  2
HATCH_107_1830efad-ea9c-4c2f-80a8-e8d7756922cf
 70
     0
 10
0.0
 20
0.0
 30
0.0
  3
HATCH_107_1830efad-ea9c-4c2f-80a8-e8d7756922cf
  1

  0
LINE
  5
3CD
330
3CA
100
AcDbEntity
  8
DETAILS
 62
     0
370
     9
100
AcDbLine
 10
31.01659627158762
 20
23.25
 30
0.0
 11
31.01646485496505
 21
23.25
 31
0.0
  0
LINE
  5
3CE
330
3CA
100
AcDbEntity
  8
DETAILS
 62
     0
370
     9
100
AcDbLine
 10
31.02082528759884
 20
23.0
 30
0.0
 11
31.01646485496505
 21
23.0
 31
0.0
  0
LINE
  5
3CF
330
3CA
100
AcDbEntity
  8
DETAILS
 62
     0
370
     9
100
AcDbLine
 10
31.02505430361004
 20
22.75
 30
0.0
 11
31.01646485496505
 21
22.75
 31
0.0
  0
ENDBLK
  5
3CC
330
3CA
100
AcDbEntity
  8
0
100
AcDbBlockEnd
  0
BLOCK
  5
3D1
330
3D0
100
AcDbEntity
  8
0
100
AcDbBlockBegin
  2
HATCH_108_bbf8a675-6e3b-4a44-be7e-64b6d9e1577f
 70
     0
 10
0.0
 20
0.0
 30
0.0
  3
HATCH_108_bbf8a675-6e3b-4a44-be7e-64b6d9e1577f
  1

  0
LINE
  5
3D3
330
3D0
100
AcDbEntity
  8
DETAILS
 62
     0
370
     9
100
AcDbLine
 10
31.02584169285663
 20
22.75
 30
0.0
 11
31.02505430361004
 21
22.75
 31
0.0
  0
LINE
  5
3D4
330
3D0
100
AcDbEntity
  8
DETAILS
 62
     0
370
     9
100
AcDbLine
 10
31.02584169285663
 20
23.0
 30
0.0
 11
31.02082528759884
 21
23.0
 31
0.0
  0
LINE
  5
3D5
330
3D0
100
AcDbEntity
  8
DETAILS
 62
     0
370
     9
100
AcDbLine
 10
31.02061050546757
 20
23.25
 30
0.0
 11
31.01659627158762
 21
23.25
 31
0.0
  0
ENDBLK
  5
3D2
330
3D0
100
AcDbEntity
  8
0
100
AcDbBlockEnd
  0
BLOCK
  5
3D7
330
3D6
100
AcDbEntity
  8
0
100
AcDbBlockBegin
  2
HATCH_109_f564cc28-ea3f-414d-8cd6-a21efaeff73c
 70
     0
 10
0.0
 20
0.0
 30
0.0
  3
HATCH_109_f564cc28-ea3f-414d-8cd6-a21efaeff73c
  1

  0
LINE
  5
3D9
330
3D6
100
AcDbEntity
  8
DETAILS
 62
     0
370
     9
100
AcDbLine
 10
31.04901926282879
 20
22.75
 30
0.0
 11
31.02584169285663
 21
22.75
 31
0.0
  0
LINE
  5
3DA
330
3D6
100
AcDbEntity
  8
DETAILS
 62
     0
370
     9
100
AcDbLine
 10
31.04558578280323
 20
23.0
 30
0.0
 11
31.02584169285663
 21
23.0
 31
0.0
  0
ENDBLK
  5
3D8
330
3D6
100
AcDbEntity
  8
0
100
AcDbBlockEnd
  0
BLOCK
  5
3DC
330
3DB
100
AcDbEntity
  8
0
100
AcDbBlockBegin
  2
HATCH_110_977108cd-2c7d-4f6c-accb-1098879b3290
 70
     0
 10
0.0
 20
0.0
 30
0.0
  3
HATCH_110_977108cd-2c7d-4f6c-accb-1098879b3290
  1

  0
LINE
  5
3DE
330
3DB
100
AcDbEntity
  8
DETAILS
 62
     0
370
     9
100
AcDbLine
 10
31.06371046551222
 20
23.0
 30
0.0
 11
31.04558578280323
 21
23.0
 31
0.0
  0
ENDBLK
  5
3DD
330
3DB
100
AcDbEntity
  8
0
100
AcDbBlockEnd
  0
BLOCK
  5
3E0
330
3DF
100
AcDbEntity
  8
0
100
AcDbBlockBegin
  2
HATCH_111_c861e11c-4c49-4946-ad61-bacfabce8ba1
 70
     0
 10
0.0
 20
0.0
 30
0.0
  3
HATCH_111_c861e11c-4c49-4946-ad61-bacfabce8ba1
  1

  0
LINE
  5
3E2
330
3DF
100
AcDbEntity
  8
DETAILS
 62
     0
370
     9
100
AcDbLine
 10
31.06561886602963
 20
23.0
 30
0.0
 11
31.06371046551222
 21
23.0
 31
0.0
  0
ENDBLK
  5
3E1
330
3DF
100
AcDbEntity
  8
0
100
AcDbBlockEnd
  0
BLOCK
  5
3E4
330
3E3
100
AcDbEntity
  8
0
100
AcDbBlockBegin
  2
HATCH_112_54c0769e-23cb-49c7-9085-0fcae6c6d559
 70
     0
 10
0.0
 20
0.0
 30
0.0
  3
HATCH_112_54c0769e-23cb-49c7-9085-0fcae6c6d559
  1

  0
LINE
  5
3E6
330
3E3
100
AcDbEntity
  8
DETAILS
 62
     0
370
     9
100
AcDbLine
 10
31.06800802548577
 20
23.0
 30
0.0
 11
31.06561886602963
 21
23.0
 31
0.0
  0
ENDBLK
  5
3E5
330
3E3
100
AcDbEntity
  8
0
100
AcDbBlockEnd
  0
BLOCK
  5
3E8
330
3E7
100
AcDbEntity
  8
0
100
AcDbBlockBegin
  2
HATCH_113_e7b2094f-780c-43cb-9d8c-460817df751c
 70
     0
 10
0.0
 20
0.0
 30
0.0
  3
HATCH_113_e7b2094f-780c-43cb-9d8c-460817df751c
  1

  0
LINE
  5
3EA
330
3E7
100
AcDbEntity
  8
DETAILS
 62
     0
370
     9
100
AcDbLine
 10
31.08174861451224
 20
23.0
 30
0.0
 11
31.06800802548577
 21
23.0
 31
0.0
  0
ENDBLK
  5
3E9
330
3E7
100
AcDbEntity
  8
0
100
AcDbBlockEnd
  0
BLOCK
  5
3EC
330
3EB
100
AcDbEntity
  8
0
100
AcDbBlockBegin
  2
HATCH_114_d9706cd1-ff19-49de-b2f6-d8392d80740a
 70
     0
 10
0.0
 20
0.0
 30
0.0
  3
HATCH_114_d9706cd1-ff19-49de-b2f6-d8392d80740a
  1

  0
LINE
  5
3EE
330
3EB
100
AcDbEntity
  8
DETAILS
 62
     0
370
     9
100
AcDbLine
 10
31.09280203926876
 20
23.0
 30
0.0
 11
31.08174861451224
 21
23.0
 31
0.0
  0
ENDBLK
  5
3ED
330
3EB
100
AcDbEntity
  8
0
100
AcDbBlockEnd
  0
BLOCK
  5
3F0
330
3EF
100
AcDbEntity
  8
0
100
AcDbBlockBegin
  2
HATCH_115_5190bac2-76bb-4c6c-9875-0fa5264de8bc
 70
     0
 10
0.0
 20
0.0
 30
0.0
  3
HATCH_115_5190bac2-76bb-4c6c-9875-0fa5264de8bc
  1

  0
LINE
  5
3F2
330
3EF
100
AcDbEntity
  8
DETAILS
 62
     0
370
     9
100
AcDbLine
 10
31.09321469305533
 20
23.0
 30
0.0
 11
31.09280203926876
 21
23.0
 31
0.0
  0
ENDBLK
  5
3F1
330
3EF
100
AcDbEntity
  8
0
100
AcDbBlockEnd
  0
BLOCK
  5
3F4
330
3F3
100
AcDbEntity
  8
0
100
AcDbBlockBegin
  2
HATCH_116_d7dde26b-0a24-4928-ba19-ceb80eab2077
 70
     0
 10
0.0
 20
0.0
 30
0.0
  3
HATCH_116_d7dde26b-0a24-4928-ba19-ceb80eab2077
  1

  0
LINE
  5
3F6
330
3F3
100
AcDbEntity
  8
DETAILS
 62
     0
370
     9
100
AcDbLine
 10
31.09389622765217
 20
23.0
 30
0.0
 11
31.09321469305533
 21
23.0
 31
0.0
  0
ENDBLK
  5
3F5
330
3F3
100
AcDbEntity
  8
0
100
AcDbBlockEnd
  0
BLOCK
  5
3F8
330
3F7
100
AcDbEntity
  8
0
100
AcDbBlockBegin
  2
HATCH_117_2b3f215a-bf2e-47ea-a670-6034cb207e9e
 70
     0
 10
0.0
 20
0.0
 30
0.0
  3
HATCH_117_2b3f215a-bf2e-47ea-a670-6034cb207e9e
  1

  0
LINE
  5
3FA
330
3F7
100
AcDbEntity
  8
DETAILS
 62
     0
370
     9
100
AcDbLine
 10
31.10000039433314
 20
23.0
 30
0.0
 11
31.09389622765217
 21
23.0
 31
0.0
  0
ENDBLK
  5
3F9
330
3F7
100
AcDbEntity
  8
0
100
AcDbBlockEnd
  0
ENDSEC
  0
SECTION
  2
ENTITIES
  0
LINE
  5
3FB
330
1F
100
AcDbEntity
  8
DETAILS
  6
Continuous
 62
     7
370
    25
100
AcDbLine
 10
27.10754934587015
 20
15.87598847659728
 30
0.0
 11
10.18098105399894
 21
15.87598847659728
 31
0.0
  0
LINE
  5
3FC
330
1F
100
AcDbEntity
  8
DETAILS
  6
Continuous
 62
     7
370
    25
100
AcDbLine
 10
26.14661707218982
 20
19.77297842137613
 30
0.0
 11
10.53220811671104
 21
26.85327664875285
 31
0.0
  0
LINE
  5
3FD
330
1F
100
AcDbEntity
  8
DETAILS
  6
Continuous
 62
     7
370
    25
100
AcDbLine
 10
25.90801975894589
 20
21.11736793194268
 30
0.0
 11
11.89540810307903
 21
27.47160391529678
 31
0.0
  0
LINE
  5
3FE
330
1F
100
AcDbEntity
  8
DETAILS
  6
Continuous
 62
     7
370
    25
100
AcDbLine
 10
25.63675414071025
 20
22.64582877995144
 30
0.0
 11
11.89540810307903
 21
28.87669481033663
 31
0.0
  0
LINE
  5
3FF
330
1F
100
AcDbEntity
  8
DETAILS
  6
Continuous
 62
     7
370
    25
100
AcDbLine
 10
40.11205798202253
 20
23.34334141339104
 30
0.0
 11
11.34297174496703
 21
36.38651291705673
 31
0.0
  0
LINE
  5
400
330
1F
100
AcDbEntity
  8
DETAILS
  6
Continuous
 62
     7
370
    25
100
AcDbLine
 10
40.66104055025789
 20
23.59201098777748
 30
0.0
 11
11.89540810307903
 21
36.63698564182505
 31
0.0
  0
LINE
  5
401
330
1F
100
AcDbEntity
  8
DETAILS
  6
Continuous
 62
     7
370
    25
100
AcDbLine
 10
40.66138644640614
 20
24.99805935934137
 30
0.0
 11
11.89540810307903
 21
38.04294926412876
 31
0.0
  0
LINE
  5
402
330
1F
100
AcDbEntity
  8
DETAILS
  6
Continuous
 62
     7
370
    25
100
AcDbLine
 10
0.0043966059214995
 20
52.76290703978293
 30
0.0
 11
52.80919607787343
 21
52.76290703978293
 31
0.0
  0
LINE
  5
403
330
1F
100
AcDbEntity
  8
DETAILS
  6
Continuous
 62
     7
370
    25
100
AcDbLine
 10
52.80919607787343
 20
-0.0000015234968487
 30
0.0
 11
0.0043966059214995
 21
-0.0000015234968487
 31
0.0
  0
LINE
  5
404
330
1F
100
AcDbEntity
  8
DETAILS
  6
Continuous
 62
     7
370
    25
100
AcDbLine
 10
5.107546085829085
 20
48.60257752012875
 30
0.0
 11
-0.0000012863308143
 21
48.60257752012875
 31
0.0
  0
LINE
  5
405
330
1F
100
AcDbEntity
  8
DETAILS
  6
Continuous
 62
     7
370
    25
100
AcDbLine
 10
0.0043966059214995
 20
-0.0000015234968487
 30
0.0
 11
0.0043966059214995
 21
52.76290703978293
 31
0.0
  0
LINE
  5
406
330
1F
100
AcDbEntity
  8
DETAILS
  6
Continuous
 62
     7
370
    25
100
AcDbLine
 10
-0.0000012863308143
 20
48.60257752012875
 30
0.0
 11
-0.0000012863308143
 21
52.75195929681695
 31
0.0
  0
LINE
  5
407
330
1F
100
AcDbEntity
  8
DETAILS
  6
Continuous
 62
     7
370
    25
100
AcDbLine
 10
5.107546085829085
 20
52.75195929681695
 30
0.0
 11
5.107546085829085
 21
48.60257752012875
 31
0.0
  0
LINE
  5
408
330
1F
100
AcDbEntity
  8
DETAILS
  6
Continuous
 62
     7
370
    25
100
AcDbLine
 10
11.34297174496703
 20
28.62665844920093
 30
0.0
 11
11.34297174496703
 21
30.03218570787294
 31
0.0
  0
LINE
  5
409
330
1F
100
AcDbEntity
  8
DETAILS
  6
Continuous
 62
     7
370
    25
100
AcDbLine
 10
11.34297174496703
 20
30.03218570787294
 30
0.0
 11
11.34297174496703
 21
31.43771296654495
 31
0.0
  0
LINE
  5
40A
330
1F
100
AcDbEntity
  8
DETAILS
  6
Continuous
 62
     7
370
    25
100
AcDbLine
 10
10.53220811671104
 20
26.85327664875285
 30
0.0
 11
10.53220811671104
 21
28.25880390742486
 31
0.0
  0
LINE
  5
40B
330
1F
100
AcDbEntity
  8
DETAILS
  6
Continuous
 62
     7
370
    25
100
AcDbLine
 10
11.89540810307903
 20
36.63698564182459
 30
0.0
 11
11.34297174496703
 21
36.38651291705673
 31
0.0
  0
LINE
  5
40C
330
1F
100
AcDbEntity
  8
DETAILS
  6
Continuous
 62
     7
370
    25
100
AcDbLine
 10
11.89540810307903
 20
27.47160391529678
 30
0.0
 11
10.53220811671104
 21
26.85327664875285
 31
0.0
  0
LINE
  5
40D
330
1F
100
AcDbEntity
  8
DETAILS
  6
Continuous
 62
     7
370
    25
100
AcDbLine
 10
11.89540810307903
 20
36.63698564182459
 30
0.0
 11
11.89540810307903
 21
38.04294926412876
 31
0.0
  0
LINE
  5
40E
330
1F
100
AcDbEntity
  8
DETAILS
  6
Continuous
 62
     7
370
    25
100
AcDbLine
 10
11.08508083845504
 20
35.7681856505128
 30
0.0
 11
10.53220811671104
 21
36.01909473891282
 31
0.0
  0
LINE
  5
40F
330
1F
100
AcDbEntity
  8
DETAILS
  6
Continuous
 62
     7
370
    25
100
AcDbLine
 10
11.08508083845504
 20
36.97211291120083
 30
0.0
 11
11.08508083845504
 21
27.80673118467257
 31
0.0
  0
LINE
  5
410
330
1F
100
AcDbEntity
  8
DETAILS
  6
Continuous
 62
     7
370
    25
100
AcDbLine
 10
11.34297174496703
 20
37.08949472820859
 30
0.0
 11
11.34297174496703
 21
27.92367663804952
 31
0.0
  0
LINE
  5
411
330
1F
100
AcDbEntity
  8
DETAILS
  6
Continuous
 62
     7
370
    25
100
AcDbLine
 10
11.34297174496703
 20
37.08949472820859
 30
0.0
 11
11.08508083845504
 21
36.97211291120083
 31
0.0
  0
LINE
  5
412
330
1F
100
AcDbEntity
  8
DETAILS
  6
Continuous
 62
     7
370
    25
100
AcDbLine
 10
10.53220811671104
 20
36.01909473891282
 30
0.0
 11
10.53220811671104
 21
37.42505836121654
 31
0.0
  0
LINE
  5
413
330
1F
100
AcDbEntity
  8
DETAILS
  6
Continuous
 62
     7
370
    25
100
AcDbLine
 10
11.08508083845504
 20
36.26913110004897
 30
0.0
 11
10.53220811671104
 21
36.01909473891282
 31
0.0
  0
LINE
  5
414
330
1F
100
AcDbEntity
  8
DETAILS
  6
Continuous
 62
     7
370
    25
100
AcDbLine
 10
11.34297174496703
 20
27.92367663804907
 30
0.0
 11
11.08508083845504
 21
27.80673118467257
 31
0.0
  0
LINE
  5
415
330
1F
100
AcDbEntity
  8
DETAILS
  6
Continuous
 62
     7
370
    25
100
AcDbLine
 10
11.08508083845504
 20
28.50927663219272
 30
0.0
 11
10.53220811671104
 21
28.25880390742486
 31
0.0
  0
LINE
  5
416
330
1F
100
AcDbEntity
  8
DETAILS
  6
Continuous
 62
     7
370
    25
100
AcDbLine
 10
10.53220811671104
 20
37.42505836121654
 30
0.0
 11
11.89540810307903
 21
38.04294926412876
 31
0.0
  0
LINE
  5
417
330
1F
100
AcDbEntity
  8
DETAILS
  6
Continuous
 62
     7
370
    25
100
AcDbLine
 10
11.89540810307903
 20
27.47160391529678
 30
0.0
 11
11.89540810307903
 21
28.87669481033663
 31
0.0
  0
LINE
  5
418
330
1F
100
AcDbEntity
  8
DETAILS
  6
Continuous
 62
     7
370
    25
100
AcDbLine
 10
11.89540810307903
 20
28.87669481033663
 30
0.0
 11
11.34297174496708
 21
28.62665844920093
 31
0.0
  0
LINE
  5
419
330
1F
100
AcDbEntity
  8
DETAILS
  6
Continuous
 62
     7
370
    25
100
AcDbLine
 10
31.36263547717681
 20
20.67140063288797
 30
0.0
 11
34.15723098169019
 21
11.73908857992137
 31
0.0
  0
LINE
  5
41A
330
1F
100
AcDbEntity
  8
DETAILS
  6
Continuous
 62
     7
370
    25
100
AcDbLine
 10
38.54833790826825
 20
14.14946219975854
 30
0.0
 11
29.02287649975403
 21
18.46874880983387
 31
0.0
  0
LINE
  5
41B
330
1F
100
AcDbEntity
  8
DETAILS
  6
Continuous
 62
     7
370
    25
100
AcDbLine
 10
30.4113570572469
 20
22.9119118502499
 30
0.0
 11
35.41262659005496
 21
32.77554024189203
 31
0.0
  0
LINE
  5
41C
330
1F
100
AcDbEntity
  8
DETAILS
  6
Continuous
 62
     7
370
    25
100
AcDbLine
 10
38.54833790826813
 20
15.38541971286531
 30
0.0
 11
29.27780946290437
 21
19.58928455112163
 31
0.0
  0
LINE
  5
41D
330
1F
100
AcDbEntity
  8
DETAILS
  6
Continuous
 62
     7
370
    25
100
AcDbLine
 10
38.54833790826819
 20
16.79120955448161
 30
0.0
 11
29.56768149004267
 21
20.86339191955994
 31
0.0
  0
LINE
  5
41E
330
1F
100
AcDbEntity
  8
DETAILS
  6
Continuous
 62
     7
370
    25
100
AcDbLine
 10
24.86696345600194
 20
25.49730504633589
 30
0.0
 11
35.41262659005496
 21
32.77554024189203
 31
0.0
  0
LINE
  5
41F
330
1F
100
AcDbEntity
  8
DETAILS
  6
Continuous
 62
     7
370
    25
100
AcDbLine
 10
22.5850729920416
 20
24.76499669763507
 30
0.0
 11
25.49481655227714
 21
23.4455838251788
 31
0.0
  0
LINE
  5
420
330
1F
100
AcDbEntity
  8
DETAILS
  6
Continuous
 62
     7
370
    25
100
AcDbLine
 10
22.5850729920416
 20
28.89558080643701
 30
0.0
 11
32.5850729920416
 21
24.36183531442111
 31
0.0
  0
LINE
  5
421
330
1F
100
AcDbEntity
  8
DETAILS
  6
Continuous
 62
     7
370
    25
100
AcDbLine
 10
21.22187300567361
 20
24.64770929567066
 30
0.0
 11
21.22187300567361
 21
28.2776899035257
 31
0.0
  0
LINE
  5
422
330
1F
100
AcDbEntity
  8
DETAILS
  6
Continuous
 62
     7
370
    25
100
AcDbLine
 10
22.5850729920416
 20
24.76499669763507
 30
0.0
 11
22.5850729920416
 21
28.89558080643701
 31
0.0
  0
LINE
  5
423
330
1F
100
AcDbEntity
  8
DETAILS
  6
Continuous
 62
     7
370
    25
100
AcDbLine
 10
22.5850729920416
 20
28.89558080643701
 30
0.0
 11
21.34903401069317
 21
24.59004950132475
 31
0.0
  0
LINE
  5
424
330
1F
100
AcDbEntity
  8
DETAILS
  6
Continuous
 62
     7
370
    25
100
AcDbLine
 10
21.22187300567361
 20
28.27768990352478
 30
0.0
 11
22.5850729920416
 21
24.76499669763507
 31
0.0
  0
LINE
  5
425
330
1F
100
AcDbEntity
  8
DETAILS
  6
Continuous
 62
     7
370
    25
100
AcDbLine
 10
21.77398628910839
 20
24.39735944688163
 30
0.0
 11
22.5850729920416
 21
24.76499669763507
 31
0.0
  0
LINE
  5
426
330
1F
100
AcDbEntity
  8
DETAILS
  6
Continuous
 62
     7
370
    25
100
AcDbLine
 10
21.22187300567361
 20
28.27768990352478
 30
0.0
 11
22.5850729920416
 21
28.89558080643701
 31
0.0
  0
LINE
  5
427
330
1F
100
AcDbEntity
  8
DETAILS
  6
Continuous
 62
     7
370
    25
100
AcDbLine
 10
29.79359349924283
 20
23.26503518550361
 30
0.0
 11
28.12510612009521
 21
15.93134353920686
 31
0.0
  0
LINE
  5
428
330
1F
100
AcDbEntity
  8
DETAILS
  6
Continuous
 62
     7
370
    25
100
AcDbLine
 10
28.73236147535124
 20
18.60048181478942
 30
0.0
 11
26.4917775966237
 21
19.6164666087111
 31
0.0
  0
LINE
  5
429
330
1F
100
AcDbEntity
  8
DETAILS
  6
Continuous
 62
     7
370
    25
100
AcDbLine
 10
25.83997707671108
 20
23.28907201251467
 30
0.0
 11
29.42882393065298
 21
21.6617221659244
 31
0.0
  0
ARC
  5
42A
330
1F
100
AcDbEntity
  8
DETAILS
  6
Continuous
 62
     7
370
    25
100
AcDbCircle
 10
27.66602137102307
 20
16.43816725234819
 30
0.0
 40
0.9144876624417764
100
AcDbArc
 50
188.8676490562332
 51
330.5842084417547
  0
LINE
  5
42B
330
1F
100
AcDbEntity
  8
DETAILS
  6
Continuous
 62
     7
370
    25
100
AcDbLine
 10
28.98729558031561
 20
19.72102257482083
 30
0.0
 11
26.25318155298344
 21
20.96084896562751
 31
0.0
  0
LINE
  5
42C
330
1F
100
AcDbEntity
  8
DETAILS
  6
Continuous
 62
     7
370
    25
100
AcDbLine
 10
29.27716603627016
 20
20.99512303725805
 30
0.0
 11
25.98191418772524
 21
22.48931965732981
 31
0.0
  0
LWPOLYLINE
  5
42D
330
1F
100
AcDbEntity
  8
DETAILS
  6
Continuous
 62
     7
370
    25
100
AcDbPolyline
 90
        3
 70
     1
 43
0.0
 10
24.25163611669547
 20
25.34708742434488
 10
24.24385255686746
 20
25.42687334215315
 10
24.25163611669547
 20
25.51156440894629
  0
LWPOLYLINE
  5
42E
330
1F
100
AcDbEntity
  8
DETAILS
  6
Continuous
 62
     7
370
    25
100
AcDbPolyline
 90
        3
 70
     1
 43
0.0
 10
24.25163611669547
 20
25.34708742434488
 10
24.25163611669547
 20
25.51156440894629
 10
24.25261328515667
 20
25.33707089151761
  0
LWPOLYLINE
  5
42F
330
1F
100
AcDbEntity
  8
DETAILS
  6
Continuous
 62
     7
370
    25
100
AcDbPolyline
 90
        3
 70
     1
 43
0.0
 10
24.25261328515667
 20
25.33707089151761
 10
24.25163611669547
 20
25.51156440894629
 10
24.25261328515667
 20
25.51502846781051
  0
LWPOLYLINE
  5
430
330
1F
100
AcDbEntity
  8
DETAILS
  6
Continuous
 62
     7
370
    25
100
AcDbPolyline
 90
        3
 70
     1
 43
0.0
 10
24.25261328515667
 20
25.33707089151761
 10
24.25261328515667
 20
25.51502846781051
 10
24.27472602073919
 20
25.26343848180684
  0
LWPOLYLINE
  5
431
330
1F
100
AcDbEntity
  8
DETAILS
  6
Continuous
 62
     7
370
    25
100
AcDbPolyline
 90
        3
 70
     1
 43
0.0
 10
24.27472602073919
 20
25.26343848180684
 10
24.25261328515667
 20
25.51502846781051
 10
24.27472602073919
 20
25.59341804007777
  0
LWPOLYLINE
  5
432
330
1F
100
AcDbEntity
  8
DETAILS
  6
Continuous
 62
     7
370
    25
100
AcDbPolyline
 90
        3
 70
     1
 43
0.0
 10
24.27472602073919
 20
25.26343848180684
 10
24.27472602073919
 20
25.59341804007777
 10
24.27856510765393
 20
25.25065484318528
  0
LWPOLYLINE
  5
433
330
1F
100
AcDbEntity
  8
DETAILS
  6
Continuous
 62
     7
370
    25
100
AcDbPolyline
 90
        3
 70
     1
 43
0.0
 10
24.27856510765393
 20
25.25065484318528
 10
24.27472602073919
 20
25.59341804007777
 10
24.27856510765393
 20
25.60120116458125
  0
LWPOLYLINE
  5
434
330
1F
100
AcDbEntity
  8
DETAILS
  6
Continuous
 62
     7
370
    25
100
AcDbPolyline
 90
        3
 70
     1
 43
0.0
 10
24.27856510765393
 20
25.25065484318528
 10
24.27856510765393
 20
25.60120116458125
 10
24.31234867953237
 20
25.18673944086773
  0
LWPOLYLINE
  5
435
330
1F
100
AcDbEntity
  8
DETAILS
  6
Continuous
 62
     7
370
    25
100
AcDbPolyline
 90
        3
 70
     1
 43
0.0
 10
24.31234867953237
 20
25.18673944086773
 10
24.27856510765393
 20
25.60120116458125
 10
24.31234867953237
 20
25.66969186352651
  0
LWPOLYLINE
  5
436
330
1F
100
AcDbEntity
  8
DETAILS
  6
Continuous
 62
     7
370
    25
100
AcDbPolyline
 90
        3
 70
     1
 43
0.0
 10
24.31234867953237
 20
25.18673944086773
 10
24.31234867953237
 20
25.66969186352651
 10
24.32072939503616
 20
25.17088390004272
  0
LWPOLYLINE
  5
437
330
1F
100
AcDbEntity
  8
DETAILS
  6
Continuous
 62
     7
370
    25
100
AcDbPolyline
 90
        3
 70
     1
 43
0.0
 10
24.32072939503616
 20
25.17088390004272
 10
24.31234867953237
 20
25.66969186352651
 10
24.32072939503616
 20
25.68091204063021
  0
LWPOLYLINE
  5
438
330
1F
100
AcDbEntity
  8
DETAILS
  6
Continuous
 62
     7
370
    25
100
AcDbPolyline
 90
        3
 70
     1
 43
0.0
 10
24.32072939503616
 20
25.17088390004272
 10
24.32072939503616
 20
25.68091204063021
 10
24.36324360743244
 20
25.11838927636844
  0
LWPOLYLINE
  5
439
330
1F
100
AcDbEntity
  8
DETAILS
  6
Continuous
 62
     7
370
    25
100
AcDbPolyline
 90
        3
 70
     1
 43
0.0
 10
24.36324360743244
 20
25.11838927636844
 10
24.32072939503616
 20
25.68091204063021
 10
24.36324360743244
 20
25.7378304496008
  0
LWPOLYLINE
  5
43A
330
1F
100
AcDbEntity
  8
DETAILS
  6
Continuous
 62
     7
370
    25
100
AcDbPolyline
 90
        3
 70
     1
 43
0.0
 10
24.36324360743244
 20
25.11838927636844
 10
24.36324360743244
 20
25.7378304496008
 10
24.37751615461503
 20
25.10076618161979
  0
LWPOLYLINE
  5
43B
330
1F
100
AcDbEntity
  8
DETAILS
  6
Continuous
 62
     7
370
    25
100
AcDbPolyline
 90
        3
 70
     1
 43
0.0
 10
24.37751615461503
 20
25.10076618161979
 10
24.36324360743244
 20
25.7378304496008
 10
24.37751615461503
 20
25.75101955059399
  0
LWPOLYLINE
  5
43C
330
1F
100
AcDbEntity
  8
DETAILS
  6
Continuous
 62
     7
370
    25
100
AcDbPolyline
 90
        3
 70
     1
 43
0.0
 10
24.37751615461503
 20
25.10076618161979
 10
24.37751615461503
 20
25.75101955059399
 10
24.42570565313019
 20
25.0605406460577
  0
LWPOLYLINE
  5
43D
330
1F
100
AcDbEntity
  8
DETAILS
  6
Continuous
 62
     7
370
    25
100
AcDbPolyline
 90
        3
 70
     1
 43
0.0
 10
24.42570565313019
 20
25.0605406460577
 10
24.37751615461503
 20
25.75101955059399
 10
24.42570565313019
 20
25.79555092643017
  0
LWPOLYLINE
  5
43E
330
1F
100
AcDbEntity
  8
DETAILS
  6
Continuous
 62
     7
370
    25
100
AcDbPolyline
 90
        3
 70
     1
 43
0.0
 10
24.42570565313019
 20
25.0605406460577
 10
24.42570565313019
 20
25.79555092643017
 10
24.44678398810945
 20
25.04294578951377
  0
LWPOLYLINE
  5
43F
330
1F
100
AcDbEntity
  8
DETAILS
  6
Continuous
 62
     7
370
    25
100
AcDbPolyline
 90
        3
 70
     1
 43
0.0
 10
24.44678398810945
 20
25.04294578951377
 10
24.42570565313019
 20
25.79555092643017
 10
24.44678398810945
 20
25.80884450568394
  0
LWPOLYLINE
  5
440
330
1F
100
AcDbEntity
  8
DETAILS
  6
Continuous
 62
     7
370
    25
100
AcDbPolyline
 90
        3
 70
     1
 43
0.0
 10
24.44678398810945
 20
25.04294578951377
 10
24.44678398810945
 20
25.80884450568394
 10
24.49764212795519
 20
25.0150911497065
  0
LWPOLYLINE
  5
441
330
1F
100
AcDbEntity
  8
DETAILS
  6
Continuous
 62
     7
370
    25
100
AcDbPolyline
 90
        3
 70
     1
 43
0.0
 10
24.49764212795519
 20
25.0150911497065
 10
24.44678398810945
 20
25.80884450568394
 10
24.49764212795519
 20
25.84091946385324
  0
LWPOLYLINE
  5
442
330
1F
100
AcDbEntity
  8
DETAILS
  6
Continuous
 62
     7
370
    25
100
AcDbPolyline
 90
        3
 70
     1
 43
0.0
 10
24.49764212795519
 20
25.0150911497065
 10
24.49764212795519
 20
25.84091946385324
 10
24.5259208426275
 20
24.99960309973458
  0
LWPOLYLINE
  5
443
330
1F
100
AcDbEntity
  8
DETAILS
  6
Continuous
 62
     7
370
    25
100
AcDbPolyline
 90
        3
 70
     1
 43
0.0
 10
24.5259208426275
 20
24.99960309973458
 10
24.49764212795519
 20
25.84091946385324
 10
24.5259208426275
 20
25.85219382385247
  0
LWPOLYLINE
  5
444
330
1F
100
AcDbEntity
  8
DETAILS
  6
Continuous
 62
     7
370
    25
100
AcDbPolyline
 90
        3
 70
     1
 43
0.0
 10
24.5259208426275
 20
24.99960309973458
 10
24.5259208426275
 20
25.85219382385247
 10
24.57664291798669
 20
24.98354679145116
  0
LWPOLYLINE
  5
445
330
1F
100
AcDbEntity
  8
DETAILS
  6
Continuous
 62
     7
370
    25
100
AcDbPolyline
 90
        3
 70
     1
 43
0.0
 10
24.57664291798669
 20
24.98354679145116
 10
24.5259208426275
 20
25.85219382385247
 10
24.57664291798669
 20
25.87241606323407
  0
LWPOLYLINE
  5
446
330
1F
100
AcDbEntity
  8
DETAILS
  6
Continuous
 62
     7
370
    25
100
AcDbPolyline
 90
        3
 70
     1
 43
0.0
 10
24.57664291798669
 20
24.98354679145116
 10
24.57664291798669
 20
25.87241606323407
 10
24.61194250978163
 20
24.97237254189364
  0
LWPOLYLINE
  5
447
330
1F
100
AcDbEntity
  8
DETAILS
  6
Continuous
 62
     7
370
    25
100
AcDbPolyline
 90
        3
 70
     1
 43
0.0
 10
24.61194250978163
 20
24.97237254189364
 10
24.57664291798669
 20
25.87241606323407
 10
24.61194250978163
 20
25.87942763798854
  0
LWPOLYLINE
  5
448
330
1F
100
AcDbEntity
  8
DETAILS
  6
Continuous
 62
     7
370
    25
100
AcDbPolyline
 90
        3
 70
     1
 43
0.0
 10
24.61194250978163
 20
24.97237254189364
 10
24.61194250978163
 20
25.87942763798854
 10
24.66006123097818
 20
24.96695675565609
  0
LWPOLYLINE
  5
449
330
1F
100
AcDbEntity
  8
DETAILS
  6
Continuous
 62
     7
370
    25
100
AcDbPolyline
 90
        3
 70
     1
 43
0.0
 10
24.66006123097818
 20
24.96695675565609
 10
24.61194250978163
 20
25.87942763798854
 10
24.66006123097818
 20
25.88898548253017
  0
LWPOLYLINE
  5
44A
330
1F
100
AcDbEntity
  8
DETAILS
  6
Continuous
 62
     7
370
    25
100
AcDbPolyline
 90
        3
 70
     1
 43
0.0
 10
24.66006123097818
 20
24.96695675565609
 10
24.66006123097818
 20
25.88898548253017
 10
24.70160515858823
 20
24.96228096573879
  0
LWPOLYLINE
  5
44B
330
1F
100
AcDbEntity
  8
DETAILS
  6
Continuous
 62
     7
370
    25
100
AcDbPolyline
 90
        3
 70
     1
 43
0.0
 10
24.70160515858823
 20
24.96228096573879
 10
24.66006123097818
 20
25.88898548253017
 10
24.70160515858823
 20
25.88951655237362
  0
LWPOLYLINE
  5
44C
330
1F
100
AcDbEntity
  8
DETAILS
  6
Continuous
 62
     7
370
    25
100
AcDbPolyline
 90
        3
 70
     1
 43
0.0
 10
24.70160515858823
 20
24.96228096573879
 10
24.70160515858823
 20
25.88951655237362
 10
24.74510227280226
 20
24.96587399907381
  0
LWPOLYLINE
  5
44D
330
1F
100
AcDbEntity
  8
DETAILS
  6
Continuous
 62
     7
370
    25
100
AcDbPolyline
 90
        3
 70
     1
 43
0.0
 10
24.74510227280226
 20
24.96587399907381
 10
24.70160515858823
 20
25.88951655237362
 10
24.74510227280226
 20
25.89007259045102
  0
LWPOLYLINE
  5
44E
330
1F
100
AcDbEntity
  8
DETAILS
  6
Continuous
 62
     7
370
    25
100
AcDbPolyline
 90
        3
 70
     1
 43
0.0
 10
24.74510227280226
 20
24.96587399907381
 10
24.74510227280226
 20
25.89007259045102
 10
24.79152765859617
 20
24.96970891920041
  0
LWPOLYLINE
  5
44F
330
1F
100
AcDbEntity
  8
DETAILS
  6
Continuous
 62
     7
370
    25
100
AcDbPolyline
 90
        3
 70
     1
 43
0.0
 10
24.79152765859617
 20
24.96970891920041
 10
24.74510227280226
 20
25.89007259045102
 10
24.79152765859617
 20
25.88207883170698
  0
LWPOLYLINE
  5
450
330
1F
100
AcDbEntity
  8
DETAILS
  6
Continuous
 62
     7
370
    25
100
AcDbPolyline
 90
        3
 70
     1
 43
0.0
 10
24.79152765859617
 20
24.96970891920041
 10
24.79152765859617
 20
25.88207883170698
 10
24.82891688245632
 20
24.9803354780546
  0
LWPOLYLINE
  5
451
330
1F
100
AcDbEntity
  8
DETAILS
  6
Continuous
 62
     7
370
    25
100
AcDbPolyline
 90
        3
 70
     1
 43
0.0
 10
24.82891688245632
 20
24.9803354780546
 10
24.79152765859617
 20
25.88207883170698
 10
24.82891688245632
 20
25.87564096522394
  0
LWPOLYLINE
  5
452
330
1F
100
AcDbEntity
  8
DETAILS
  6
Continuous
 62
     7
370
    25
100
AcDbPolyline
 90
        3
 70
     1
 43
0.0
 10
24.82891688245632
 20
24.9803354780546
 10
24.82891688245632
 20
25.87564096522394
 10
24.87831908050472
 20
24.99437629813288
  0
LWPOLYLINE
  5
453
330
1F
100
AcDbEntity
  8
DETAILS
  6
Continuous
 62
     7
370
    25
100
AcDbPolyline
 90
        3
 70
     1
 43
0.0
 10
24.87831908050472
 20
24.99437629813288
 10
24.82891688245632
 20
25.87564096522394
 10
24.87831908050472
 20
25.85739422114617
  0
LWPOLYLINE
  5
454
330
1F
100
AcDbEntity
  8
DETAILS
  6
Continuous
 62
     7
370
    25
100
AcDbPolyline
 90
        3
 70
     1
 43
0.0
 10
24.87831908050472
 20
24.99437629813288
 10
24.87831908050472
 20
25.85739422114617
 10
24.90869698854149
 20
25.009861092826
  0
LWPOLYLINE
  5
455
330
1F
100
AcDbEntity
  8
DETAILS
  6
Continuous
 62
     7
370
    25
100
AcDbPolyline
 90
        3
 70
     1
 43
0.0
 10
24.90869698854149
 20
25.009861092826
 10
24.87831908050472
 20
25.85739422114617
 10
24.90869698854149
 20
25.846174114846
  0
LWPOLYLINE
  5
456
330
1F
100
AcDbEntity
  8
DETAILS
  6
Continuous
 62
     7
370
    25
100
AcDbPolyline
 90
        3
 70
     1
 43
0.0
 10
24.90869698854149
 20
25.009861092826
 10
24.90869698854149
 20
25.846174114846
 10
24.95870656629085
 20
25.03535290889183
  0
LWPOLYLINE
  5
457
330
1F
100
AcDbEntity
  8
DETAILS
  6
Continuous
 62
     7
370
    25
100
AcDbPolyline
 90
        3
 70
     1
 43
0.0
 10
24.95870656629085
 20
25.03535290889183
 10
24.90869698854149
 20
25.846174114846
 10
24.95870656629085
 20
25.8163933813731
  0
LWPOLYLINE
  5
458
330
1F
100
AcDbEntity
  8
DETAILS
  6
Continuous
 62
     7
370
    25
100
AcDbPolyline
 90
        3
 70
     1
 43
0.0
 10
24.95870656629085
 20
25.03535290889183
 10
24.95870656629085
 20
25.8163933813731
 10
24.98176968910165
 20
25.05347149431942
  0
LWPOLYLINE
  5
459
330
1F
100
AcDbEntity
  8
DETAILS
  6
Continuous
 62
     7
370
    25
100
AcDbPolyline
 90
        3
 70
     1
 43
0.0
 10
24.98176968910165
 20
25.05347149431942
 10
24.95870656629085
 20
25.8163933813731
 10
24.98176968910165
 20
25.80265927793947
  0
LWPOLYLINE
  5
45A
330
1F
100
AcDbEntity
  8
DETAILS
  6
Continuous
 62
     7
370
    25
100
AcDbPolyline
 90
        3
 70
     1
 43
0.0
 10
24.98176968910165
 20
25.05347149431942
 10
24.98176968910165
 20
25.80265927793947
 10
25.02965874693191
 20
25.0910935454381
  0
LWPOLYLINE
  5
45B
330
1F
100
AcDbEntity
  8
DETAILS
  6
Continuous
 62
     7
370
    25
100
AcDbPolyline
 90
        3
 70
     1
 43
0.0
 10
25.02965874693191
 20
25.0910935454381
 10
24.98176968910165
 20
25.80265927793947
 10
25.02965874693191
 20
25.76062339614369
  0
LWPOLYLINE
  5
45C
330
1F
100
AcDbEntity
  8
DETAILS
  6
Continuous
 62
     7
370
    25
100
AcDbPolyline
 90
        3
 70
     1
 43
0.0
 10
25.02965874693191
 20
25.0910935454381
 10
25.02965874693191
 20
25.76062339614369
 10
25.04568680283134
 20
25.10972607697719
  0
LWPOLYLINE
  5
45D
330
1F
100
AcDbEntity
  8
DETAILS
  6
Continuous
 62
     7
370
    25
100
AcDbPolyline
 90
        3
 70
     1
 43
0.0
 10
25.04568680283134
 20
25.10972607697719
 10
25.02965874693191
 20
25.76062339614369
 10
25.04568680283134
 20
25.74655434793663
  0
LWPOLYLINE
  5
45E
330
1F
100
AcDbEntity
  8
DETAILS
  6
Continuous
 62
     7
370
    25
100
AcDbPolyline
 90
        3
 70
     1
 43
0.0
 10
25.04568680283134
 20
25.10972607697719
 10
25.04568680283134
 20
25.74655434793663
 10
25.08850005370745
 20
25.15949625822971
  0
LWPOLYLINE
  5
45F
330
1F
100
AcDbEntity
  8
DETAILS
  6
Continuous
 62
     7
370
    25
100
AcDbPolyline
 90
        3
 70
     1
 43
0.0
 10
25.08850005370745
 20
25.15949625822971
 10
25.04568680283134
 20
25.74655434793663
 10
25.08850005370745
 20
25.69219144012897
  0
LWPOLYLINE
  5
460
330
1F
100
AcDbEntity
  8
DETAILS
  6
Continuous
 62
     7
370
    25
100
AcDbPolyline
 90
        3
 70
     1
 43
0.0
 10
25.08850005370745
 20
25.15949625822971
 10
25.08850005370745
 20
25.69219144012897
 10
25.09830689138581
 20
25.17678824262952
  0
LWPOLYLINE
  5
461
330
1F
100
AcDbEntity
  8
DETAILS
  6
Continuous
 62
     7
370
    25
100
AcDbPolyline
 90
        3
 70
     1
 43
0.0
 10
25.09830689138581
 20
25.17678824262952
 10
25.08850005370745
 20
25.69219144012897
 10
25.09830689138581
 20
25.67973902874502
  0
LWPOLYLINE
  5
462
330
1F
100
AcDbEntity
  8
DETAILS
  6
Continuous
 62
     7
370
    25
100
AcDbPolyline
 90
        3
 70
     1
 43
0.0
 10
25.09830689138581
 20
25.17678824262952
 10
25.09830689138581
 20
25.67973902874502
 10
25.13301161246227
 20
25.23798161761298
  0
LWPOLYLINE
  5
463
330
1F
100
AcDbEntity
  8
DETAILS
  6
Continuous
 62
     7
370
    25
100
AcDbPolyline
 90
        3
 70
     1
 43
0.0
 10
25.13301161246227
 20
25.23798161761298
 10
25.09830689138581
 20
25.67973902874502
 10
25.13301161246227
 20
25.48419339435375
  0
LWPOLYLINE
  5
464
330
1F
100
AcDbEntity
  8
DETAILS
  6
Continuous
 62
     7
370
    25
100
AcDbPolyline
 90
        3
 70
     1
 43
0.0
 10
25.13301161246227
 20
25.23798161761298
 10
25.13301161246227
 20
25.48419339435375
 10
25.1615149161621
 20
25.32358998273287
  0
LWPOLYLINE
  5
465
330
1F
100
AcDbEntity
  8
DETAILS
  6
Continuous
 62
     7
370
    25
100
AcDbPolyline
 90
        3
 70
     1
 43
0.0
 10
30.08609552291625
 20
22.87912216894543
 10
30.07736704288788
 20
22.97331746971713
 10
30.08609552291625
 20
23.06203901828504
  0
LWPOLYLINE
  5
466
330
1F
100
AcDbEntity
  8
DETAILS
  6
Continuous
 62
     7
370
    25
100
AcDbPolyline
 90
        3
 70
     1
 43
0.0
 10
30.08609552291625
 20
22.87912216894543
 10
30.08609552291625
 20
23.06203901828504
 10
30.08719512619777
 20
22.87525746428366
  0
LWPOLYLINE
  5
467
330
1F
100
AcDbEntity
  8
DETAILS
  6
Continuous
 62
     7
370
    25
100
AcDbPolyline
 90
        3
 70
     1
 43
0.0
 10
30.08719512619777
 20
22.87525746428366
 10
30.08609552291625
 20
23.06203901828504
 10
30.08719512619777
 20
23.07321605089897
  0
LWPOLYLINE
  5
468
330
1F
100
AcDbEntity
  8
DETAILS
  6
Continuous
 62
     7
370
    25
100
AcDbPolyline
 90
        3
 70
     1
 43
0.0
 10
30.08719512619777
 20
22.87525746428366
 10
30.08719512619777
 20
23.07321605089897
 10
30.11198372508265
 20
22.7881345761667
  0
LWPOLYLINE
  5
469
330
1F
100
AcDbEntity
  8
DETAILS
  6
Continuous
 62
     7
370
    25
100
AcDbPolyline
 90
        3
 70
     1
 43
0.0
 10
30.11198372508265
 20
22.7881345761667
 10
30.08719512619777
 20
23.07321605089897
 10
30.11198372508265
 20
23.15503005476061
  0
LWPOLYLINE
  5
46A
330
1F
100
AcDbEntity
  8
DETAILS
  6
Continuous
 62
     7
370
    25
100
AcDbPolyline
 90
        3
 70
     1
 43
0.0
 10
30.11198372508265
 20
22.7881345761667
 10
30.11198372508265
 20
23.15503005476061
 10
30.1163025295069
 20
22.77946124767024
  0
LWPOLYLINE
  5
46B
330
1F
100
AcDbEntity
  8
DETAILS
  6
Continuous
 62
     7
370
    25
100
AcDbPolyline
 90
        3
 70
     1
 43
0.0
 10
30.1163025295069
 20
22.77946124767024
 10
30.11198372508265
 20
23.15503005476061
 10
30.1163025295069
 20
23.1692841351741
  0
LWPOLYLINE
  5
46C
330
1F
100
AcDbEntity
  8
DETAILS
  6
Continuous
 62
     7
370
    25
100
AcDbPolyline
 90
        3
 70
     1
 43
0.0
 10
30.1163025295069
 20
22.77946124767024
 10
30.1163025295069
 20
23.1692841351741
 10
30.15415005771179
 20
22.70345316472544
  0
LWPOLYLINE
  5
46D
330
1F
100
AcDbEntity
  8
DETAILS
  6
Continuous
 62
     7
370
    25
100
AcDbPolyline
 90
        3
 70
     1
 43
0.0
 10
30.15415005771179
 20
22.70345316472544
 10
30.1163025295069
 20
23.1692841351741
 10
30.15415005771179
 20
23.24018542245169
  0
LWPOLYLINE
  5
46E
330
1F
100
AcDbEntity
  8
DETAILS
  6
Continuous
 62
     7
370
    25
100
AcDbPolyline
 90
        3
 70
     1
 43
0.0
 10
30.15415005771179
 20
22.70345316472544
 10
30.15415005771179
 20
23.24018542245169
 10
30.16357316270646
 20
22.69097495709137
  0
LWPOLYLINE
  5
46F
330
1F
100
AcDbEntity
  8
DETAILS
  6
Continuous
 62
     7
370
    25
100
AcDbPolyline
 90
        3
 70
     1
 43
0.0
 10
30.16357316270646
 20
22.69097495709137
 10
30.15415005771179
 20
23.24018542245169
 10
30.16357316270646
 20
23.25783810166122
  0
LWPOLYLINE
  5
470
330
1F
100
AcDbEntity
  8
DETAILS
  6
Continuous
 62
     7
370
    25
100
AcDbPolyline
 90
        3
 70
     1
 43
0.0
 10
30.16357316270646
 20
22.69097495709137
 10
30.16357316270646
 20
23.25783810166122
 10
30.21115859691891
 20
22.6279616585241
  0
LWPOLYLINE
  5
471
330
1F
100
AcDbEntity
  8
DETAILS
  6
Continuous
 62
     7
370
    25
100
AcDbPolyline
 90
        3
 70
     1
 43
0.0
 10
30.21115859691891
 20
22.6279616585241
 10
30.16357316270646
 20
23.25783810166122
 10
30.21115859691891
 20
23.31591202632675
  0
LWPOLYLINE
  5
472
330
1F
100
AcDbEntity
  8
DETAILS
  6
Continuous
 62
     7
370
    25
100
AcDbPolyline
 90
        3
 70
     1
 43
0.0
 10
30.21115859691891
 20
22.6279616585241
 10
30.21115859691891
 20
23.31591202632675
 10
30.22719448739896
 20
22.61334301278565
  0
LWPOLYLINE
  5
473
330
1F
100
AcDbEntity
  8
DETAILS
  6
Continuous
 62
     7
370
    25
100
AcDbPolyline
 90
        3
 70
     1
 43
0.0
 10
30.22719448739896
 20
22.61334301278565
 10
30.21115859691891
 20
23.31591202632675
 10
30.22719448739896
 20
23.33548244973668
  0
LWPOLYLINE
  5
474
330
1F
100
AcDbEntity
  8
DETAILS
  6
Continuous
 62
     7
370
    25
100
AcDbPolyline
 90
        3
 70
     1
 43
0.0
 10
30.22719448739896
 20
22.61334301278565
 10
30.22719448739896
 20
23.33548244973668
 10
30.28106798527552
 20
22.5642308302643
  0
LWPOLYLINE
  5
475
330
1F
100
AcDbEntity
  8
DETAILS
  6
Continuous
 62
     7
370
    25
100
AcDbPolyline
 90
        3
 70
     1
 43
0.0
 10
30.28106798527552
 20
22.5642308302643
 10
30.22719448739896
 20
23.33548244973668
 10
30.28106798527552
 20
23.3797843969053
  0
LWPOLYLINE
  5
476
330
1F
100
AcDbEntity
  8
DETAILS
  6
Continuous
 62
     7
370
    25
100
AcDbPolyline
 90
        3
 70
     1
 43
0.0
 10
30.28106798527552
 20
22.5642308302643
 10
30.28106798527552
 20
23.3797843969053
 10
30.30472701661116
 20
22.54958177825841
  0
LWPOLYLINE
  5
477
330
1F
100
AcDbEntity
  8
DETAILS
  6
Continuous
 62
     7
370
    25
100
AcDbPolyline
 90
        3
 70
     1
 43
0.0
 10
30.30472701661116
 20
22.54958177825841
 10
30.28106798527552
 20
23.3797843969053
 10
30.30472701661116
 20
23.39923999562461
  0
LWPOLYLINE
  5
478
330
1F
100
AcDbEntity
  8
DETAILS
  6
Continuous
 62
     7
370
    25
100
AcDbPolyline
 90
        3
 70
     1
 43
0.0
 10
30.30472701661116
 20
22.54958177825841
 10
30.30472701661116
 20
23.39923999562461
 10
30.36149754240822
 20
22.51443095686573
  0
LWPOLYLINE
  5
479
330
1F
100
AcDbEntity
  8
DETAILS
  6
Continuous
 62
     7
370
    25
100
AcDbPolyline
 90
        3
 70
     1
 43
0.0
 10
30.36149754240822
 20
22.51443095686573
 10
30.30472701661116
 20
23.39923999562461
 10
30.36149754240822
 20
23.4287236340787
  0
LWPOLYLINE
  5
47A
330
1F
100
AcDbEntity
  8
DETAILS
  6
Continuous
 62
     7
370
    25
100
AcDbPolyline
 90
        3
 70
     1
 43
0.0
 10
30.36149754240822
 20
22.51443095686573
 10
30.36149754240822
 20
23.4287236340787
 10
30.39426300226461
 20
22.5017375500932
  0
LWPOLYLINE
  5
47B
330
1F
100
AcDbEntity
  8
DETAILS
  6
Continuous
 62
     7
370
    25
100
AcDbPolyline
 90
        3
 70
     1
 43
0.0
 10
30.39426300226461
 20
22.5017375500932
 10
30.36149754240822
 20
23.4287236340787
 10
30.39426300226461
 20
23.44574029824773
  0
LWPOLYLINE
  5
47C
330
1F
100
AcDbEntity
  8
DETAILS
  6
Continuous
 62
     7
370
    25
100
AcDbPolyline
 90
        3
 70
     1
 43
0.0
 10
30.39426300226461
 20
22.5017375500932
 10
30.39426300226461
 20
23.44574029824773
 10
30.44970833621347
 20
22.4802579132886
  0
LWPOLYLINE
  5
47D
330
1F
100
AcDbEntity
  8
DETAILS
  6
Continuous
 62
     7
370
    25
100
AcDbPolyline
 90
        3
 70
     1
 43
0.0
 10
30.44970833621347
 20
22.4802579132886
 10
30.39426300226461
 20
23.44574029824773
 10
30.44970833621347
 20
23.46252640078629
  0
LWPOLYLINE
  5
47E
330
1F
100
AcDbEntity
  8
DETAILS
  6
Continuous
 62
     7
370
    25
100
AcDbPolyline
 90
        3
 70
     1
 43
0.0
 10
30.44970833621347
 20
22.4802579132886
 10
30.44970833621347
 20
23.46252640078629
 10
30.4908255379897
 20
22.47257177619819
  0
LWPOLYLINE
  5
47F
330
1F
100
AcDbEntity
  8
DETAILS
  6
Continuous
 62
     7
370
    25
100
AcDbPolyline
 90
        3
 70
     1
 43
0.0
 10
30.4908255379897
 20
22.47257177619819
 10
30.44970833621347
 20
23.46252640078629
 10
30.4908255379897
 20
23.47497465415511
  0
LWPOLYLINE
  5
480
330
1F
100
AcDbEntity
  8
DETAILS
  6
Continuous
 62
     7
370
    25
100
AcDbPolyline
 90
        3
 70
     1
 43
0.0
 10
30.4908255379897
 20
22.47257177619819
 10
30.4908255379897
 20
23.47497465415511
 10
30.54269645390541
 20
22.46287542154588
  0
LWPOLYLINE
  5
481
330
1F
100
AcDbEntity
  8
DETAILS
  6
Continuous
 62
     7
370
    25
100
AcDbPolyline
 90
        3
 70
     1
 43
0.0
 10
30.54269645390541
 20
22.46287542154588
 10
30.4908255379897
 20
23.47497465415511
 10
30.54269645390541
 20
23.48064850517437
  0
LWPOLYLINE
  5
482
330
1F
100
AcDbEntity
  8
DETAILS
  6
Continuous
 62
     7
370
    25
100
AcDbPolyline
 90
        3
 70
     1
 43
0.0
 10
30.54269645390541
 20
22.46287542154588
 10
30.54269645390541
 20
23.48064850517437
 10
30.59111821354659
 20
22.46287542154588
  0
LWPOLYLINE
  5
483
330
1F
100
AcDbEntity
  8
DETAILS
  6
Continuous
 62
     7
370
    25
100
AcDbPolyline
 90
        3
 70
     1
 43
0.0
 10
30.59111821354659
 20
22.46287542154588
 10
30.54269645390541
 20
23.48064850517437
 10
30.59111821354659
 20
23.48594507350065
  0
LWPOLYLINE
  5
484
330
1F
100
AcDbEntity
  8
DETAILS
  6
Continuous
 62
     7
370
    25
100
AcDbPolyline
 90
        3
 70
     1
 43
0.0
 10
30.59111821354659
 20
22.46287542154588
 10
30.59111821354659
 20
23.48594507350065
 10
30.63729529666301
 20
22.46287542154588
  0
LWPOLYLINE
  5
485
330
1F
100
AcDbEntity
  8
DETAILS
  6
Continuous
 62
     7
370
    25
100
AcDbPolyline
 90
        3
 70
     1
 43
0.0
 10
30.63729529666301
 20
22.46287542154588
 10
30.59111821354659
 20
23.48594507350065
 10
30.63729529666301
 20
23.48130130840308
  0
LWPOLYLINE
  5
486
330
1F
100
AcDbEntity
  8
DETAILS
  6
Continuous
 62
     7
370
    25
100
AcDbPolyline
 90
        3
 70
     1
 43
0.0
 10
30.63729529666301
 20
22.46287542154588
 10
30.63729529666301
 20
23.48130130840308
 10
30.69096779217993
 20
22.47290854979163
  0
LWPOLYLINE
  5
487
330
1F
100
AcDbEntity
  8
DETAILS
  6
Continuous
 62
     7
370
    25
100
AcDbPolyline
 90
        3
 70
     1
 43
0.0
 10
30.69096779217993
 20
22.47290854979163
 10
30.63729529666301
 20
23.48130130840308
 10
30.69096779217993
 20
23.47590377255716
  0
LWPOLYLINE
  5
488
330
1F
100
AcDbEntity
  8
DETAILS
  6
Continuous
 62
     7
370
    25
100
AcDbPolyline
 90
        3
 70
     1
 43
0.0
 10
30.69096779217993
 20
22.47290854979163
 10
30.69096779217993
 20
23.47590377255716
 10
30.73028341435495
 20
22.4802579132886
  0
LWPOLYLINE
  5
489
330
1F
100
AcDbEntity
  8
DETAILS
  6
Continuous
 62
     7
370
    25
100
AcDbPolyline
 90
        3
 70
     1
 43
0.0
 10
30.73028341435495
 20
22.4802579132886
 10
30.69096779217993
 20
23.47590377255716
 10
30.73028341435495
 20
23.46390109463496
  0
LWPOLYLINE
  5
48A
330
1F
100
AcDbEntity
  8
DETAILS
  6
Continuous
 62
     7
370
    25
100
AcDbPolyline
 90
        3
 70
     1
 43
0.0
 10
30.73028341435495
 20
22.4802579132886
 10
30.73028341435495
 20
23.46390109463496
 10
30.78694785120809
 20
22.50220983307441
  0
LWPOLYLINE
  5
48B
330
1F
100
AcDbEntity
  8
DETAILS
  6
Continuous
 62
     7
370
    25
100
AcDbPolyline
 90
        3
 70
     1
 43
0.0
 10
30.78694785120809
 20
22.50220983307441
 10
30.73028341435495
 20
23.46390109463496
 10
30.78694785120809
 20
23.44660199194841
  0
LWPOLYLINE
  5
48C
330
1F
100
AcDbEntity
  8
DETAILS
  6
Continuous
 62
     7
370
    25
100
AcDbPolyline
 90
        3
 70
     1
 43
0.0
 10
30.78694785120809
 20
22.50220983307441
 10
30.78694785120809
 20
23.44660199194841
 10
30.8184942081602
 20
22.51443095686573
  0
LWPOLYLINE
  5
48D
330
1F
100
AcDbEntity
  8
DETAILS
  6
Continuous
 62
     7
370
    25
100
AcDbPolyline
 90
        3
 70
     1
 43
0.0
 10
30.8184942081602
 20
22.51443095686573
 10
30.78694785120809
 20
23.44660199194841
 10
30.8184942081602
 20
23.42967901397836
  0
LWPOLYLINE
  5
48E
330
1F
100
AcDbEntity
  8
DETAILS
  6
Continuous
 62
     7
370
    25
100
AcDbPolyline
 90
        3
 70
     1
 43
0.0
 10
30.8184942081602
 20
22.51443095686573
 10
30.8184942081602
 20
23.42967901397836
 10
30.87538017265193
 20
22.54965325487204
  0
LWPOLYLINE
  5
48F
330
1F
100
AcDbEntity
  8
DETAILS
  6
Continuous
 62
     7
370
    25
100
AcDbPolyline
 90
        3
 70
     1
 43
0.0
 10
30.87538017265193
 20
22.54965325487204
 10
30.8184942081602
 20
23.42967901397836
 10
30.87538017265193
 20
23.39916265592915
  0
LWPOLYLINE
  5
490
330
1F
100
AcDbEntity
  8
DETAILS
  6
Continuous
 62
     7
370
    25
100
AcDbPolyline
 90
        3
 70
     1
 43
0.0
 10
30.87538017265193
 20
22.54965325487204
 10
30.87538017265193
 20
23.39916265592915
 10
30.8989237652929
 20
22.5642308302643
  0
LWPOLYLINE
  5
491
330
1F
100
AcDbEntity
  8
DETAILS
  6
Continuous
 62
     7
370
    25
100
AcDbPolyline
 90
        3
 70
     1
 43
0.0
 10
30.8989237652929
 20
22.5642308302643
 10
30.87538017265193
 20
23.39916265592915
 10
30.8989237652929
 20
23.37979235689996
  0
LWPOLYLINE
  5
492
330
1F
100
AcDbEntity
  8
DETAILS
  6
Continuous
 62
     7
370
    25
100
AcDbPolyline
 90
        3
 70
     1
 43
0.0
 10
30.8989237652929
 20
22.5642308302643
 10
30.8989237652929
 20
23.37979235689996
 10
30.95287578844903
 20
22.61341459803656
  0
LWPOLYLINE
  5
493
330
1F
100
AcDbEntity
  8
DETAILS
  6
Continuous
 62
     7
370
    25
100
AcDbPolyline
 90
        3
 70
     1
 43
0.0
 10
30.95287578844903
 20
22.61341459803656
 10
30.8989237652929
 20
23.37979235689996
 10
30.95287578844903
 20
23.33540376941032
  0
LWPOLYLINE
  5
494
330
1F
100
AcDbEntity
  8
DETAILS
  6
Continuous
 62
     7
370
    25
100
AcDbPolyline
 90
        3
 70
     1
 43
0.0
 10
30.95287578844903
 20
22.61341459803656
 10
30.95287578844903
 20
23.33540376941032
 10
30.96883315364951
 20
22.6279616585241
  0
LWPOLYLINE
  5
495
330
1F
100
AcDbEntity
  8
DETAILS
  6
Continuous
 62
     7
370
    25
100
AcDbPolyline
 90
        3
 70
     1
 43
0.0
 10
30.96883315364951
 20
22.6279616585241
 10
30.95287578844903
 20
23.33540376941032
 10
30.96883315364951
 20
23.31592164029456
  0
LWPOLYLINE
  5
496
330
1F
100
AcDbEntity
  8
DETAILS
  6
Continuous
 62
     7
370
    25
100
AcDbPolyline
 90
        3
 70
     1
 43
0.0
 10
30.96883315364951
 20
22.6279616585241
 10
30.96883315364951
 20
23.31592164029456
 10
31.01646485496505
 20
22.6910362246374
  0
LWPOLYLINE
  5
497
330
1F
100
AcDbEntity
  8
DETAILS
  6
Continuous
 62
     7
370
    25
100
AcDbPolyline
 90
        3
 70
     1
 43
0.0
 10
31.01646485496505
 20
22.6910362246374
 10
30.96883315364951
 20
23.31592164029456
 10
31.01646485496505
 20
23.25776874704596
  0
LWPOLYLINE
  5
498
330
1F
100
AcDbEntity
  8
DETAILS
  6
Continuous
 62
     7
370
    25
100
AcDbPolyline
 90
        3
 70
     1
 43
0.0
 10
31.01646485496505
 20
22.6910362246374
 10
31.01646485496505
 20
23.25776874704596
 10
31.02584169285663
 20
22.70345316472544
  0
LWPOLYLINE
  5
499
330
1F
100
AcDbEntity
  8
DETAILS
  6
Continuous
 62
     7
370
    25
100
AcDbPolyline
 90
        3
 70
     1
 43
0.0
 10
31.02584169285663
 20
22.70345316472544
 10
31.01646485496505
 20
23.25776874704596
 10
31.02584169285663
 20
23.24019700972115
  0
LWPOLYLINE
  5
49A
330
1F
100
AcDbEntity
  8
DETAILS
  6
Continuous
 62
     7
370
    25
100
AcDbPolyline
 90
        3
 70
     1
 43
0.0
 10
31.02584169285663
 20
22.70345316472544
 10
31.02584169285663
 20
23.24019700972115
 10
31.06371046551222
 20
22.77950391227866
  0
LWPOLYLINE
  5
49B
330
1F
100
AcDbEntity
  8
DETAILS
  6
Continuous
 62
     7
370
    25
100
AcDbPolyline
 90
        3
 70
     1
 43
0.0
 10
31.06371046551222
 20
22.77950391227866
 10
31.02584169285663
 20
23.24019700972115
 10
31.06371046551222
 20
23.1692327749108
  0
LWPOLYLINE
  5
49C
330
1F
100
AcDbEntity
  8
DETAILS
  6
Continuous
 62
     7
370
    25
100
AcDbPolyline
 90
        3
 70
     1
 43
0.0
 10
31.06371046551222
 20
22.77950391227866
 10
31.06371046551222
 20
23.1692327749108
 10
31.06800802548577
 20
22.7881345761667
  0
LWPOLYLINE
  5
49D
330
1F
100
AcDbEntity
  8
DETAILS
  6
Continuous
 62
     7
370
    25
100
AcDbPolyline
 90
        3
 70
     1
 43
0.0
 10
31.06800802548577
 20
22.7881345761667
 10
31.06371046551222
 20
23.1692327749108
 10
31.06800802548577
 20
23.15504465381559
  0
LWPOLYLINE
  5
49E
330
1F
100
AcDbEntity
  8
DETAILS
  6
Continuous
 62
     7
370
    25
100
AcDbPolyline
 90
        3
 70
     1
 43
0.0
 10
31.06800802548577
 20
22.7881345761667
 10
31.06800802548577
 20
23.15504465381559
 10
31.09280203926876
 20
22.87527649567646
  0
LWPOLYLINE
  5
49F
330
1F
100
AcDbEntity
  8
DETAILS
  6
Continuous
 62
     7
370
    25
100
AcDbPolyline
 90
        3
 70
     1
 43
0.0
 10
31.09280203926876
 20
22.87527649567646
 10
31.06800802548577
 20
23.15504465381559
 10
31.09280203926876
 20
23.07318879324479
  0
LWPOLYLINE
  5
4A0
330
1F
100
AcDbEntity
  8
DETAILS
  6
Continuous
 62
     7
370
    25
100
AcDbPolyline
 90
        3
 70
     1
 43
0.0
 10
31.09280203926876
 20
22.87527649567646
 10
31.09280203926876
 20
23.07318879324479
 10
31.09389622765217
 20
22.87912216894543
  0
LWPOLYLINE
  5
4A1
330
1F
100
AcDbEntity
  8
DETAILS
  6
Continuous
 62
     7
370
    25
100
AcDbPolyline
 90
        3
 70
     1
 43
0.0
 10
31.09389622765217
 20
22.87912216894543
 10
31.09280203926876
 20
23.07318879324479
 10
31.09389622765217
 20
23.06206370610361
  0
LWPOLYLINE
  5
4A2
330
1F
100
AcDbEntity
  8
DETAILS
  6
Continuous
 62
     7
370
    25
100
AcDbPolyline
 90
        3
 70
     1
 43
0.0
 10
31.09389622765217
 20
22.87912216894543
 10
31.09389622765217
 20
23.06206370610361
 10
31.10262470768054
 20
22.97331746971713
  0
LINE
  5
4A3
330
1F
100
AcDbEntity
  8
DETAILS
  6
Continuous
 62
     7
370
    25
100
AcDbLine
 10
25.09830689138579
 20
25.67973902874518
 30
0.0
 11
26.77499218961179
 21
16.23236471924474
 31
0.0
  0
LINE
  5
4A4
330
1F
100
AcDbEntity
  8
DETAILS
  6
Continuous
 62
     7
370
    25
100
AcDbLine
 10
25.4059986462974
 20
25.73434703144994
 30
0.0
 11
27.13156044940717
 21
16.01157540256826
 31
0.0
  0
ARC
  5
4A5
330
1F
100
AcDbEntity
  8
DETAILS
  6
Continuous
 62
     7
370
    25
100
AcDbCircle
 10
24.72444617180656
 20
25.42561674420676
 30
0.0
 40
0.7482166569556485
100
AcDbArc
 50
24.369620726404
 51
313.522234039154
  0
ARC
  5
4A6
330
1F
100
AcDbEntity
  8
DETAILS
  6
Continuous
 62
     7
370
    25
100
AcDbCircle
 10
24.7084960335024
 20
25.42687334215315
 30
0.0
 40
0.4646434766349823
100
AcDbArc
 50
32.97099712672155
 51
347.2998214714447
  0
CIRCLE
  5
4A7
330
1F
100
AcDbEntity
  8
DETAILS
  6
Continuous
 62
     7
370
    25
100
AcDbCircle
 10
24.7084960335024
 20
25.42687334215315
 30
0.0
 40
0.4646434766349223
  0
ARC
  5
4A8
330
1F
100
AcDbEntity
  8
DETAILS
  6
Continuous
 62
     7
370
    25
100
AcDbCircle
 10
27.66602137102307
 20
16.43816725234955
 30
0.0
 40
0.6838341049072795
100
AcDbArc
 50
218.5958944599498
 51
312.1705214516563
  0
ARC
  5
4A9
330
1F
100
AcDbEntity
  8
DETAILS
  6
Continuous
 62
     7
370
    25
100
AcDbCircle
 10
30.58999587528421
 20
22.97331746971713
 30
0.0
 40
0.8481485543630017
100
AcDbArc
 50
218.6147308783432
 51
159.8825013118055
  0
ARC
  5
4AA
330
1F
100
AcDbEntity
  8
DETAILS
  6
Continuous
 62
     7
370
    25
100
AcDbCircle
 10
30.60009341867402
 20
22.93996478025293
 30
0.0
 40
0.5460540586079675
100
AcDbArc
 50
167.8395758170526
 51
166.526052391466
  0
CIRCLE
  5
4AB
330
1F
100
AcDbEntity
  8
DETAILS
  6
Continuous
 62
     7
370
    25
100
AcDbCircle
 10
30.58999587528421
 20
22.97331746971713
 30
0.0
 40
0.5126288323963308
  0
LINE
  5
4AC
330
1F
100
AcDbEntity
  8
DETAILS
  6
Continuous
 62
     7
370
    25
100
AcDbLine
 10
29.71933895505566
 20
21.52998916096976
 30
0.0
 11
32.5850729920416
 21
20.23053225036483
 31
0.0
  0
LINE
  5
4AD
330
1F
100
AcDbEntity
  8
DETAILS
  6
Continuous
 62
     7
370
    25
100
AcDbLine
 10
30.06906896973214
 20
23.06719712498852
 30
0.0
 11
28.4561492434579
 21
15.97774828015008
 31
0.0
  0
LINE
  5
4AE
330
1F
100
AcDbEntity
  8
DETAILS
  6
Continuous
 62
     7
370
    25
100
AcDbLine
 10
32.5850729920416
 20
20.23053225036483
 30
0.0
 11
32.5850729920416
 21
24.36183531442111
 31
0.0
  0
LINE
  5
4AF
330
1F
100
AcDbEntity
  8
DETAILS
  6
Continuous
 62
     7
370
    25
100
AcDbLine
 10
31.77406532713075
 20
19.86293082478414
 30
0.0
 11
32.5850729920416
 21
20.23053225036483
 31
0.0
  0
LINE
  5
4B0
330
1F
100
AcDbEntity
  8
DETAILS
  6
Continuous
 62
     7
370
    25
100
AcDbLine
 10
39.29862282367025
 20
13.80889503698836
 30
0.0
 11
38.54833790826813
 21
14.14910906440991
 31
0.0
  0
LINE
  5
4B1
330
1F
100
AcDbEntity
  8
DETAILS
  6
Continuous
 62
     7
370
    25
100
AcDbLine
 10
40.66138644640625
 20
15.8327495622043
 30
0.0
 11
38.54833790826819
 21
16.79088876638297
 31
0.0
  0
LINE
  5
4B2
330
1F
100
AcDbEntity
  8
DETAILS
  6
Continuous
 62
     7
370
    25
100
AcDbLine
 10
40.66138644640625
 20
14.42678593990058
 30
0.0
 11
38.54833790826825
 21
15.3849805566756
 31
0.0
  0
LINE
  5
4B3
330
1F
100
AcDbEntity
  8
DETAILS
  6
Continuous
 62
     7
370
    25
100
AcDbLine
 10
40.10938645192624
 20
23.34213130529224
 30
0.0
 11
40.10938645192624
 21
16.08304804133149
 31
0.0
  0
LINE
  5
4B4
330
1F
100
AcDbEntity
  8
DETAILS
  6
Continuous
 62
     7
370
    25
100
AcDbLine
 10
40.66138644640625
 20
23.59216766642839
 30
0.0
 11
40.66138644640625
 21
24.99813128873256
 31
0.0
  0
LINE
  5
4B5
330
1F
100
AcDbEntity
  8
DETAILS
  6
Continuous
 62
     7
370
    25
100
AcDbLine
 10
40.66138644640625
 20
23.59216766642839
 30
0.0
 11
40.10938645192624
 21
23.34213130529224
 31
0.0
  0
LINE
  5
4B6
330
1F
100
AcDbEntity
  8
DETAILS
  6
Continuous
 62
     7
370
    25
100
AcDbLine
 10
40.66138644640625
 20
14.42678593990058
 30
0.0
 11
39.29862282367025
 21
13.80889503698836
 31
0.0
  0
LINE
  5
4B7
330
1F
100
AcDbEntity
  8
DETAILS
  6
Continuous
 62
     7
370
    25
100
AcDbLine
 10
40.66138644640625
 20
14.42678593990058
 30
0.0
 11
40.66138644640625
 21
15.8327495622043
 31
0.0
  0
LINE
  5
4B8
330
1F
100
AcDbEntity
  8
DETAILS
  6
Continuous
 62
     7
370
    25
100
AcDbLine
 10
52.80919607787343
 20
52.76290703978293
 30
0.0
 11
52.80919607787343
 21
-0.0000015234968487
 31
0.0
  0
TEXT
  5
4B9
330
1F
100
AcDbEntity
  8
DETAILS
 62
     7
370
    25
100
AcDbText
 10
1.988647684830539
 20
14.72087976439794
 30
0.0
 40
1.2
  1
U-type hanger 
  7
Arial
 11
1.988647684830539
 21
15.92087976439794
 31
0.0
100
AcDbText
 73
     3
  0
TEXT
  5
4BA
330
1F
100
AcDbEntity
  8
DETAILS
 62
     7
370
    25
100
AcDbText
 10
1.988647684830539
 20
12.83087976439794
 30
0.0
 40
1.2
  1
per NFPA 13
  7
Arial
 11
1.988647684830539
 21
14.03087976439794
 31
0.0
100
AcDbText
 73
     3
  0
TEXT
  5
4BB
330
1F
100
AcDbEntity
  8
DETAILS
 62
     7
370
    25
100
AcDbText
 10
5.853482065149647
 20
46.7829632853549
 30
0.0
 40
1.19
  1
Assembly Capacity 240 lbs.
  7
Arial
 11
5.853482065149647
 21
46.43083146717309
 31
0.0
100
AcDbText
 73
     1
  0
TEXT
  5
4BC
330
1F
100
AcDbEntity
  8
DETAILS
 62
     7
370
    25
100
AcDbText
 10
1.930325088964934
 20
0.7158957568969031
 30
0.0
 40
1.2
  1
Verify hanger capacity with manufacturer.
  7
Arial
 11
1.930325088964934
 21
0.360804847805994
 31
0.0
100
AcDbText
 73
     1
  0
TEXT
  5
4BD
330
1F
100
AcDbEntity
  8
DETAILS
 62
     7
370
    25
100
AcDbText
 10
5.741514729049923
 20
49.69075234996309
 30
0.0
 40
1.75
  1
SPRINKLER SUPPORT
  7
Arial
 11
5.741514729049923
 21
49.17291144087218
 31
0.0
100
AcDbText
 73
     1
  0
TEXT
  5
4BE
330
1F
100
AcDbEntity
  8
DETAILS
 62
     7
370
    25
100
AcDbText
 10
1.347836843212803
 20
49.73350123068379
 30
0.0
 40
1.7
  1
S4
  7
Arial
 11
1.347836843212803
 21
49.23045577613833
 31
0.0
100
AcDbText
 73
     1
  0
TEXT
  5
4BF
330
1F
100
AcDbEntity
  8
DETAILS
 62
     7
370
    25
100
AcDbText
 10
37.39784151494825
 20
9.613001473835038
 30
0.0
 40
1.2
  1
1/8" minimal gap 
  7
Arial
 11
37.39784151494825
 21
10.81300147383504
 31
0.0
100
AcDbText
 73
     3
  0
TEXT
  5
4C0
330
1F
100
AcDbEntity
  8
DETAILS
 62
     7
370
    25
100
AcDbText
 10
35.97284151494826
 20
7.72300147383504
 30
0.0
 40
1.2
  1
between block and 
  7
Arial
 11
35.97284151494826
 21
8.92300147383504
 31
0.0
100
AcDbText
 73
     3
  0
TEXT
  5
4C1
330
1F
100
AcDbEntity
  8
DETAILS
 62
     7
370
    25
100
AcDbText
 10
45.49784151494826
 20
5.833001473835038
 30
0.0
 40
1.2
  1
flange
  7
Arial
 11
45.49784151494826
 21
7.033001473835038
 31
0.0
100
AcDbText
 73
     3
  0
TEXT
  5
4C2
330
1F
100
AcDbEntity
  8
DETAILS
 62
     7
370
    25
100
AcDbText
 10
35.12499802295206
 20
39.30492537613731
 30
0.0
 40
1.2
  1
2x6 block requires two 
  7
Arial
 11
35.12499802295206
 21
40.50492537613732
 31
0.0
100
AcDbText
 73
     3
  0
TEXT
  5
4C3
330
1F
100
AcDbEntity
  8
DETAILS
 62
     7
370
    25
100
AcDbText
 10
35.44374802295206
 20
37.41492537613731
 30
0.0
 40
1.2
  1
1/2" A307 bolts bolted 
  7
Arial
 11
35.44374802295206
 21
38.61492537613731
 31
0.0
100
AcDbText
 73
     3
  0
TEXT
  5
4C4
330
1F
100
AcDbEntity
  8
DETAILS
 62
     7
370
    25
100
AcDbText
 10
42.81249802295206
 20
35.52492537613731
 30
0.0
 40
1.2
  1
through web
  7
Arial
 11
42.81249802295206
 21
36.72492537613731
 31
0.0
100
AcDbText
 73
     3
  0
INSERT
  5
4C5
330
1F
100
AcDbEntity
  8
DETAILS
  6
ByBlock
 62
     7
100
AcDbBlockReference
  2
HATCH_0_2bc8ec10-bad6-4b8f-afbd-812fa5bd20f2
 10
0.0
 20
0.0
 30
0.0
  0
INSERT
  5
4C6
330
1F
100
AcDbEntity
  8
DETAILS
  6
ByBlock
 62
     7
100
AcDbBlockReference
  2
HATCH_1_55938628-93f0-4121-ac46-caa6d02e3813
 10
0.0
 20
0.0
 30
0.0
  0
INSERT
  5
4C7
330
1F
100
AcDbEntity
  8
DETAILS
  6
ByBlock
 62
     7
100
AcDbBlockReference
  2
HATCH_2_bbdb0185-2b8d-4096-85d8-39d9fe06b245
 10
0.0
 20
0.0
 30
0.0
  0
INSERT
  5
4C8
330
1F
100
AcDbEntity
  8
DETAILS
  6
ByBlock
 62
     7
100
AcDbBlockReference
  2
HATCH_3_b6c7c1cb-8d87-4590-ae49-067bf5a64369
 10
0.0
 20
0.0
 30
0.0
  0
INSERT
  5
4C9
330
1F
100
AcDbEntity
  8
DETAILS
  6
ByBlock
 62
     7
100
AcDbBlockReference
  2
HATCH_4_83b21e66-10ed-4f94-94cf-67bfddb987e9
 10
0.0
 20
0.0
 30
0.0
  0
INSERT
  5
4CA
330
1F
100
AcDbEntity
  8
DETAILS
  6
ByBlock
 62
     7
100
AcDbBlockReference
  2
HATCH_5_d0829f09-ece8-4aea-b996-1a300df12525
 10
0.0
 20
0.0
 30
0.0
  0
INSERT
  5
4CB
330
1F
100
AcDbEntity
  8
DETAILS
  6
ByBlock
 62
     7
100
AcDbBlockReference
  2
HATCH_6_2aa3ed64-0f26-4341-a040-f7acf2047b09
 10
0.0
 20
0.0
 30
0.0
  0
INSERT
  5
4CC
330
1F
100
AcDbEntity
  8
DETAILS
  6
ByBlock
 62
     7
100
AcDbBlockReference
  2
HATCH_7_5711bd67-b479-4fad-b9b5-fc28fc303533
 10
0.0
 20
0.0
 30
0.0
  0
INSERT
  5
4CD
330
1F
100
AcDbEntity
  8
DETAILS
  6
ByBlock
 62
     7
100
AcDbBlockReference
  2
HATCH_8_8bd2b7af-9375-4cdb-ae66-ca043efe4719
 10
0.0
 20
0.0
 30
0.0
  0
INSERT
  5
4CE
330
1F
100
AcDbEntity
  8
DETAILS
  6
ByBlock
 62
     7
100
AcDbBlockReference
  2
HATCH_9_2709e6cd-9ee5-47ed-be63-d943a214a591
 10
0.0
 20
0.0
 30
0.0
  0
INSERT
  5
4CF
330
1F
100
AcDbEntity
  8
DETAILS
  6
ByBlock
 62
     7
100
AcDbBlockReference
  2
HATCH_10_d6d8bf6a-4801-4666-ae99-fe0f5a50a9e5
 10
0.0
 20
0.0
 30
0.0
  0
INSERT
  5
4D0
330
1F
100
AcDbEntity
  8
DETAILS
  6
ByBlock
 62
     7
100
AcDbBlockReference
  2
HATCH_11_8ca21b84-3c3c-4456-bd85-27648f7f0847
 10
0.0
 20
0.0
 30
0.0
  0
INSERT
  5
4D1
330
1F
100
AcDbEntity
  8
DETAILS
  6
ByBlock
 62
     7
100
AcDbBlockReference
  2
HATCH_12_44349197-a959-4560-8651-60c8a3d4a60e
 10
0.0
 20
0.0
 30
0.0
  0
INSERT
  5
4D2
330
1F
100
AcDbEntity
  8
DETAILS
  6
ByBlock
 62
     7
100
AcDbBlockReference
  2
HATCH_13_ed72c06a-901f-4945-b1a3-a3c8dfa87224
 10
0.0
 20
0.0
 30
0.0
  0
INSERT
  5
4D3
330
1F
100
AcDbEntity
  8
DETAILS
  6
ByBlock
 62
     7
100
AcDbBlockReference
  2
HATCH_14_7e24068e-070a-4144-91b6-34b9a225e2ef
 10
0.0
 20
0.0
 30
0.0
  0
INSERT
  5
4D4
330
1F
100
AcDbEntity
  8
DETAILS
  6
ByBlock
 62
     7
100
AcDbBlockReference
  2
HATCH_15_4d2c0f4d-7c62-41ca-8dff-9e54ecb71802
 10
0.0
 20
0.0
 30
0.0
  0
INSERT
  5
4D5
330
1F
100
AcDbEntity
  8
DETAILS
  6
ByBlock
 62
     7
100
AcDbBlockReference
  2
HATCH_16_27679e06-2258-4ea8-9f5c-6bfaeabb4d18
 10
0.0
 20
0.0
 30
0.0
  0
INSERT
  5
4D6
330
1F
100
AcDbEntity
  8
DETAILS
  6
ByBlock
 62
     7
100
AcDbBlockReference
  2
HATCH_17_46d5e9be-c21f-41ff-95ff-56102f5f4811
 10
0.0
 20
0.0
 30
0.0
  0
INSERT
  5
4D7
330
1F
100
AcDbEntity
  8
DETAILS
  6
ByBlock
 62
     7
100
AcDbBlockReference
  2
HATCH_18_f1e92403-a697-4c6b-8fd9-09cd73fd86dc
 10
0.0
 20
0.0
 30
0.0
  0
INSERT
  5
4D8
330
1F
100
AcDbEntity
  8
DETAILS
  6
ByBlock
 62
     7
100
AcDbBlockReference
  2
HATCH_19_6966ddc1-c456-46a2-8637-e7e41e4251a3
 10
0.0
 20
0.0
 30
0.0
  0
INSERT
  5
4D9
330
1F
100
AcDbEntity
  8
DETAILS
  6
ByBlock
 62
     7
100
AcDbBlockReference
  2
HATCH_20_f68266b0-5e05-49af-84a9-ed93fd2ba127
 10
0.0
 20
0.0
 30
0.0
  0
INSERT
  5
4DA
330
1F
100
AcDbEntity
  8
DETAILS
  6
ByBlock
 62
     7
100
AcDbBlockReference
  2
HATCH_21_dfa6373a-66f6-4634-aa39-c86206445a3a
 10
0.0
 20
0.0
 30
0.0
  0
INSERT
  5
4DB
330
1F
100
AcDbEntity
  8
DETAILS
  6
ByBlock
 62
     7
100
AcDbBlockReference
  2
HATCH_22_45455eb1-4932-4cfd-809e-c372431f6db2
 10
0.0
 20
0.0
 30
0.0
  0
INSERT
  5
4DC
330
1F
100
AcDbEntity
  8
DETAILS
  6
ByBlock
 62
     7
100
AcDbBlockReference
  2
HATCH_23_07e0b9d8-49a4-40be-b070-17301b9509f4
 10
0.0
 20
0.0
 30
0.0
  0
INSERT
  5
4DD
330
1F
100
AcDbEntity
  8
DETAILS
  6
ByBlock
 62
     7
100
AcDbBlockReference
  2
HATCH_24_d0f6c7ce-1edf-475a-b413-d660277fb5ad
 10
0.0
 20
0.0
 30
0.0
  0
INSERT
  5
4DE
330
1F
100
AcDbEntity
  8
DETAILS
  6
ByBlock
 62
     7
100
AcDbBlockReference
  2
HATCH_25_d8102b81-6ec7-4d79-8451-9b8271d5d9d9
 10
0.0
 20
0.0
 30
0.0
  0
INSERT
  5
4DF
330
1F
100
AcDbEntity
  8
DETAILS
  6
ByBlock
 62
     7
100
AcDbBlockReference
  2
HATCH_26_c410b888-c0a3-483f-9d2c-2e10dd44e493
 10
0.0
 20
0.0
 30
0.0
  0
INSERT
  5
4E0
330
1F
100
AcDbEntity
  8
DETAILS
  6
ByBlock
 62
     7
100
AcDbBlockReference
  2
HATCH_27_10c6a9aa-5ff5-4e73-b580-fbb9ff7029b0
 10
0.0
 20
0.0
 30
0.0
  0
INSERT
  5
4E1
330
1F
100
AcDbEntity
  8
DETAILS
  6
ByBlock
 62
     7
100
AcDbBlockReference
  2
HATCH_28_0cc61b06-c00a-4e14-a093-6c94371b24e1
 10
0.0
 20
0.0
 30
0.0
  0
INSERT
  5
4E2
330
1F
100
AcDbEntity
  8
DETAILS
  6
ByBlock
 62
     7
100
AcDbBlockReference
  2
HATCH_29_83bcbb75-9b79-4ea4-bc9c-517866d73fba
 10
0.0
 20
0.0
 30
0.0
  0
INSERT
  5
4E3
330
1F
100
AcDbEntity
  8
DETAILS
  6
ByBlock
 62
     7
100
AcDbBlockReference
  2
HATCH_30_e626efbc-84b1-4969-8004-e3f911c9b118
 10
0.0
 20
0.0
 30
0.0
  0
INSERT
  5
4E4
330
1F
100
AcDbEntity
  8
DETAILS
  6
ByBlock
 62
     7
100
AcDbBlockReference
  2
HATCH_31_a7bef6ec-21c1-446e-9569-88c013246249
 10
0.0
 20
0.0
 30
0.0
  0
INSERT
  5
4E5
330
1F
100
AcDbEntity
  8
DETAILS
  6
ByBlock
 62
     7
100
AcDbBlockReference
  2
HATCH_32_57765251-38b8-4971-a249-82447926517f
 10
0.0
 20
0.0
 30
0.0
  0
INSERT
  5
4E6
330
1F
100
AcDbEntity
  8
DETAILS
  6
ByBlock
 62
     7
100
AcDbBlockReference
  2
HATCH_33_a8dadb9e-582b-414b-b125-8739c9d7d1b5
 10
0.0
 20
0.0
 30
0.0
  0
INSERT
  5
4E7
330
1F
100
AcDbEntity
  8
DETAILS
  6
ByBlock
 62
     7
100
AcDbBlockReference
  2
HATCH_34_aca81093-377d-4b30-919e-a2a3db20307d
 10
0.0
 20
0.0
 30
0.0
  0
INSERT
  5
4E8
330
1F
100
AcDbEntity
  8
DETAILS
  6
ByBlock
 62
     7
100
AcDbBlockReference
  2
HATCH_35_f159c134-ae2d-4f78-a605-fa27445b48bc
 10
0.0
 20
0.0
 30
0.0
  0
INSERT
  5
4E9
330
1F
100
AcDbEntity
  8
DETAILS
  6
ByBlock
 62
     7
100
AcDbBlockReference
  2
HATCH_36_3905081a-c08c-43c8-b825-2beca5d175c3
 10
0.0
 20
0.0
 30
0.0
  0
INSERT
  5
4EA
330
1F
100
AcDbEntity
  8
DETAILS
  6
ByBlock
 62
     7
100
AcDbBlockReference
  2
HATCH_37_87684754-87fe-42a9-b7ca-0dff58a8a03d
 10
0.0
 20
0.0
 30
0.0
  0
INSERT
  5
4EB
330
1F
100
AcDbEntity
  8
DETAILS
  6
ByBlock
 62
     7
100
AcDbBlockReference
  2
HATCH_38_1e007088-e78d-4a66-a86b-61ce5f9e0f6d
 10
0.0
 20
0.0
 30
0.0
  0
INSERT
  5
4EC
330
1F
100
AcDbEntity
  8
DETAILS
  6
ByBlock
 62
     7
100
AcDbBlockReference
  2
HATCH_39_020f05f1-1cb9-4918-b1b2-a0d3d75b4ff9
 10
0.0
 20
0.0
 30
0.0
  0
INSERT
  5
4ED
330
1F
100
AcDbEntity
  8
DETAILS
  6
ByBlock
 62
     7
100
AcDbBlockReference
  2
HATCH_40_1018c459-7748-4b5f-af25-dc883833b37a
 10
0.0
 20
0.0
 30
0.0
  0
INSERT
  5
4EE
330
1F
100
AcDbEntity
  8
DETAILS
  6
ByBlock
 62
     7
100
AcDbBlockReference
  2
HATCH_41_9f96fc6b-02cd-4205-a600-82e7922f42ca
 10
0.0
 20
0.0
 30
0.0
  0
INSERT
  5
4EF
330
1F
100
AcDbEntity
  8
DETAILS
  6
ByBlock
 62
     7
100
AcDbBlockReference
  2
HATCH_42_4fd43c68-66cf-499c-97c3-1c6080e493b7
 10
0.0
 20
0.0
 30
0.0
  0
INSERT
  5
4F0
330
1F
100
AcDbEntity
  8
DETAILS
  6
ByBlock
 62
     7
100
AcDbBlockReference
  2
HATCH_43_7887b016-3e90-48c4-8878-50414d511dc0
 10
0.0
 20
0.0
 30
0.0
  0
INSERT
  5
4F1
330
1F
100
AcDbEntity
  8
DETAILS
  6
ByBlock
 62
     7
100
AcDbBlockReference
  2
HATCH_44_13d0c749-7cea-42ab-8fdf-b55a3a9a6155
 10
0.0
 20
0.0
 30
0.0
  0
INSERT
  5
4F2
330
1F
100
AcDbEntity
  8
DETAILS
  6
ByBlock
 62
     7
100
AcDbBlockReference
  2
HATCH_45_c75e4b08-944a-41fb-ae07-81480b97f83e
 10
0.0
 20
0.0
 30
0.0
  0
INSERT
  5
4F3
330
1F
100
AcDbEntity
  8
DETAILS
  6
ByBlock
 62
     7
100
AcDbBlockReference
  2
HATCH_46_7a78a7f9-80ae-444e-b297-b155afdb91e6
 10
0.0
 20
0.0
 30
0.0
  0
INSERT
  5
4F4
330
1F
100
AcDbEntity
  8
DETAILS
  6
ByBlock
 62
     7
100
AcDbBlockReference
  2
HATCH_47_1a35440e-c0b1-4ff3-9dab-9ea5378efdc2
 10
0.0
 20
0.0
 30
0.0
  0
INSERT
  5
4F5
330
1F
100
AcDbEntity
  8
DETAILS
  6
ByBlock
 62
     7
100
AcDbBlockReference
  2
HATCH_48_965455bd-4e1d-46ab-9ce1-40c4c93dea1c
 10
0.0
 20
0.0
 30
0.0
  0
INSERT
  5
4F6
330
1F
100
AcDbEntity
  8
DETAILS
  6
ByBlock
 62
     7
100
AcDbBlockReference
  2
HATCH_49_51e5e662-a60e-4225-b80a-b593f6eda79b
 10
0.0
 20
0.0
 30
0.0
  0
INSERT
  5
4F7
330
1F
100
AcDbEntity
  8
DETAILS
  6
ByBlock
 62
     7
100
AcDbBlockReference
  2
HATCH_50_6fa1ed1d-f7ba-43d9-ab05-90b0360bee6b
 10
0.0
 20
0.0
 30
0.0
  0
INSERT
  5
4F8
330
1F
100
AcDbEntity
  8
DETAILS
  6
ByBlock
 62
     7
100
AcDbBlockReference
  2
HATCH_51_2cc71294-63b0-4544-8484-8c82187acd7c
 10
0.0
 20
0.0
 30
0.0
  0
INSERT
  5
4F9
330
1F
100
AcDbEntity
  8
DETAILS
  6
ByBlock
 62
     7
100
AcDbBlockReference
  2
HATCH_52_d35ce6de-3ed9-47e2-9c6c-53379d80518f
 10
0.0
 20
0.0
 30
0.0
  0
INSERT
  5
4FA
330
1F
100
AcDbEntity
  8
DETAILS
  6
ByBlock
 62
     7
100
AcDbBlockReference
  2
HATCH_53_91542d26-dee2-4153-8894-ce8eb177d510
 10
0.0
 20
0.0
 30
0.0
  0
INSERT
  5
4FB
330
1F
100
AcDbEntity
  8
DETAILS
  6
ByBlock
 62
     7
100
AcDbBlockReference
  2
HATCH_54_abc9fdc2-4335-482a-84b7-2697f76d8c62
 10
0.0
 20
0.0
 30
0.0
  0
INSERT
  5
4FC
330
1F
100
AcDbEntity
  8
DETAILS
  6
ByBlock
 62
     7
100
AcDbBlockReference
  2
HATCH_55_9128fe36-419a-4028-96dc-fdf570548cc1
 10
0.0
 20
0.0
 30
0.0
  0
INSERT
  5
4FD
330
1F
100
AcDbEntity
  8
DETAILS
  6
ByBlock
 62
     7
100
AcDbBlockReference
  2
HATCH_56_f09c5711-8c95-4c16-9e6c-903897ba71ca
 10
0.0
 20
0.0
 30
0.0
  0
INSERT
  5
4FE
330
1F
100
AcDbEntity
  8
DETAILS
  6
ByBlock
 62
     7
100
AcDbBlockReference
  2
HATCH_57_0ce53450-da1e-4bcb-9f07-012b994ed1d2
 10
0.0
 20
0.0
 30
0.0
  0
INSERT
  5
4FF
330
1F
100
AcDbEntity
  8
DETAILS
  6
ByBlock
 62
     7
100
AcDbBlockReference
  2
HATCH_58_c8826ae9-e9fa-4031-b967-3bf97c4da2f6
 10
0.0
 20
0.0
 30
0.0
  0
INSERT
  5
500
330
1F
100
AcDbEntity
  8
DETAILS
  6
ByBlock
 62
     7
100
AcDbBlockReference
  2
HATCH_59_accd9868-847e-45f8-bcf6-4bc9e04b2cc3
 10
0.0
 20
0.0
 30
0.0
  0
INSERT
  5
501
330
1F
100
AcDbEntity
  8
DETAILS
  6
ByBlock
 62
     7
100
AcDbBlockReference
  2
HATCH_60_2e13bc97-5eb3-43f3-81cb-39f6e95ff6ec
 10
0.0
 20
0.0
 30
0.0
  0
INSERT
  5
502
330
1F
100
AcDbEntity
  8
DETAILS
  6
ByBlock
 62
     7
100
AcDbBlockReference
  2
HATCH_61_bed00d27-bec8-402d-9766-066c6800e2e3
 10
0.0
 20
0.0
 30
0.0
  0
INSERT
  5
503
330
1F
100
AcDbEntity
  8
DETAILS
  6
ByBlock
 62
     7
100
AcDbBlockReference
  2
HATCH_62_ef1d7913-cb92-461b-94c2-6c004d62497a
 10
0.0
 20
0.0
 30
0.0
  0
INSERT
  5
504
330
1F
100
AcDbEntity
  8
DETAILS
  6
ByBlock
 62
     7
100
AcDbBlockReference
  2
HATCH_63_608ccc6b-d671-460b-bba3-3c243f1461da
 10
0.0
 20
0.0
 30
0.0
  0
INSERT
  5
505
330
1F
100
AcDbEntity
  8
DETAILS
  6
ByBlock
 62
     7
100
AcDbBlockReference
  2
HATCH_64_02a9b9dd-7e15-44f0-b65e-556ab9bccdf4
 10
0.0
 20
0.0
 30
0.0
  0
INSERT
  5
506
330
1F
100
AcDbEntity
  8
DETAILS
  6
ByBlock
 62
     7
100
AcDbBlockReference
  2
HATCH_65_702c4496-a382-4516-80e1-d49bae1fa385
 10
0.0
 20
0.0
 30
0.0
  0
INSERT
  5
507
330
1F
100
AcDbEntity
  8
DETAILS
  6
ByBlock
 62
     7
100
AcDbBlockReference
  2
HATCH_66_76704473-6fa7-411b-b0e4-d3ceab635c6f
 10
0.0
 20
0.0
 30
0.0
  0
INSERT
  5
508
330
1F
100
AcDbEntity
  8
DETAILS
  6
ByBlock
 62
     7
100
AcDbBlockReference
  2
HATCH_67_0465c402-7234-4c79-988d-282a45b76159
 10
0.0
 20
0.0
 30
0.0
  0
INSERT
  5
509
330
1F
100
AcDbEntity
  8
DETAILS
  6
ByBlock
 62
     7
100
AcDbBlockReference
  2
HATCH_68_6674e7b5-b709-440a-a9e4-b037259c76ce
 10
0.0
 20
0.0
 30
0.0
  0
INSERT
  5
50A
330
1F
100
AcDbEntity
  8
DETAILS
  6
ByBlock
 62
     7
100
AcDbBlockReference
  2
HATCH_69_97deb99b-e597-4106-8826-40612c7cbce2
 10
0.0
 20
0.0
 30
0.0
  0
INSERT
  5
50B
330
1F
100
AcDbEntity
  8
DETAILS
  6
ByBlock
 62
     7
100
AcDbBlockReference
  2
HATCH_70_8454edd0-4c27-4899-b79b-c962d6ef1bd8
 10
0.0
 20
0.0
 30
0.0
  0
INSERT
  5
50C
330
1F
100
AcDbEntity
  8
DETAILS
  6
ByBlock
 62
     7
100
AcDbBlockReference
  2
HATCH_71_b7689de2-86d1-4af6-841b-baeb6af8ed2d
 10
0.0
 20
0.0
 30
0.0
  0
INSERT
  5
50D
330
1F
100
AcDbEntity
  8
DETAILS
  6
ByBlock
 62
     7
100
AcDbBlockReference
  2
HATCH_72_ce54eb2c-90bb-4af1-9912-a2857475247b
 10
0.0
 20
0.0
 30
0.0
  0
INSERT
  5
50E
330
1F
100
AcDbEntity
  8
DETAILS
  6
ByBlock
 62
     7
100
AcDbBlockReference
  2
HATCH_73_41fea209-6958-4265-85ae-a62d4210ce08
 10
0.0
 20
0.0
 30
0.0
  0
INSERT
  5
50F
330
1F
100
AcDbEntity
  8
DETAILS
  6
ByBlock
 62
     7
100
AcDbBlockReference
  2
HATCH_74_8974ac50-19ad-491a-8663-62bd9f7f06ec
 10
0.0
 20
0.0
 30
0.0
  0
INSERT
  5
510
330
1F
100
AcDbEntity
  8
DETAILS
  6
ByBlock
 62
     7
100
AcDbBlockReference
  2
HATCH_75_2ea95685-4934-400f-9b2f-bdd81f1ed8d1
 10
0.0
 20
0.0
 30
0.0
  0
INSERT
  5
511
330
1F
100
AcDbEntity
  8
DETAILS
  6
ByBlock
 62
     7
100
AcDbBlockReference
  2
HATCH_76_745bb88e-1d31-4256-ad35-d74ff70481fa
 10
0.0
 20
0.0
 30
0.0
  0
INSERT
  5
512
330
1F
100
AcDbEntity
  8
DETAILS
  6
ByBlock
 62
     7
100
AcDbBlockReference
  2
HATCH_77_5fd7e987-4c2f-4bbc-89b8-564d57496dff
 10
0.0
 20
0.0
 30
0.0
  0
INSERT
  5
513
330
1F
100
AcDbEntity
  8
DETAILS
  6
ByBlock
 62
     7
100
AcDbBlockReference
  2
HATCH_78_f6a343ee-9bcc-4d58-96b3-8e0b21ee504f
 10
0.0
 20
0.0
 30
0.0
  0
INSERT
  5
514
330
1F
100
AcDbEntity
  8
DETAILS
  6
ByBlock
 62
     7
100
AcDbBlockReference
  2
HATCH_79_df3ed753-2bc5-46bd-9fd8-87bc4c50e1d8
 10
0.0
 20
0.0
 30
0.0
  0
INSERT
  5
515
330
1F
100
AcDbEntity
  8
DETAILS
  6
ByBlock
 62
     7
100
AcDbBlockReference
  2
HATCH_80_30d97a78-a483-4565-853f-ff7fc53d90f0
 10
0.0
 20
0.0
 30
0.0
  0
INSERT
  5
516
330
1F
100
AcDbEntity
  8
DETAILS
  6
ByBlock
 62
     7
100
AcDbBlockReference
  2
HATCH_81_c60d4bae-b74c-4281-a731-99db6f207fb4
 10
0.0
 20
0.0
 30
0.0
  0
INSERT
  5
517
330
1F
100
AcDbEntity
  8
DETAILS
  6
ByBlock
 62
     7
100
AcDbBlockReference
  2
HATCH_82_9ece6eba-58c8-471a-8e52-122c292a0081
 10
0.0
 20
0.0
 30
0.0
  0
INSERT
  5
518
330
1F
100
AcDbEntity
  8
DETAILS
  6
ByBlock
 62
     7
100
AcDbBlockReference
  2
HATCH_83_98d13a04-5b13-4a0c-b86b-5fff0553727b
 10
0.0
 20
0.0
 30
0.0
  0
INSERT
  5
519
330
1F
100
AcDbEntity
  8
DETAILS
  6
ByBlock
 62
     7
100
AcDbBlockReference
  2
HATCH_84_e7e46161-6933-4d7a-bad0-f28c51add83b
 10
0.0
 20
0.0
 30
0.0
  0
INSERT
  5
51A
330
1F
100
AcDbEntity
  8
DETAILS
  6
ByBlock
 62
     7
100
AcDbBlockReference
  2
HATCH_85_dc5acb94-ef9e-4566-a4c8-e8f7e09842ff
 10
0.0
 20
0.0
 30
0.0
  0
INSERT
  5
51B
330
1F
100
AcDbEntity
  8
DETAILS
  6
ByBlock
 62
     7
100
AcDbBlockReference
  2
HATCH_86_615ec308-5c4d-4b6a-8009-12b1caa2e9a5
 10
0.0
 20
0.0
 30
0.0
  0
INSERT
  5
51C
330
1F
100
AcDbEntity
  8
DETAILS
  6
ByBlock
 62
     7
100
AcDbBlockReference
  2
HATCH_87_1c5e0d28-997d-4974-8473-efed28b6be2b
 10
0.0
 20
0.0
 30
0.0
  0
INSERT
  5
51D
330
1F
100
AcDbEntity
  8
DETAILS
  6
ByBlock
 62
     7
100
AcDbBlockReference
  2
HATCH_88_cdc33c89-8802-4c94-afdd-c7dc45b682b2
 10
0.0
 20
0.0
 30
0.0
  0
INSERT
  5
51E
330
1F
100
AcDbEntity
  8
DETAILS
  6
ByBlock
 62
     7
100
AcDbBlockReference
  2
HATCH_89_d32f68fa-1136-491f-ae3d-4924cbbe1b5f
 10
0.0
 20
0.0
 30
0.0
  0
INSERT
  5
51F
330
1F
100
AcDbEntity
  8
DETAILS
  6
ByBlock
 62
     7
100
AcDbBlockReference
  2
HATCH_90_68760132-7075-4a54-9468-200d763e62f8
 10
0.0
 20
0.0
 30
0.0
  0
INSERT
  5
520
330
1F
100
AcDbEntity
  8
DETAILS
  6
ByBlock
 62
     7
100
AcDbBlockReference
  2
HATCH_91_91883f61-95c0-40dd-897a-d8459b1a6e29
 10
0.0
 20
0.0
 30
0.0
  0
INSERT
  5
521
330
1F
100
AcDbEntity
  8
DETAILS
  6
ByBlock
 62
     7
100
AcDbBlockReference
  2
HATCH_92_94d39962-f1e8-4754-b0f0-dce9b1471b4e
 10
0.0
 20
0.0
 30
0.0
  0
INSERT
  5
522
330
1F
100
AcDbEntity
  8
DETAILS
  6
ByBlock
 62
     7
100
AcDbBlockReference
  2
HATCH_93_bff37be4-00d9-4664-aa07-314547160ae8
 10
0.0
 20
0.0
 30
0.0
  0
INSERT
  5
523
330
1F
100
AcDbEntity
  8
DETAILS
  6
ByBlock
 62
     7
100
AcDbBlockReference
  2
HATCH_94_d01c0bf4-cc95-499c-8485-764a3f95f773
 10
0.0
 20
0.0
 30
0.0
  0
INSERT
  5
524
330
1F
100
AcDbEntity
  8
DETAILS
  6
ByBlock
 62
     7
100
AcDbBlockReference
  2
HATCH_95_4cadb2c9-f6ba-4509-a0c4-fe2d9ad781cb
 10
0.0
 20
0.0
 30
0.0
  0
INSERT
  5
525
330
1F
100
AcDbEntity
  8
DETAILS
  6
ByBlock
 62
     7
100
AcDbBlockReference
  2
HATCH_96_3d9b6670-e5b4-4ecc-8e72-7ae064367d68
 10
0.0
 20
0.0
 30
0.0
  0
INSERT
  5
526
330
1F
100
AcDbEntity
  8
DETAILS
  6
ByBlock
 62
     7
100
AcDbBlockReference
  2
HATCH_97_2feacd04-c107-40f2-ba24-6a6a301f3031
 10
0.0
 20
0.0
 30
0.0
  0
INSERT
  5
527
330
1F
100
AcDbEntity
  8
DETAILS
  6
ByBlock
 62
     7
100
AcDbBlockReference
  2
HATCH_98_8881bf1d-6319-4374-9c41-2b8551f56597
 10
0.0
 20
0.0
 30
0.0
  0
INSERT
  5
528
330
1F
100
AcDbEntity
  8
DETAILS
  6
ByBlock
 62
     7
100
AcDbBlockReference
  2
HATCH_99_6ada1471-178a-497e-8093-0acd520dbf94
 10
0.0
 20
0.0
 30
0.0
  0
INSERT
  5
529
330
1F
100
AcDbEntity
  8
DETAILS
  6
ByBlock
 62
     7
100
AcDbBlockReference
  2
HATCH_100_8ee3d71a-567f-40af-8e09-dec661b92681
 10
0.0
 20
0.0
 30
0.0
  0
INSERT
  5
52A
330
1F
100
AcDbEntity
  8
DETAILS
  6
ByBlock
 62
     7
100
AcDbBlockReference
  2
HATCH_101_0c3403cc-3caf-46ce-a13c-d877cfd96b63
 10
0.0
 20
0.0
 30
0.0
  0
INSERT
  5
52B
330
1F
100
AcDbEntity
  8
DETAILS
  6
ByBlock
 62
     7
100
AcDbBlockReference
  2
HATCH_102_68381b0e-3702-486e-b8ce-4d4aeecc5b43
 10
0.0
 20
0.0
 30
0.0
  0
INSERT
  5
52C
330
1F
100
AcDbEntity
  8
DETAILS
  6
ByBlock
 62
     7
100
AcDbBlockReference
  2
HATCH_103_d3dae4fb-6e63-4cd1-86c9-26dd9a691d8f
 10
0.0
 20
0.0
 30
0.0
  0
INSERT
  5
52D
330
1F
100
AcDbEntity
  8
DETAILS
  6
ByBlock
 62
     7
100
AcDbBlockReference
  2
HATCH_104_85bb6879-d8ff-47f7-b161-f13068f5dee4
 10
0.0
 20
0.0
 30
0.0
  0
INSERT
  5
52E
330
1F
100
AcDbEntity
  8
DETAILS
  6
ByBlock
 62
     7
100
AcDbBlockReference
  2
HATCH_105_5d68d0c0-4851-4e96-800c-6805c54089b7
 10
0.0
 20
0.0
 30
0.0
  0
INSERT
  5
52F
330
1F
100
AcDbEntity
  8
DETAILS
  6
ByBlock
 62
     7
100
AcDbBlockReference
  2
HATCH_106_b95c1c77-18a8-4fc2-91d2-c269c4253fd1
 10
0.0
 20
0.0
 30
0.0
  0
INSERT
  5
530
330
1F
100
AcDbEntity
  8
DETAILS
  6
ByBlock
 62
     7
100
AcDbBlockReference
  2
HATCH_107_1830efad-ea9c-4c2f-80a8-e8d7756922cf
 10
0.0
 20
0.0
 30
0.0
  0
INSERT
  5
531
330
1F
100
AcDbEntity
  8
DETAILS
  6
ByBlock
 62
     7
100
AcDbBlockReference
  2
HATCH_108_bbf8a675-6e3b-4a44-be7e-64b6d9e1577f
 10
0.0
 20
0.0
 30
0.0
  0
INSERT
  5
532
330
1F
100
AcDbEntity
  8
DETAILS
  6
ByBlock
 62
     7
100
AcDbBlockReference
  2
HATCH_109_f564cc28-ea3f-414d-8cd6-a21efaeff73c
 10
0.0
 20
0.0
 30
0.0
  0
INSERT
  5
533
330
1F
100
AcDbEntity
  8
DETAILS
  6
ByBlock
 62
     7
100
AcDbBlockReference
  2
HATCH_110_977108cd-2c7d-4f6c-accb-1098879b3290
 10
0.0
 20
0.0
 30
0.0
  0
INSERT
  5
534
330
1F
100
AcDbEntity
  8
DETAILS
  6
ByBlock
 62
     7
100
AcDbBlockReference
  2
HATCH_111_c861e11c-4c49-4946-ad61-bacfabce8ba1
 10
0.0
 20
0.0
 30
0.0
  0
INSERT
  5
535
330
1F
100
AcDbEntity
  8
DETAILS
  6
ByBlock
 62
     7
100
AcDbBlockReference
  2
HATCH_112_54c0769e-23cb-49c7-9085-0fcae6c6d559
 10
0.0
 20
0.0
 30
0.0
  0
INSERT
  5
536
330
1F
100
AcDbEntity
  8
DETAILS
  6
ByBlock
 62
     7
100
AcDbBlockReference
  2
HATCH_113_e7b2094f-780c-43cb-9d8c-460817df751c
 10
0.0
 20
0.0
 30
0.0
  0
INSERT
  5
537
330
1F
100
AcDbEntity
  8
DETAILS
  6
ByBlock
 62
     7
100
AcDbBlockReference
  2
HATCH_114_d9706cd1-ff19-49de-b2f6-d8392d80740a
 10
0.0
 20
0.0
 30
0.0
  0
INSERT
  5
538
330
1F
100
AcDbEntity
  8
DETAILS
  6
ByBlock
 62
     7
100
AcDbBlockReference
  2
HATCH_115_5190bac2-76bb-4c6c-9875-0fa5264de8bc
 10
0.0
 20
0.0
 30
0.0
  0
INSERT
  5
539
330
1F
100
AcDbEntity
  8
DETAILS
  6
ByBlock
 62
     7
100
AcDbBlockReference
  2
HATCH_116_d7dde26b-0a24-4928-ba19-ceb80eab2077
 10
0.0
 20
0.0
 30
0.0
  0
INSERT
  5
53A
330
1F
100
AcDbEntity
  8
DETAILS
  6
ByBlock
 62
     7
100
AcDbBlockReference
  2
HATCH_117_2b3f215a-bf2e-47ea-a670-6034cb207e9e
 10
0.0
 20
0.0
 30
0.0
  0
ENDSEC
  0
SECTION
  2
OBJECTS
  0
DICTIONARY
  5
C
330
0
100
AcDbDictionary
281
     1
  3
ACAD_GROUP
350
D
  3
ACAD_LAYOUT
350
1A
  3
ACAD_MATERIAL
350
3B
  3
ACAD_MLEADERSTYLE
350
53D
  3
ACAD_MLINESTYLE
350
17
  3
ACAD_PLOTSETTINGS
350
19
  3
ACAD_PLOTSTYLENAME
350
E
  3
ACAD_VISUALSTYLE
350
2A
  3
AcDbVariableDictionary
350
53B
  0
DICTIONARY
  5
D
102
{ACAD_REACTORS
330
C
102
}
330
C
100
AcDbDictionary
281
     1
  0
DICTIONARY
  5
1A
102
{ACAD_REACTORS
330
C
102
}
330
C
100
AcDbDictionary
281
     1
  3
Layout1
350
1E
  3
Layout2
350
26
  3
Model
350
22
  0
DICTIONARY
  5
3B
102
{ACAD_REACTORS
330
C
102
}
330
C
100
AcDbDictionary
281
     1
  3
ByBlock
350
3D
  3
ByLayer
350
3C
  3
Global
350
3E
  0
DICTIONARY
  5
53D
102
{ACAD_REACTORS
330
C
102
}
330
C
100
AcDbDictionary
281
     1
  0
DICTIONARY
  5
17
102
{ACAD_REACTORS
330
C
102
}
330
C
100
AcDbDictionary
281
     1
  3
Standard
350
18
  0
DICTIONARY
  5
19
102
{ACAD_REACTORS
330
C
102
}
330
C
100
AcDbDictionary
281
     1
  0
ACDBDICTIONARYWDFLT
  5
E
102
{ACAD_REACTORS
330
C
102
}
330
C
100
AcDbDictionary
281
     1
  3
Normal
350
F
100
AcDbDictionaryWithDefault
340
F
  0
DICTIONARY
  5
2A
102
{ACAD_REACTORS
330
C
102
}
330
C
100
AcDbDictionary
281
     1
  3
2dWireframe
350
2F
  3
3D Hidden
350
31
  3
3dWireframe
350
30
  3
Basic
350
32
  3
Brighten
350
36
  3
ColorChange
350
3A
  3
Conceptual
350
34
  3
Dim
350
35
  3
Facepattern
350
39
  3
Flat
350
2B
  3
FlatWithEdges
350
2C
  3
Gouraud
350
2D
  3
GouraudWithEdges
350
2E
  3
Linepattern
350
38
  3
Realistic
350
33
  3
Thicken
350
37
  0
DICTIONARY
  5
53B
102
{ACAD_REACTORS
330
C
102
}
330
C
100
AcDbDictionary
281
     1
  3
DIMASSOC
350
53E
  3
HIDETEXT
350
53F
  0
LAYOUT
  5
1E
102
{ACAD_REACTORS
330
1A
102
}
330
1A
100
AcDbPlotSettings
  1

  2
none_device
  4

  6

 40
0.0
 41
0.0
 42
0.0
 43
0.0
 44
0.0
 45
0.0
 46
0.0
 47
0.0
 48
0.0
 49
0.0
140
0.0
141
0.0
142
1.0
143
1.0
 70
   688
 72
     0
 73
     0
 74
     5
  7

 75
    16
147
1.0
148
0.0
149
0.0
100
AcDbLayout
  1
Layout1
 70
     1
 71
     1
 10
0.0
 20
0.0
 11
12.0
 21
9.0
 12
0.0
 22
0.0
 32
0.0
 14
1.000000000000000E+20
 24
1.000000000000000E+20
 34
1.000000000000000E+20
 15
-1.000000000000000E+20
 25
-1.000000000000000E+20
 35
-1.000000000000000E+20
146
0.0
 13
0.0
 23
0.0
 33
0.0
 16
1.0
 26
0.0
 36
0.0
 17
0.0
 27
1.0
 37
0.0
 76
     0
330
1B
  0
LAYOUT
  5
26
102
{ACAD_REACTORS
330
1A
102
}
330
1A
100
AcDbPlotSettings
  1

  2
none_device
  4

  6

 40
0.0
 41
0.0
 42
0.0
 43
0.0
 44
0.0
 45
0.0
 46
0.0
 47
0.0
 48
0.0
 49
0.0
140
0.0
141
0.0
142
1.0
143
1.0
 70
   688
 72
     0
 73
     0
 74
     5
  7

 75
    16
147
1.0
148
0.0
149
0.0
100
AcDbLayout
  1
Layout2
 70
     1
 71
     2
 10
0.0
 20
0.0
 11
0.0
 21
0.0
 12
0.0
 22
0.0
 32
0.0
 14
0.0
 24
0.0
 34
0.0
 15
0.0
 25
0.0
 35
0.0
146
0.0
 13
0.0
 23
0.0
 33
0.0
 16
1.0
 26
0.0
 36
0.0
 17
0.0
 27
1.0
 37
0.0
 76
     0
330
23
  0
LAYOUT
  5
22
102
{ACAD_REACTORS
330
1A
102
}
330
1A
100
AcDbPlotSettings
  1

  2
none_device
  4

  6

 40
0.0
 41
0.0
 42
0.0
 43
0.0
 44
0.0
 45
0.0
 46
0.0
 47
0.0
 48
0.0
 49
0.0
140
0.0
141
0.0
142
1.0
143
1.0
 70
  1712
 72
     0
 73
     0
 74
     0
  7

 75
     0
147
1.0
148
0.0
149
0.0
100
AcDbLayout
  1
Model
 70
     1
 71
     0
 10
-2.640461154541027
 20
-2.638146951660838
 11
55.44965594608365
 21
55.40105246794692
 12
0.0
 22
0.0
 32
0.0
 14
-2.640461154541027
 24
-2.638146951660838
 34
0.0
 15
55.44965594608365
 25
55.40105246794692
 35
0.0
146
0.0
 13
0.0
 23
0.0
 33
0.0
 16
1.0
 26
0.0
 36
0.0
 17
0.0
 27
1.0
 37
0.0
 76
     0
330
1F
331
29
  0
MATERIAL
  5
3D
102
{ACAD_REACTORS
330
3B
102
}
102
{ACAD_XDICTIONARY
360
562
102
}
330
3B
100
AcDbMaterial
  1
ByBlock
  0
MATERIAL
  5
3C
102
{ACAD_REACTORS
330
3B
102
}
102
{ACAD_XDICTIONARY
360
560
102
}
330
3B
100
AcDbMaterial
  1
ByLayer
  0
MATERIAL
  5
3E
102
{ACAD_REACTORS
330
3B
102
}
102
{ACAD_XDICTIONARY
360
564
102
}
330
3B
100
AcDbMaterial
  1
Global
  0
MLINESTYLE
  5
18
102
{ACAD_REACTORS
330
17
102
}
330
17
100
AcDbMlineStyle
  2
Standard
 70
     0
  3

 62
   256
 51
90.0
 52
90.0
 71
     2
 49
0.5
 62
   256
  6
BYLAYER
 49
-0.5
 62
   256
  6
BYLAYER
  0
ACDBPLACEHOLDER
  5
F
102
{ACAD_REACTORS
330
E
102
}
330
E
  0
VISUALSTYLE
  5
2F
102
{ACAD_REACTORS
330
2A
102
}
102
{ACAD_XDICTIONARY
360
548
102
}
330
2A
100
AcDbVisualStyle
  2
2dWireframe
 70
     4
 71
     0
 72
     2
 73
     0
 90
        0
 40
-0.6
 41
-30.0
 62
     5
 63
     7
 74
     1
 91
        4
 64
     7
 65
   257
 75
     1
175
     1
 42
1.0
 92
        0
 66
   257
 43
1.0
 76
     1
 77
     6
 78
     2
 67
     7
 79
     5
170
     0
171
     0
290
     0
174
     0
 93
        1
 44
0.0
173
     0
291
     0
 45
0.0
1001
ACAD
1000
AcDbSavedByObjectVersion
1070
     0
  0
VISUALSTYLE
  5
31
102
{ACAD_REACTORS
330
2A
102
}
102
{ACAD_XDICTIONARY
360
54C
102
}
330
2A
100
AcDbVisualStyle
  2
3D Hidden
 70
     6
 71
     1
 72
     2
 73
     2
 90
        0
 40
-0.6
 41
-30.0
 62
     5
 63
     7
 74
     2
 91
        2
 64
     7
 65
   257
 75
     2
175
     1
 42
40.0
 92
        0
 66
   257
 43
1.0
 76
     1
 77
     6
 78
     2
 67
     7
 79
     3
170
     0
171
     0
290
     0
174
     0
 93
        1
 44
0.0
173
     0
291
     0
 45
0.0
1001
ACAD
1000
AcDbSavedByObjectVersion
1070
     0
  0
VISUALSTYLE
  5
30
102
{ACAD_REACTORS
330
2A
102
}
102
{ACAD_XDICTIONARY
360
54A
102
}
330
2A
100
AcDbVisualStyle
  2
3dWireframe
 70
     5
 71
     0
 72
     2
 73
     0
 90
        0
 40
-0.6
 41
-30.0
 62
     5
 63
     7
 74
     1
 91
        4
 64
     7
 65
   257
 75
     1
175
     1
 42
1.0
 92
        0
 66
   257
 43
1.0
 76
     1
 77
     6
 78
     2
 67
     7
 79
     5
170
     0
171
     0
290
     0
174
     0
 93
        1
 44
0.0
173
     0
291
     0
 45
0.0
1001
ACAD
1000
AcDbSavedByObjectVersion
1070
     0
  0
VISUALSTYLE
  5
32
102
{ACAD_REACTORS
330
2A
102
}
102
{ACAD_XDICTIONARY
360
54E
102
}
330
2A
100
AcDbVisualStyle
  2
Basic
 70
     7
 71
     1
 72
     0
 73
     1
 90
        0
 40
-0.6
 41
-30.0
 62
     5
 63
     7
 74
     0
 91
        4
 64
     7
 65
   257
 75
     1
175
     1
 42
1.0
 92
        8
 66
     7
 43
1.0
 76
     1
 77
     6
 78
     2
 67
     7
 79
     5
170
     0
171
     0
290
     0
174
     0
 93
        1
 44
0.0
173
     0
291
     1
 45
0.0
1001
ACAD
1000
AcDbSavedByObjectVersion
1070
     0
  0
VISUALSTYLE
  5
36
102
{ACAD_REACTORS
330
2A
102
}
102
{ACAD_XDICTIONARY
360
556
102
}
330
2A
100
AcDbVisualStyle
  2
Brighten
 70
    12
 71
     2
 72
     2
 73
     0
 90
        0
 40
-0.6
 41
-30.0
 62
     5
 63
     7
 74
     1
 91
        4
 64
     7
 65
   257
 75
     1
175
     1
 42
1.0
 92
        8
 66
     7
 43
1.0
 76
     1
 77
     6
 78
     2
 67
     7
 79
     5
170
     0
171
     0
290
     0
174
     0
 93
        1
 44
50.0
173
     0
291
     1
 45
0.0
1001
ACAD
1000
AcDbSavedByObjectVersion
1070
     0
  0
VISUALSTYLE
  5
3A
102
{ACAD_REACTORS
330
2A
102
}
102
{ACAD_XDICTIONARY
360
55E
102
}
330
2A
100
AcDbVisualStyle
  2
ColorChange
 70
    16
 71
     2
 72
     2
 73
     3
 90
        0
 40
-0.6
 41
-30.0
 62
     5
 63
     8
 74
     1
 91
        4
 64
     7
 65
   257
 75
     1
175
     1
 42
1.0
 92
        8
 66
     8
 43
1.0
 76
     1
 77
     6
 78
     2
 67
     7
 79
     5
170
     0
171
     0
290
     0
174
     0
 93
        1
 44
0.0
173
     0
291
     1
 45
0.0
1001
ACAD
1000
AcDbSavedByObjectVersion
1070
     0
  0
VISUALSTYLE
  5
34
102
{ACAD_REACTORS
330
2A
102
}
102
{ACAD_XDICTIONARY
360
552
102
}
330
2A
100
AcDbVisualStyle
  2
Conceptual
 70
     9
 71
     3
 72
     2
 73
     0
 90
        0
 40
-0.6
 41
-30.0
 62
     5
 63
     7
 74
     2
 91
        2
 64
     7
 65
   257
 75
     1
175
     1
 42
40.0
 92
        8
 66
     7
 43
1.0
 76
     1
 77
     6
 78
     2
 67
     7
 79
     3
170
     0
171
     0
290
     0
174
     0
 93
        1
 44
0.0
173
     0
291
     0
 45
0.0
1001
ACAD
1000
AcDbSavedByObjectVersion
1070
     0
  0
VISUALSTYLE
  5
35
102
{ACAD_REACTORS
330
2A
102
}
102
{ACAD_XDICTIONARY
360
554
102
}
330
2A
100
AcDbVisualStyle
  2
Dim
 70
    11
 71
     2
 72
     2
 73
     0
 90
        0
 40
-0.6
 41
-30.0
 62
     5
 63
     7
 74
     1
 91
        4
 64
     7
 65
   257
 75
     1
175
     1
 42
1.0
 92
        8
 66
     7
 43
1.0
 76
     1
 77
     6
 78
     2
 67
     7
 79
     5
170
     0
171
     0
290
     0
174
     0
 93
        1
 44
-50.0
173
     0
291
     1
 45
0.0
1001
ACAD
1000
AcDbSavedByObjectVersion
1070
     0
  0
VISUALSTYLE
  5
39
102
{ACAD_REACTORS
330
2A
102
}
102
{ACAD_XDICTIONARY
360
55C
102
}
330
2A
100
AcDbVisualStyle
  2
Facepattern
 70
    15
 71
     2
 72
     2
 73
     0
 90
        0
 40
-0.6
 41
-30.0
 62
     5
 63
     7
 74
     1
 91
        4
 64
     7
 65
   257
 75
     1
175
     1
 42
1.0
 92
        8
 66
     7
 43
1.0
 76
     1
 77
     6
 78
     2
 67
     7
 79
     5
170
     0
171
     0
290
     0
174
     0
 93
        1
 44
0.0
173
     0
291
     1
 45
0.0
1001
ACAD
1000
AcDbSavedByObjectVersion
1070
     0
  0
VISUALSTYLE
  5
2B
102
{ACAD_REACTORS
330
2A
102
}
102
{ACAD_XDICTIONARY
360
540
102
}
330
2A
100
AcDbVisualStyle
  2
Flat
 70
     0
 71
     2
 72
     1
 73
     1
 90
        2
 40
-0.6
 41
30.0
 62
     5
 63
     7
 74
     0
 91
        4
 64
     7
 65
   257
 75
     1
175
     1
 42
1.0
 92
        8
 66
     7
 43
1.0
 76
     1
 77
     6
 78
     2
 67
     7
 79
     5
170
     0
171
     0
290
     0
174
     0
 93
       13
 44
0.0
173
     0
291
     1
 45
0.0
1001
ACAD
1000
AcDbSavedByObjectVersion
1070
     0
  0
VISUALSTYLE
  5
2C
102
{ACAD_REACTORS
330
2A
102
}
102
{ACAD_XDICTIONARY
360
542
102
}
330
2A
100
AcDbVisualStyle
  2
FlatWithEdges
 70
     1
 71
     2
 72
     1
 73
     1
 90
        2
 40
-0.6
 41
30.0
 62
     5
 63
     7
 74
     1
 91
        4
 64
     7
 65
   257
 75
     1
175
     1
 42
1.0
 92
        0
 66
   257
 43
1.0
 76
     1
 77
     6
 78
     2
 67
     7
 79
     5
170
     0
171
     0
290
     0
174
     0
 93
       13
 44
0.0
173
     0
291
     1
 45
0.0
1001
ACAD
1000
AcDbSavedByObjectVersion
1070
     0
  0
VISUALSTYLE
  5
2D
102
{ACAD_REACTORS
330
2A
102
}
102
{ACAD_XDICTIONARY
360
544
102
}
330
2A
100
AcDbVisualStyle
  2
Gouraud
 70
     2
 71
     2
 72
     2
 73
     1
 90
        2
 40
-0.6
 41
30.0
 62
     5
 63
     7
 74
     0
 91
        4
 64
     7
 65
   257
 75
     1
175
     1
 42
1.0
 92
        0
 66
     7
 43
1.0
 76
     1
 77
     6
 78
     2
 67
     7
 79
     5
170
     0
171
     0
290
     0
174
     0
 93
       13
 44
0.0
173
     0
291
     1
 45
0.0
1001
ACAD
1000
AcDbSavedByObjectVersion
1070
     0
  0
VISUALSTYLE
  5
2E
102
{ACAD_REACTORS
330
2A
102
}
102
{ACAD_XDICTIONARY
360
546
102
}
330
2A
100
AcDbVisualStyle
  2
GouraudWithEdges
 70
     3
 71
     2
 72
     2
 73
     1
 90
        2
 40
-0.6
 41
30.0
 62
     5
 63
     7
 74
     1
 91
        4
 64
     7
 65
   257
 75
     1
175
     1
 42
1.0
 92
        0
 66
   257
 43
1.0
 76
     1
 77
     6
 78
     2
 67
     7
 79
     5
170
     0
171
     0
290
     0
174
     0
 93
       13
 44
0.0
173
     0
291
     1
 45
0.0
1001
ACAD
1000
AcDbSavedByObjectVersion
1070
     0
  0
VISUALSTYLE
  5
38
102
{ACAD_REACTORS
330
2A
102
}
102
{ACAD_XDICTIONARY
360
55A
102
}
330
2A
100
AcDbVisualStyle
  2
Linepattern
 70
    14
 71
     2
 72
     2
 73
     0
 90
        0
 40
-0.6
 41
-30.0
 62
     5
 63
     7
 74
     1
 91
        4
 64
     7
 65
   257
 75
     7
175
     7
 42
1.0
 92
        8
 66
     7
 43
1.0
 76
     1
 77
     6
 78
     2
 67
     7
 79
     5
170
     0
171
     0
290
     0
174
     0
 93
        1
 44
0.0
173
     0
291
     1
 45
0.0
1001
ACAD
1000
AcDbSavedByObjectVersion
1070
     0
  0
VISUALSTYLE
  5
33
102
{ACAD_REACTORS
330
2A
102
}
102
{ACAD_XDICTIONARY
360
550
102
}
330
2A
100
AcDbVisualStyle
  2
Realistic
 70
     8
 71
     2
 72
     2
 73
     0
 90
        0
 40
-0.6
 41
-30.0
 62
     5
 63
     7
 74
     1
 91
        0
 64
     7
 65
   257
 75
     1
175
     1
 42
1.0
 92
        8
 66
     8
 43
1.0
 76
     1
 77
     6
 78
     2
 67
     7
 79
     5
170
     0
171
     0
290
     0
174
     0
 93
       13
 44
0.0
173
     0
291
     0
 45
0.0
1001
ACAD
1000
AcDbSavedByObjectVersion
1070
     0
  0
VISUALSTYLE
  5
37
102
{ACAD_REACTORS
330
2A
102
}
102
{ACAD_XDICTIONARY
360
558
102
}
330
2A
100
AcDbVisualStyle
  2
Thicken
 70
    13
 71
     2
 72
     2
 73
     0
 90
        0
 40
-0.6
 41
-30.0
 62
     5
 63
     7
 74
     1
 91
        4
 64
     7
 65
   257
 75
     1
175
     1
 42
1.0
 92
       12
 66
     7
 43
1.0
 76
     1
 77
     6
 78
     2
 67
     7
 79
     5
170
     0
171
     0
290
     0
174
     0
 93
        1
 44
0.0
173
     0
291
     1
 45
0.0
1001
ACAD
1000
AcDbSavedByObjectVersion
1070
     0
  0
DICTIONARYVAR
  5
53E
102
{ACAD_REACTORS
330
53B
102
}
330
53B
100
DictionaryVariables
280
     0
  1
2
  0
DICTIONARYVAR
  5
53F
102
{ACAD_REACTORS
330
53B
102
}
330
53B
100
DictionaryVariables
280
     0
  1
1
  0
DICTIONARY
  5
562
330
3D
100
AcDbDictionary
280
     1
281
     1
  3
ACAD_XREC_ROUNDTRIP
360
563
  0
DICTIONARY
  5
560
330
3C
100
AcDbDictionary
280
     1
281
     1
  3
ACAD_XREC_ROUNDTRIP
360
561
  0
DICTIONARY
  5
564
330
3E
100
AcDbDictionary
280
     1
281
     1
  3
ACAD_XREC_ROUNDTRIP
360
565
  0
DICTIONARY
  5
548
330
2F
100
AcDbDictionary
280
     1
281
     1
  3
ACAD_XREC_ROUNDTRIP
360
549
  0
DICTIONARY
  5
54C
330
31
100
AcDbDictionary
280
     1
281
     1
  3
ACAD_XREC_ROUNDTRIP
360
54D
  0
DICTIONARY
  5
54A
330
30
100
AcDbDictionary
280
     1
281
     1
  3
ACAD_XREC_ROUNDTRIP
360
54B
  0
DICTIONARY
  5
54E
330
32
100
AcDbDictionary
280
     1
281
     1
  3
ACAD_XREC_ROUNDTRIP
360
54F
  0
DICTIONARY
  5
556
330
36
100
AcDbDictionary
280
     1
281
     1
  3
ACAD_XREC_ROUNDTRIP
360
557
  0
DICTIONARY
  5
55E
330
3A
100
AcDbDictionary
280
     1
281
     1
  3
ACAD_XREC_ROUNDTRIP
360
55F
  0
DICTIONARY
  5
552
330
34
100
AcDbDictionary
280
     1
281
     1
  3
ACAD_XREC_ROUNDTRIP
360
553
  0
DICTIONARY
  5
554
330
35
100
AcDbDictionary
280
     1
281
     1
  3
ACAD_XREC_ROUNDTRIP
360
555
  0
DICTIONARY
  5
55C
330
39
100
AcDbDictionary
280
     1
281
     1
  3
ACAD_XREC_ROUNDTRIP
360
55D
  0
DICTIONARY
  5
540
330
2B
100
AcDbDictionary
280
     1
281
     1
  3
ACAD_XREC_ROUNDTRIP
360
541
  0
DICTIONARY
  5
542
330
2C
100
AcDbDictionary
280
     1
281
     1
  3
ACAD_XREC_ROUNDTRIP
360
543
  0
DICTIONARY
  5
544
330
2D
100
AcDbDictionary
280
     1
281
     1
  3
ACAD_XREC_ROUNDTRIP
360
545
  0
DICTIONARY
  5
546
330
2E
100
AcDbDictionary
280
     1
281
     1
  3
ACAD_XREC_ROUNDTRIP
360
547
  0
DICTIONARY
  5
55A
330
38
100
AcDbDictionary
280
     1
281
     1
  3
ACAD_XREC_ROUNDTRIP
360
55B
  0
DICTIONARY
  5
550
330
33
100
AcDbDictionary
280
     1
281
     1
  3
ACAD_XREC_ROUNDTRIP
360
551
  0
DICTIONARY
  5
558
330
37
100
AcDbDictionary
280
     1
281
     1
  3
ACAD_XREC_ROUNDTRIP
360
559
  0
XRECORD
  5
563
102
{ACAD_REACTORS
330
562
102
}
330
562
100
AcDbXrecord
280
     1
102
MATERIAL
148
0.0
149
0.0
149
0.0
 93
        0
 94
      127
282
     0
 72
     1
 77
     1
171
     1
175
     1
179
     1
273
     0
  0
XRECORD
  5
561
102
{ACAD_REACTORS
330
560
102
}
330
560
100
AcDbXrecord
280
     1
102
MATERIAL
148
0.0
149
0.0
149
0.0
 93
        0
 94
      127
282
     0
 72
     1
 77
     1
171
     1
175
     1
179
     1
273
     0
  0
XRECORD
  5
565
102
{ACAD_REACTORS
330
564
102
}
330
564
100
AcDbXrecord
280
     1
102
MATERIAL
148
0.0
149
0.0
149
0.0
 93
        0
 94
      127
282
     0
 72
     1
 77
     1
171
     1
175
     1
179
     1
273
     0
  0
XRECORD
  5
549
102
{ACAD_REACTORS
330
548
102
}
330
548
100
AcDbXrecord
280
     1
102
RTVSPropertyOp0
 70
     1
102
RTVSPropertyOp1
 70
     1
102
RTVSPropertyOp2
 70
     1
102
RTVSPropertyOp3
 70
     1
102
RTVSPropertyOp4
 70
     1
102
RTVSPropertyOp5
 70
     1
102
RTVSPropertyOp6
 70
     1
102
RTVSPropertyOp7
 70
     1
102
RTVSPropertyOp8
 70
     1
102
RTVSPropertyOp9
 70
     1
102
RTVSPropertyOp10
 70
     1
102
RTVSPropertyOp11
 70
     1
102
RTVSPropertyOp12
 70
     1
102
RTVSPropertyOp13
 70
     1
102
RTVSPropertyOp14
 70
     1
102
RTVSPropertyOp15
 70
     1
102
RTVSPropertyOp16
 70
     1
102
RTVSPropertyOp17
 70
     1
102
RTVSPropertyOp18
 70
     1
102
RTVSPropertyOp19
 70
     1
102
RTVSPropertyOp20
 70
     1
102
RTVSPropertyOp21
 70
     1
102
RTVSPropertyOp22
 70
     1
102
RTVSPropertyOp23
 70
     1
102
RTVSPropertyOp24
 70
     1
102
RTVSPropertyOp25
 70
     1
102
RTVSPropertyOp26
 70
     1
102
RTVSPropertyOp27
 70
     1
  0
XRECORD
  5
54D
102
{ACAD_REACTORS
330
54C
102
}
330
54C
100
AcDbXrecord
280
     1
102
RTVSPropertyOp0
 70
     1
102
RTVSPropertyOp1
 70
     1
102
RTVSPropertyOp2
 70
     1
102
RTVSPropertyOp3
 70
     1
102
RTVSPropertyOp4
 70
     1
102
RTVSPropertyOp5
 70
     1
102
RTVSPropertyOp6
 70
     1
102
RTVSPropertyOp7
 70
     1
102
RTVSPropertyOp8
 70
     1
102
RTVSPropertyOp9
 70
     1
102
RTVSPropertyOp10
 70
     1
102
RTVSPropertyOp11
 70
     1
102
RTVSPropertyOp12
 70
     1
102
RTVSPropertyOp13
 70
     1
102
RTVSPropertyOp14
 70
     1
102
RTVSPropertyOp15
 70
     1
102
RTVSPropertyOp16
 70
     1
102
RTVSPropertyOp17
 70
     1
102
RTVSPropertyOp18
 70
     1
102
RTVSPropertyOp19
 70
     1
102
RTVSPropertyOp20
 70
     1
102
RTVSPropertyOp21
 70
     1
102
RTVSPropertyOp22
 70
     1
102
RTVSPropertyOp23
 70
     1
102
RTVSPropertyOp24
 70
     1
102
RTVSPropertyOp25
 70
     1
102
RTVSPropertyOp26
 70
     1
102
RTVSPropertyOp27
 70
     1
  0
XRECORD
  5
54B
102
{ACAD_REACTORS
330
54A
102
}
330
54A
100
AcDbXrecord
280
     1
102
RTVSPropertyOp0
 70
     1
102
RTVSPropertyOp1
 70
     1
102
RTVSPropertyOp2
 70
     1
102
RTVSPropertyOp3
 70
     1
102
RTVSPropertyOp4
 70
     1
102
RTVSPropertyOp5
 70
     1
102
RTVSPropertyOp6
 70
     1
102
RTVSPropertyOp7
 70
     1
102
RTVSPropertyOp8
 70
     1
102
RTVSPropertyOp9
 70
     1
102
RTVSPropertyOp10
 70
     1
102
RTVSPropertyOp11
 70
     1
102
RTVSPropertyOp12
 70
     1
102
RTVSPropertyOp13
 70
     1
102
RTVSPropertyOp14
 70
     1
102
RTVSPropertyOp15
 70
     1
102
RTVSPropertyOp16
 70
     1
102
RTVSPropertyOp17
 70
     1
102
RTVSPropertyOp18
 70
     1
102
RTVSPropertyOp19
 70
     1
102
RTVSPropertyOp20
 70
     1
102
RTVSPropertyOp21
 70
     1
102
RTVSPropertyOp22
 70
     1
102
RTVSPropertyOp23
 70
     1
102
RTVSPropertyOp24
 70
     1
102
RTVSPropertyOp25
 70
     1
102
RTVSPropertyOp26
 70
     1
102
RTVSPropertyOp27
 70
     1
  0
XRECORD
  5
54F
102
{ACAD_REACTORS
330
54E
102
}
330
54E
100
AcDbXrecord
280
     1
102
RTVSPropertyOp0
 70
     1
102
RTVSPropertyOp1
 70
     1
102
RTVSPropertyOp2
 70
     1
102
RTVSPropertyOp3
 70
     1
102
RTVSPropertyOp4
 70
     1
102
RTVSPropertyOp5
 70
     1
102
RTVSPropertyOp6
 70
     1
102
RTVSPropertyOp7
 70
     1
102
RTVSPropertyOp8
 70
     1
102
RTVSPropertyOp9
 70
     1
102
RTVSPropertyOp10
 70
     1
102
RTVSPropertyOp11
 70
     1
102
RTVSPropertyOp12
 70
     1
102
RTVSPropertyOp13
 70
     1
102
RTVSPropertyOp14
 70
     1
102
RTVSPropertyOp15
 70
     1
102
RTVSPropertyOp16
 70
     1
102
RTVSPropertyOp17
 70
     1
102
RTVSPropertyOp18
 70
     1
102
RTVSPropertyOp19
 70
     1
102
RTVSPropertyOp20
 70
     1
102
RTVSPropertyOp21
 70
     1
102
RTVSPropertyOp22
 70
     1
102
RTVSPropertyOp23
 70
     1
102
RTVSPropertyOp24
 70
     1
102
RTVSPropertyOp25
 70
     1
102
RTVSPropertyOp26
 70
     1
102
RTVSPropertyOp27
 70
     1
  0
XRECORD
  5
557
102
{ACAD_REACTORS
330
556
102
}
330
556
100
AcDbXrecord
280
     1
102
RTVSPropertyOp0
 70
     1
102
RTVSPropertyOp1
 70
     1
102
RTVSPropertyOp2
 70
     1
102
RTVSPropertyOp3
 70
     1
102
RTVSPropertyOp4
 70
     1
102
RTVSPropertyOp5
 70
     1
102
RTVSPropertyOp6
 70
     1
102
RTVSPropertyOp7
 70
     1
102
RTVSPropertyOp8
 70
     1
102
RTVSPropertyOp9
 70
     1
102
RTVSPropertyOp10
 70
     1
102
RTVSPropertyOp11
 70
     1
102
RTVSPropertyOp12
 70
     1
102
RTVSPropertyOp13
 70
     1
102
RTVSPropertyOp14
 70
     1
102
RTVSPropertyOp15
 70
     1
102
RTVSPropertyOp16
 70
     1
102
RTVSPropertyOp17
 70
     1
102
RTVSPropertyOp18
 70
     1
102
RTVSPropertyOp19
 70
     1
102
RTVSPropertyOp20
 70
     1
102
RTVSPropertyOp21
 70
     1
102
RTVSPropertyOp22
 70
     1
102
RTVSPropertyOp23
 70
     1
102
RTVSPropertyOp24
 70
     1
102
RTVSPropertyOp25
 70
     1
102
RTVSPropertyOp26
 70
     1
102
RTVSPropertyOp27
 70
     1
  0
XRECORD
  5
55F
102
{ACAD_REACTORS
330
55E
102
}
330
55E
100
AcDbXrecord
280
     1
102
RTVSPropertyOp0
 70
     1
102
RTVSPropertyOp1
 70
     1
102
RTVSPropertyOp2
 70
     1
102
RTVSPropertyOp3
 70
     1
102
RTVSPropertyOp4
 70
     1
102
RTVSPropertyOp5
 70
     1
102
RTVSPropertyOp6
 70
     1
102
RTVSPropertyOp7
 70
     1
102
RTVSPropertyOp8
 70
     1
102
RTVSPropertyOp9
 70
     1
102
RTVSPropertyOp10
 70
     1
102
RTVSPropertyOp11
 70
     1
102
RTVSPropertyOp12
 70
     1
102
RTVSPropertyOp13
 70
     1
102
RTVSPropertyOp14
 70
     1
102
RTVSPropertyOp15
 70
     1
102
RTVSPropertyOp16
 70
     1
102
RTVSPropertyOp17
 70
     1
102
RTVSPropertyOp18
 70
     1
102
RTVSPropertyOp19
 70
     1
102
RTVSPropertyOp20
 70
     1
102
RTVSPropertyOp21
 70
     1
102
RTVSPropertyOp22
 70
     1
102
RTVSPropertyOp23
 70
     1
102
RTVSPropertyOp24
 70
     1
102
RTVSPropertyOp25
 70
     1
102
RTVSPropertyOp26
 70
     1
102
RTVSPropertyOp27
 70
     1
  0
XRECORD
  5
553
102
{ACAD_REACTORS
330
552
102
}
330
552
100
AcDbXrecord
280
     1
102
RTVSPropertyOp0
 70
     1
102
RTVSPropertyOp1
 70
     1
102
RTVSPropertyOp2
 70
     1
102
RTVSPropertyOp3
 70
     1
102
RTVSPropertyOp4
 70
     1
102
RTVSPropertyOp5
 70
     1
102
RTVSPropertyOp6
 70
     1
102
RTVSPropertyOp7
 70
     1
102
RTVSPropertyOp8
 70
     1
102
RTVSPropertyOp9
 70
     1
102
RTVSPropertyOp10
 70
     1
102
RTVSPropertyOp11
 70
     1
102
RTVSPropertyOp12
 70
     1
102
RTVSPropertyOp13
 70
     1
102
RTVSPropertyOp14
 70
     1
102
RTVSPropertyOp15
 70
     1
102
RTVSPropertyOp16
 70
     1
102
RTVSPropertyOp17
 70
     1
102
RTVSPropertyOp18
 70
     1
102
RTVSPropertyOp19
 70
     1
102
RTVSPropertyOp20
 70
     1
102
RTVSPropertyOp21
 70
     1
102
RTVSPropertyOp22
 70
     1
102
RTVSPropertyOp23
 70
     1
102
RTVSPropertyOp24
 70
     1
102
RTVSPropertyOp25
 70
     1
102
RTVSPropertyOp26
 70
     1
102
RTVSPropertyOp27
 70
     1
  0
XRECORD
  5
555
102
{ACAD_REACTORS
330
554
102
}
330
554
100
AcDbXrecord
280
     1
102
RTVSPropertyOp0
 70
     1
102
RTVSPropertyOp1
 70
     1
102
RTVSPropertyOp2
 70
     1
102
RTVSPropertyOp3
 70
     1
102
RTVSPropertyOp4
 70
     1
102
RTVSPropertyOp5
 70
     1
102
RTVSPropertyOp6
 70
     1
102
RTVSPropertyOp7
 70
     1
102
RTVSPropertyOp8
 70
     1
102
RTVSPropertyOp9
 70
     1
102
RTVSPropertyOp10
 70
     1
102
RTVSPropertyOp11
 70
     1
102
RTVSPropertyOp12
 70
     1
102
RTVSPropertyOp13
 70
     1
102
RTVSPropertyOp14
 70
     1
102
RTVSPropertyOp15
 70
     1
102
RTVSPropertyOp16
 70
     1
102
RTVSPropertyOp17
 70
     1
102
RTVSPropertyOp18
 70
     1
102
RTVSPropertyOp19
 70
     1
102
RTVSPropertyOp20
 70
     1
102
RTVSPropertyOp21
 70
     1
102
RTVSPropertyOp22
 70
     1
102
RTVSPropertyOp23
 70
     1
102
RTVSPropertyOp24
 70
     1
102
RTVSPropertyOp25
 70
     1
102
RTVSPropertyOp26
 70
     1
102
RTVSPropertyOp27
 70
     1
  0
XRECORD
  5
55D
102
{ACAD_REACTORS
330
55C
102
}
330
55C
100
AcDbXrecord
280
     1
102
RTVSPropertyOp0
 70
     1
102
RTVSPropertyOp1
 70
     1
102
RTVSPropertyOp2
 70
     1
102
RTVSPropertyOp3
 70
     1
102
RTVSPropertyOp4
 70
     1
102
RTVSPropertyOp5
 70
     1
102
RTVSPropertyOp6
 70
     1
102
RTVSPropertyOp7
 70
     1
102
RTVSPropertyOp8
 70
     1
102
RTVSPropertyOp9
 70
     1
102
RTVSPropertyOp10
 70
     1
102
RTVSPropertyOp11
 70
     1
102
RTVSPropertyOp12
 70
     1
102
RTVSPropertyOp13
 70
     1
102
RTVSPropertyOp14
 70
     1
102
RTVSPropertyOp15
 70
     1
102
RTVSPropertyOp16
 70
     1
102
RTVSPropertyOp17
 70
     1
102
RTVSPropertyOp18
 70
     1
102
RTVSPropertyOp19
 70
     1
102
RTVSPropertyOp20
 70
     1
102
RTVSPropertyOp21
 70
     1
102
RTVSPropertyOp22
 70
     1
102
RTVSPropertyOp23
 70
     1
102
RTVSPropertyOp24
 70
     1
102
RTVSPropertyOp25
 70
     1
102
RTVSPropertyOp26
 70
     1
102
RTVSPropertyOp27
 70
     1
  0
XRECORD
  5
541
102
{ACAD_REACTORS
330
540
102
}
330
540
100
AcDbXrecord
280
     1
102
RTVSPropertyOp0
 70
     1
102
RTVSPropertyOp1
 70
     1
102
RTVSPropertyOp2
 70
     1
102
RTVSPropertyOp3
 70
     1
102
RTVSPropertyOp4
 70
     1
102
RTVSPropertyOp5
 70
     1
102
RTVSPropertyOp6
 70
     1
102
RTVSPropertyOp7
 70
     1
102
RTVSPropertyOp8
 70
     1
102
RTVSPropertyOp9
 70
     1
102
RTVSPropertyOp10
 70
     1
102
RTVSPropertyOp11
 70
     1
102
RTVSPropertyOp12
 70
     1
102
RTVSPropertyOp13
 70
     1
102
RTVSPropertyOp14
 70
     1
102
RTVSPropertyOp15
 70
     1
102
RTVSPropertyOp16
 70
     1
102
RTVSPropertyOp17
 70
     1
102
RTVSPropertyOp18
 70
     1
102
RTVSPropertyOp19
 70
     1
102
RTVSPropertyOp20
 70
     1
102
RTVSPropertyOp21
 70
     1
102
RTVSPropertyOp22
 70
     1
102
RTVSPropertyOp23
 70
     1
102
RTVSPropertyOp24
 70
     1
102
RTVSPropertyOp25
 70
     1
102
RTVSPropertyOp26
 70
     1
102
RTVSPropertyOp27
 70
     1
  0
XRECORD
  5
543
102
{ACAD_REACTORS
330
542
102
}
330
542
100
AcDbXrecord
280
     1
102
RTVSPropertyOp0
 70
     1
102
RTVSPropertyOp1
 70
     1
102
RTVSPropertyOp2
 70
     1
102
RTVSPropertyOp3
 70
     1
102
RTVSPropertyOp4
 70
     1
102
RTVSPropertyOp5
 70
     1
102
RTVSPropertyOp6
 70
     1
102
RTVSPropertyOp7
 70
     1
102
RTVSPropertyOp8
 70
     1
102
RTVSPropertyOp9
 70
     1
102
RTVSPropertyOp10
 70
     1
102
RTVSPropertyOp11
 70
     1
102
RTVSPropertyOp12
 70
     1
102
RTVSPropertyOp13
 70
     1
102
RTVSPropertyOp14
 70
     1
102
RTVSPropertyOp15
 70
     1
102
RTVSPropertyOp16
 70
     1
102
RTVSPropertyOp17
 70
     1
102
RTVSPropertyOp18
 70
     1
102
RTVSPropertyOp19
 70
     1
102
RTVSPropertyOp20
 70
     1
102
RTVSPropertyOp21
 70
     1
102
RTVSPropertyOp22
 70
     1
102
RTVSPropertyOp23
 70
     1
102
RTVSPropertyOp24
 70
     1
102
RTVSPropertyOp25
 70
     1
102
RTVSPropertyOp26
 70
     1
102
RTVSPropertyOp27
 70
     1
  0
XRECORD
  5
545
102
{ACAD_REACTORS
330
544
102
}
330
544
100
AcDbXrecord
280
     1
102
RTVSPropertyOp0
 70
     1
102
RTVSPropertyOp1
 70
     1
102
RTVSPropertyOp2
 70
     1
102
RTVSPropertyOp3
 70
     1
102
RTVSPropertyOp4
 70
     1
102
RTVSPropertyOp5
 70
     1
102
RTVSPropertyOp6
 70
     1
102
RTVSPropertyOp7
 70
     1
102
RTVSPropertyOp8
 70
     1
102
RTVSPropertyOp9
 70
     1
102
RTVSPropertyOp10
 70
     1
102
RTVSPropertyOp11
 70
     1
102
RTVSPropertyOp12
 70
     1
102
RTVSPropertyOp13
 70
     1
102
RTVSPropertyOp14
 70
     1
102
RTVSPropertyOp15
 70
     1
102
RTVSPropertyOp16
 70
     1
102
RTVSPropertyOp17
 70
     1
102
RTVSPropertyOp18
 70
     1
102
RTVSPropertyOp19
 70
     1
102
RTVSPropertyOp20
 70
     1
102
RTVSPropertyOp21
 70
     1
102
RTVSPropertyOp22
 70
     1
102
RTVSPropertyOp23
 70
     1
102
RTVSPropertyOp24
 70
     1
102
RTVSPropertyOp25
 70
     1
102
RTVSPropertyOp26
 70
     1
102
RTVSPropertyOp27
 70
     1
  0
XRECORD
  5
547
102
{ACAD_REACTORS
330
546
102
}
330
546
100
AcDbXrecord
280
     1
102
RTVSPropertyOp0
 70
     1
102
RTVSPropertyOp1
 70
     1
102
RTVSPropertyOp2
 70
     1
102
RTVSPropertyOp3
 70
     1
102
RTVSPropertyOp4
 70
     1
102
RTVSPropertyOp5
 70
     1
102
RTVSPropertyOp6
 70
     1
102
RTVSPropertyOp7
 70
     1
102
RTVSPropertyOp8
 70
     1
102
RTVSPropertyOp9
 70
     1
102
RTVSPropertyOp10
 70
     1
102
RTVSPropertyOp11
 70
     1
102
RTVSPropertyOp12
 70
     1
102
RTVSPropertyOp13
 70
     1
102
RTVSPropertyOp14
 70
     1
102
RTVSPropertyOp15
 70
     1
102
RTVSPropertyOp16
 70
     1
102
RTVSPropertyOp17
 70
     1
102
RTVSPropertyOp18
 70
     1
102
RTVSPropertyOp19
 70
     1
102
RTVSPropertyOp20
 70
     1
102
RTVSPropertyOp21
 70
     1
102
RTVSPropertyOp22
 70
     1
102
RTVSPropertyOp23
 70
     1
102
RTVSPropertyOp24
 70
     1
102
RTVSPropertyOp25
 70
     1
102
RTVSPropertyOp26
 70
     1
102
RTVSPropertyOp27
 70
     1
  0
XRECORD
  5
55B
102
{ACAD_REACTORS
330
55A
102
}
330
55A
100
AcDbXrecord
280
     1
102
RTVSPropertyOp0
 70
     1
102
RTVSPropertyOp1
 70
     1
102
RTVSPropertyOp2
 70
     1
102
RTVSPropertyOp3
 70
     1
102
RTVSPropertyOp4
 70
     1
102
RTVSPropertyOp5
 70
     1
102
RTVSPropertyOp6
 70
     1
102
RTVSPropertyOp7
 70
     1
102
RTVSPropertyOp8
 70
     1
102
RTVSPropertyOp9
 70
     1
102
RTVSPropertyOp10
 70
     1
102
RTVSPropertyOp11
 70
     1
102
RTVSPropertyOp12
 70
     1
102
RTVSPropertyOp13
 70
     1
102
RTVSPropertyOp14
 70
     1
102
RTVSPropertyOp15
 70
     1
102
RTVSPropertyOp16
 70
     1
102
RTVSPropertyOp17
 70
     1
102
RTVSPropertyOp18
 70
     1
102
RTVSPropertyOp19
 70
     1
102
RTVSPropertyOp20
 70
     1
102
RTVSPropertyOp21
 70
     1
102
RTVSPropertyOp22
 70
     1
102
RTVSPropertyOp23
 70
     1
102
RTVSPropertyOp24
 70
     1
102
RTVSPropertyOp25
 70
     1
102
RTVSPropertyOp26
 70
     1
102
RTVSPropertyOp27
 70
     1
  0
XRECORD
  5
551
102
{ACAD_REACTORS
330
550
102
}
330
550
100
AcDbXrecord
280
     1
102
RTVSPropertyOp0
 70
     1
102
RTVSPropertyOp1
 70
     1
102
RTVSPropertyOp2
 70
     1
102
RTVSPropertyOp3
 70
     1
102
RTVSPropertyOp4
 70
     1
102
RTVSPropertyOp5
 70
     1
102
RTVSPropertyOp6
 70
     1
102
RTVSPropertyOp7
 70
     1
102
RTVSPropertyOp8
 70
     1
102
RTVSPropertyOp9
 70
     1
102
RTVSPropertyOp10
 70
     1
102
RTVSPropertyOp11
 70
     1
102
RTVSPropertyOp12
 70
     1
102
RTVSPropertyOp13
 70
     1
102
RTVSPropertyOp14
 70
     1
102
RTVSPropertyOp15
 70
     1
102
RTVSPropertyOp16
 70
     1
102
RTVSPropertyOp17
 70
     1
102
RTVSPropertyOp18
 70
     1
102
RTVSPropertyOp19
 70
     1
102
RTVSPropertyOp20
 70
     1
102
RTVSPropertyOp21
 70
     1
102
RTVSPropertyOp22
 70
     1
102
RTVSPropertyOp23
 70
     1
102
RTVSPropertyOp24
 70
     1
102
RTVSPropertyOp25
 70
     1
102
RTVSPropertyOp26
 70
     1
102
RTVSPropertyOp27
 70
     1
  0
XRECORD
  5
559
102
{ACAD_REACTORS
330
558
102
}
330
558
100
AcDbXrecord
280
     1
102
RTVSPropertyOp0
 70
     1
102
RTVSPropertyOp1
 70
     1
102
RTVSPropertyOp2
 70
     1
102
RTVSPropertyOp3
 70
     1
102
RTVSPropertyOp4
 70
     1
102
RTVSPropertyOp5
 70
     1
102
RTVSPropertyOp6
 70
     1
102
RTVSPropertyOp7
 70
     1
102
RTVSPropertyOp8
 70
     1
102
RTVSPropertyOp9
 70
     1
102
RTVSPropertyOp10
 70
     1
102
RTVSPropertyOp11
 70
     1
102
RTVSPropertyOp12
 70
     1
102
RTVSPropertyOp13
 70
     1
102
RTVSPropertyOp14
 70
     1
102
RTVSPropertyOp15
 70
     1
102
RTVSPropertyOp16
 70
     1
102
RTVSPropertyOp17
 70
     1
102
RTVSPropertyOp18
 70
     1
102
RTVSPropertyOp19
 70
     1
102
RTVSPropertyOp20
 70
     1
102
RTVSPropertyOp21
 70
     1
102
RTVSPropertyOp22
 70
     1
102
RTVSPropertyOp23
 70
     1
102
RTVSPropertyOp24
 70
     1
102
RTVSPropertyOp25
 70
     1
102
RTVSPropertyOp26
 70
     1
102
RTVSPropertyOp27
 70
     1
  0
ENDSEC
  0
SECTION
  2
THUMBNAILIMAGE
 90
    45386
310
28000000D2000000D1000000010008000000000014AD000000000000000000000000000000000000000000000000330000006600000099000000CC000000FF00003300000033330000336600003399000033CC000033FF00006600000066330000666600006699000066CC000066FF00009900000099330000996600009999
310
000099CC000099FF0000CC000000CC330000CC660000CC990000CCCC0000CCFF0000FF000000FF330000FF660000FF990000FFCC0000FFFF00330000003300330033006600330099003300CC003300FF00333300003333330033336600333399003333CC003333FF00336600003366330033666600336699003366CC003366
310
FF00339900003399330033996600339999003399CC003399FF0033CC000033CC330033CC660033CC990033CCCC0033CCFF0033FF000033FF330033FF660033FF990033FFCC0033FFFF00660000006600330066006600660099006600CC006600FF00663300006633330066336600663399006633CC006633FF006666000066
310
66330066666600666699006666CC006666FF00669900006699330066996600669999006699CC006699FF0066CC000066CC330066CC660066CC990066CCCC0066CCFF0066FF000066FF330066FF660066FF990066FFCC0066FFFF00990000009900330099006600990099009900CC009900FF00993300009933330099336600
310
993399009933CC009933FF00996600009966330099666600996699009966CC009966FF00999900009999330099996600999999009999CC009999FF0099CC000099CC330099CC660099CC990099CCCC0099CCFF0099FF000099FF330099FF660099FF990099FFCC0099FFFF00CC000000CC003300CC006600CC009900CC00CC
310
00CC00FF00CC330000CC333300CC336600CC339900CC33CC00CC33FF00CC660000CC663300CC666600CC669900CC66CC00CC66FF00CC990000CC993300CC996600CC999900CC99CC00CC99FF00CCCC0000CCCC3300CCCC6600CCCC9900CCCCCC00CCCCFF00CCFF0000CCFF3300CCFF6600CCFF9900CCFFCC00CCFFFF00FF00
310
0000FF003300FF006600FF009900FF00CC00FF00FF00FF330000FF333300FF336600FF339900FF33CC00FF33FF00FF660000FF663300FF666600FF669900FF66CC00FF66FF00FF990000FF993300FF996600FF999900FF99CC00FF99FF00FFCC0000FFCC3300FFCC6600FFCC9900FFCCCC00FFCCFF00FFFF0000FFFF3300FF
310
FF6600FFFF9900FFFFCC00FFFFFF0000000000000000000000000000000000000000000000000000000000000000000000000000000000000000000000000000000000000000000000000000000000000000000000000000000000000000000000000000000000000000000000000000000000000000000000000000000000
310
000000000000000000000000000000000000000000000000000000000000000000000000000000000000000000000000D7D7D7D7D7D7D7D7D7D7D7D7D7D7D7D7D7D7D7D7D7D7D7D7D7D7D7D7D7D7D7D7D7D7D7D7D7D7D7D7D7D7D7D7D7D7D7D7D7D7D7D7D7D7D7D7D7D7D7D7D7D7D7D7D7D7D7D7D7D7D7D7D7D7D7D7D7D7D7
310
D7D7D7D7D7D7D7D7D7D7D7D7D7D7D7D7D7D7D7D7D7D7D7D7D7D7D7D7D7D7D7D7D7D7D7D7D7D7D7D7D7D7D7D7D7D7D7D7D7D7D7D7D7D7D7D7D7D7D7D7D7D7D7D7D7D7D7D7D7D7D7D7D7D7D7D7D7D7D7D7D7D7D7D7D7D7D7D7D7D7D7D7D7D7D7D7D7D7D7D7D7D7D7D7D7D7D7D7D7D7D7D7D7D7D7D7D7D7D7D7D7D7D7D7D7D7D7
310
D7D7D7D70000D7D7D7D7D7D7D7D7D7D7D7D7D7D7D7D7D7D7D7D7D7D7D7D7D7D7D7D7D7D7D7D7D7D7D7D7D7D7D7D7D7D7D7D7D7D7D7D7D7D7D7D7D7D7D7D7D7D7D7D7D7D7D7D7D7D7D7D7D7D7D7D7D7D7D7D7D7D7D7D7D7D7D7D7D7D7D7D7D7D7D7D7D7D7D7D7D7D7D7D7D7D7D7D7D7D7D7D7D7D7D7D7D7D7D7D7D7D7D7D7D7
310
D7D7D7D7D7D7D7D7D7D7D7D7D7D7D7D7D7D7D7D7D7D7D7D7D7D7D7D7D7D7D7D7D7D7D7D7D7D7D7D7D7D7D7D7D7D7D7D7D7D7D7D7D7D7D7D7D7D7D7D7D7D7D7D7D7D7D7D7D7D7D7D7D7D7D7D7D7D7D7D7D7D7D7D7D7D7D7D7D70000D7D7D7D7D7D7D7D7D7D7D7D7D7D7D7D7D7D7D7D7D7D7D7D7D7D7D7D7D7D7D7D7D7D7D7D7
310
D7D7D7D7D7D7D7D7D7D7D7D7D7D7D7D7D7D7D7D7D7D7D7D7D7D7D7D7D7D7D7D7D7D7D7D7D7D7D7D7D7D7D7D7D7D7D7D7D7D7D7D7D7D7D7D7D7D7D7D7D7D7D7D7D7D7D7D7D7D7D7D7D7D7D7D7D7D7D7D7D7D7D7D7D7D7D7D7D7D7D7D7D7D7D7D7D7D7D7D7D7D7D7D7D7D7D7D7D7D7D7D7D7D7D7D7D7D7D7D7D7D7D7D7D7D7D7
310
D7D7D7D7D7D7D7D7D7D7D7D7D7D7D7D7D7D7D7D7D7D7D7D7D7D7D7D7D7D7D7D7D7D7D7D7D7D7D7D7D7D7D7D7D7D7D70000D7D7D7D7D7D7D7D7D7D7D7D7D7D7D7D7D7D7D7D7D7D7D7D7D7D7D7D7D7D7D7D7D7D7D7D7D7D7D7D7D7D7D7D7D7D7D7D7D7D7D7D7D7D7D7D7D7D7D7D7D7D7D7D7D7D7D7D7D7D7D7D7D7D7D7D7D7D7
310
D7D7D7D7D7D7D7D7D7D7D7D7D7D7D7D7D7D7D7D7D7D7D7D7D7D7D7D7D7D7D7D7D7D7D7D7D7D7D7D7D7D7D7D7D7D7D7D7D7D7D7D7D7D7D7D7D7D7D7D7D7D7D7D7D7D7D7D7D7D7D7D7D7D7D7D7D7D7D7D7D7D7D7D7D7D7D7D7D7D7D7D7D7D7D7D7D7D7D7D7D7D7D7D7D7D7D7D7D7D7D7D7D7D7D7D7D7D7D7D7D7D7D7D7D7D7D7
310
D7D7D7D7D70000D7D7D7D7D7D7D7D7D7D7D7D7D7D7D7D7D7D7D7D7D7D7D7D7D7D7D7D7D7D7D7D7D7D7D7D7D7D7D7D7D7D7D7D7D7D7D7D7D7D7D7D7D7D7D7D7D7D7D7D7D7D7D7D7D7D7D7D7D7D7D7D7D7D7D7D7D7D7D7D7D7D7D7D7D7D7D7D7D7D7D7D7D7D7D7D7D7D7D7D7D7D7D7D7D7D7D7D7D7D7D7D7D7D7D7D7D7D7D7D7
310
D7D7D7D7D7D7D7D7D7D7D7D7D7D7D7D7D7D7D7D7D7D7D7D7D7D7D7D7D7D7D7D7D7D7D7D7D7D7D7D7D7D7D7D7D7D7D7D7D7D7D7D7D7D7D7D7D7D7D7D7D7D7D7D7D7D7D7D7D7D7D7D7D7D7D7D7D7D7D7D7D7D7D7D7D7D7D7D7D7D70000D7D7D7D7D7D7D7D7D7D7D7D7D7D7D7D7D7D7D7D7D7D7D7D7D7D7D7D7D7D7D7D7D7D7D7
310
D7D7D7D7D7D7D7D7D7D7D7D7D7D7D7D7D7D7D7D7D7D7D7D7D7D7D7D7D7D7D7D7D7D7D7D7D7D7D7D7D7D7D7D7D7D7D7D7D7D7D7D7D7D7D7D7D7D7D7D7D7D7D7D7D7D7D7D7D7D7D7D7D7D7D7D7D7D7D7D7D7D7D7D7D7D7D7D7D7D7D7D7D7D7D7D7D7D7D7D7D7D7D7D7D7D7D7D7D7D7D7D7D7D7D7D7D7D7D7D7D7D7D7D7D7D7D7
310
D7D7D7D7D7D7D7D7D7D7D7D7D7D7D7D7D7D7D7D7D7D7D7D7D7D7D7D7D7D7D7D7D7D7D7D7D7D7D7D7D7D7D7D7D7D7D7D70000D7D7D7D7D7D7D7D7D7D7D7D7D7D7D7D7D7D7D7D7D7D7D7D7D7D7D7D7D7D7D7D7D7D7D7D7D7D7D7D7D7D7D7D7D7D7D7D7D7D7D7D7D7D7D7D7D7D7D7D7D7D7D7D7D7D7D7D7D7D7D7D7D7D7D7D7D7
310
D7D7D7D7D7D7D7D7D7D7D7D7D7D7D7D7D7D7D7D7D7D7D7D7D7D7D7D7D7D7D7D7D7D7D7D7D7D7D7D7D7D7D7D7D7D7D7D7D7D7D7D7D7D7D7D7D7D7D7D7D7D7D7D7D7D7D7D7D7D7D7D7D7D7D7D7D7D7D7D7D7D7D7D7D7D7D7D7D7D7D7D7D7D7D7D7D7D7D7D7D7D7D7D7D7D7D7D7D7D7D7D7D7D7D7D7D7D7D7D7D7D7D7D7D7D7D7
310
D7D7D7D7D7D70000D7D7D7D7D7D7D7D7D7D7D7D7D7D7D7D7D7D7D7D7D7D7D7D7D7D7D7D7D7D7D7D7D7D7D7D7D7D7D7D7D7D7D7D7D7D7D7D7D7D7D7D7D7D7D7D7D7D7D7D7D7D7D7D7D7D7D7D7D7D7D7D7D7D7D7D7D7D7D7D7D7D7D7D7D7D7D7D7D7D7D7D7D7D7D7D7D7D7D7D7D7D7D7D7D7D7D7D7D7D7D7D7D7D7D7D7D7D7D7
310
D7D7D7D7D7D7D7D7D7D7D7D7D7D7D7D7D7D7D7D7D7D7D7D7D7D7D7D7D7D7D7D7D7D7D7D7D7D7D7D7D7D7D7D7D7D7D7D7D7D7D7D7D7D7D7D7D7D7D7D7D7D7D7D7D7D7D7D7D7D7D7D7D7D7D7D7D7D7D7D7D7D7D7D7D7D7D7D7D7D7D70000D7D7D7D7D7D7D7D7D7D7D7D7D7D7D7D7D7D7D7D7D7D7D7D7D7D7D7D7D7D7D7D7D7D7
310
D7D7D7D7D7D7D7D7D7D7D7D7D7D7D7D7D7D7D7D7D7D7D7D7D7D7D7D7D7D7D7D7D7D7D7D7D7D7D7D7D7D7D7D7D7D7D7D7D7D7D7D7D7D7D7D7D7D7D7D7D7D7D7D7D7D7D7D7D7D7D7D7D7D7D7D7D7D7D7D7D7D7D7D7D7D7D7D7D7D7D7D7D7D7D7D7D7D7D7D7D7D7D7D7D7D7D7D7D7D7D7D7D7D7D7D7D7D7D7D7D7D7D7D7D7D7D7
310
D7D7D7D7D7D7D7D7D7D7D7D7D7D7D7D7D7D7D7D7D7D7D7D7D7D7D7D7D7D7D7D7D7D7D7D7D7D7D7D7D7D7D7D7D7D7D7D7D70000D7D7D7D7D7D7D7D7D700000000000000000000000000000000000000000000000000000000000000000000000000000000000000000000000000000000000000000000000000000000000000
310
0000000000000000000000000000000000000000000000000000000000000000000000000000000000000000000000000000000000000000000000000000000000000000000000000000000000000000000000000000000000000000000000000000000000000000000000000000000000000000000000000000000000D7D7
310
D7D7D7D7D7D7D70000D7D7D7D7D7D7D7D7D700D7D7D7D7D7D7D7D7D7D7D7D7D7D7D7D7D7D7D7D7D7D7D7D7D7D7D7D7D7D7D7D7D70000D7D7D7D7D7D7D7D7D7D7D7D7D7D7D7D7D7D7D7D7D7D7D7D7D7D7D700D7D7D7D7D7D7D7D7D7D7D7D7D7D7D7D7D7D7D7D7D7D7D7D7D7D7D7D7D7D7D7D7D7D7D7D7D7D7D7D7D7D7D7D7D7
310
D7D7D7D7D7D7D7D7D7D7D7D7D7D7D7D7D7D7D7D7D7D7D7D7D7D7D7D7D7D7D7D7D7D7D7D7D7D7D7D7D7D7D7D7D7D7D7D7D7D7D7D7D7D7D7D7D7D7D7D7D7D7D7D7D7D7D7D7D7D7D7D7D7D7D7D7D7D7D7D7D7D700D7D7D7D7D7D7D7D7D70000D7D7D7D7D7D7D7D7D700D7D7D7D7D7D7D7D7D7D7D7D7D7D7D7D7D7D7D7D7D7D7D7
310
D7D7D7D7D7D7D7D7D7D7D7D700D7D7D7D7D7D7D7D7D7D7D7D7D7D7D7D7D7D7D7D7D7D7D7D7D7D700D7D7D7D7D7D7D7D7D7D7D7D7D7D7D7D7D7D7D7D7D7D7D7D7D7D7D7D7D7D7D7D7D7D7D7D7D7D7D7D7D7D7D7D7D7D7D7D7D7D7D7D7D7D7D7D7D7D7D7D7D7D7D7D7D7D7D7D7D7D7D7D7D7D7D7D7D7D7D7D7D7D7D7D7D7D7D7
310
D7D7D7D7D7D7D7D7D7D7D7D7D7D7D7D7D7D7D7D7D7D7D7D7D7D7D7D7D7D7D7D7D7D7D7D7D7D7D7D700D7D7D7D7D7D7D7D7D70000D7D7D7D7D7D7D7D7D700D7D7D7D7D7D7D7D7D700D7D7D7D7D7D7D7D7D70000D7D7D700D7D7D7D7D7D700D700D70000D7D7D700D7D700D70000D700D7D7D7D7D7D7D700D700D7D700D700D7
310
D70000D7D7D700D7D700D7D7D700D7D7D7D700D700D700D7D70000D7D7D7D7D7D700D70000D700D7D700D7D7D7D700D7D7D7D7D7D7D7D7D7D7D7D7D7D7D7D7D7D7D7D7D7D7D7D7D7D7D7D7D7D7D7D7D7D7D7D7D7D7D7D7D7D7D7D7D7D7D7D7D7D7D7D7D7D7D7D7D7D7D7D7D7D7D7D7D7D7D7D7D7D7D7D7D7D7D7D7D7D700D7
310
D7D7D7D7D7D7D7D70000D7D7D7D7D7D7D7D7D700D7D7D7D7D7D7D7D7D700D7D700D7D7D7D7D7D70000D7D7D700D7D7D7D7D7D700D700D70000D7D7D700D7D700D700D7D700D7D7D7D7D7D7D700D700D7D700D700D7D70000D7D7D700D7D700D7D7D700D7D7D7D7D7D700D700D7D70000D7D7D7D7D7D700D70000D700D7D700
310
D7D7D7D700D7D7D7D7D7D7D7D7D7D7D7D7D7D7D7D7D7D7D7D7D7D7D7D7D7D7D7D7D7D7D7D7D7D7D7D7D7D7D7D7D7D7D7D7D7D7D7D7D7D7D7D7D7D7D7D7D7D7D7D7D7D7D7D7D7D7D7D7D7D7D7D7D7D7D7D7D7D700D7D7D7D7D7D7D7D7D70000D7D7D7D7D7D7D7D7D700D7D7D7D7D7D7D700D7D7D700D7D7D700D70000D7D700
310
D7D700D7D70000D7D7D7D7D70000D700D7D700D7D7D700D7000000D70000D70000D7D700D7D70000D7D7D7D70000D7D7D7000000D7D7D7D7000000D7D7000000D700D7D70000D700000000D7D700D700D700D7D7000000D7D70000D7D7D7D7D7D7D7D7D7D7D7D7D7D7D7D7D7D7D7D7D7D7D7D7D7D7D7D7D7D7D7D7D7D7D7D7
310
D7D7D7D7D7D7D7D7D7D7D7D7D7D7D7D7D7D7D7D7D7D7D7D7D7D7D7D7D7D7D7D7D7D7D7D7D7D7D7D7D700D7D7D7D7D7D7D7D7D70000D7D7D7D7D7D7D7D7D700D7D7D7D7D7D7D7D7D7D7D7D7D7D7D7D7D7D7D7D7D7D7D7D7D7D7D7D7D7D7D7D7D7D7D7D7D7D7D7D7D7D7D7D7D7D7D7D7D7D7D7D7D7D7D7D7D7D7D7D7D7D7D7D7
310
D7D7D7D7D7D7D7D7D7D7D7D7D7D7D7D7D7D7D7D7D7D7D7D7D7D7D7D7D7D7D7D7D7D7D7D7D7D7D7D7D7D7D7D7D7D7D7D7D7D7D7D7D7D7D7D7D7D7D7D7D7D7D7D7D7D7D7D7D7D7D7D7D7D7D7D7D7D7D7D7D7D7D7D7D7D7D7D7D7D7D7D7D7D7D7D7D7D7D7D7D7D7D7D7D7D7D7D7D7D7D7D7D7D7D7D7D7D7D7D7D7D7D7D7D7D700
310
D7D7D7D7D7D7D7D7D70000D7D7D7D7D7D7D7D7D700D7D7D7D7D7D7D7D7D7D7D7D7D7D7D7D7D7D7D7D7D7D7D7D7D7D7D7D7D7D7D7D7D7D7D7D7D7D7D7D7D7D7D7D7D7D7D7D7D7D7D7D7D7D7D7D7D7D7D7D7D7D7D7D7D7D7D7D7D7D7D7D7D7D7D7D7D7D7D7D7D7D7D7D7D7D7D7D7D7D7D7D7D7D7D7D7D7D7D7D7D7D7D7D7D7D7
310
D7D7D7D7D7D7D7D7D7D7D7D7D7D7D7D7D7D7D7D7D7D7D7D7D7D7D7D7D7D7D7D7D7D7D7D7D7D7D7D7D7D7D7D7D7D7D7D7D7D7D7D7D7D7D7D7D7D7D7D7D7D7D7D7D7D7D7D7D7D7D7D7D7D7D7D7D7D7D7D7D7D7D7D700D7D7D7D7D7D7D7D7D70000D7D7D7D7D7D7D7D7D700D7D7D7D7D7D7D7D7D7D7D7D7D7D7D7D7D7D7D7D7D7
310
D7D7D7D7D7D7D7D7D7D7D7D7D7D7D7D7D7D7D7D7D7D7D7D7D7D7D7D7D7D7D7D7D7D7D7D7D7D7D7D7D7D7D7D7D7D7D7D7D7D7D7D7D7D7D7D7D7D7D7D7D7D7D7D7D7D7D7D7D7D7D7D7D7D7D7D7D7D7D7D7D7D7D7D7D7D7D7D7D7D7D7D7D7D7D7D7D7D7D7D7D7D7D7D7D7D7D7D7D7D7D7D7D7D7D7D7D7D7D7D7D7D7D7D7D7D7D7
310
D7D7D7D7D7D7D7D7D7D7D7D7D7D7D7D7D7D7D7D7D7D7D7D7D7D7D7D7D7D7D7D7D7D7D7D7D7D7D7D7D7D700D7D7D7D7D7D7D7D7D70000D7D7D7D7D7D7D7D7D700D7D7D7D7D7D7D7D7D7D7D7D7D7D7D7D7D7D7D7D7D7D7D7D7D7D7D7D7D7D7D7D7D7D7D7D7D7D7D7D7D7D7D7D7D7D7D7D7D7D7D7D7D7D7D7D7D7D7D7D7D7D7D7
310
D7D7D7D7D7D7D7D7D7D7D7D7D7D7D7D7D7D7D7D7D7D7D7D7D7D7D7D7D7D7D7D7D7D7D7D7D7D7D7D7D7D7D7D7D7D7D7D7D7D7D7D7D7D7D7D7D7D7D7D7D7D7D7D7D7D7D7D7D7D7D7D7D7D7D7D7D7D7D7D7D7D7D7D7D7D7D7D7D7D7D7D7D7D7D7D7D7D7D7D7D7D7D7D7D7D7D7D7D7D7D7D7D7D7D7D7D7D7D7D7D7D7D7D7D7D7D7
310
00D7D7D7D7D7D7D7D7D70000D7D7D7D7D7D7D7D7D700D7D7D7D7D7D7D7D7D7D7D7D7D7D7D7D7D7D7D7D7D7D7D7D7D7D7D7D7D7D7D7D7D7D7D7D7D7D7D7D7D7D7D7D7D7D7D7D7D7D7D7D7D7D7D7D7D7D7D7D7D7D7D7D7D7D7D7D7D7D7D7D7D7D7D7D7D7D7D7D7D7D7D7D7D7D7D7D7D7D7D7D7D7D7D7D7D7D7D7D7D7D7D7D7D7
310
D7D7D7D7D7D7D7D7D7D7D7D7D7D7D7D7D7D7D7D7D7D7D7D7D7D7D7D7D7D7D7D7D7D7D7D7D7D7D7D7D7D7D7D7D7D7D7D7D7D7D7D7D7D7D7D7D7D7D7D7D7D7D7D7D7D7D7D7D7D7D7D7D7D7D7D7D7D7D7D7D7D7D7D7D700D7D7D7D7D7D7D7D7D70000D7D7D7D7D7D7D7D7D700D7D7D7D7D7D7D7D7D7D7D7D7D7D7D7D7D7D7D7D7
310
D7D7D7D7D7D7D7D7D7D7D7D7D7D7D7D7D7D7D7D7D7D7D7D7D7D7D7D7D7D7D7D7D7D7D7D7D7D7D7D7D7D7D7D7D7D7D7D7D7D7D7D7D7D7D7D7D7D7D7D7D7D7D7D7D7D7D7D7D7D7D7D7D7D7D7D7D7D7D7D7D7D7D7D7D7D7D7D7D7D7D7D7D7D7D7D7D7D7D7D7D7D7D7D7D7D7D7D7D7D7D7D7D7D7D7D7D7D7D7D7D7D7D7D7D7D7D7
310
D7D7D7D7D7D7D7D7D7D7D7D7D7D7D7D7D7D7D7D7D7D7D7D7D7D7D7D7D7D7D7D7D7D7D7D7D7D7D7D7D7D7D700D7D7D7D7D7D7D7D7D70000D7D7D7D7D7D7D7D7D700D7D7D7D7D7D7D7D7D7D7D7D7D7D7D7D7D7D7D7D7D7D7D7D7D7D7D7D7D7D7D7D7D7D7D7D7D7D7D7D7D7D7D7D7D7D7D7D7D7D7D7D7D7D7D7D7D7D7D7D7D7D7
310
D7D7D7D7D7D7D7D7D7D7D7D7D7D7D7D7D7D7D7D7D7D7D7D7D7D7D7D7D7D7D7D7D7D7D7D7D7D7D7D7D7D7D7D7D7D7D7D7D7D7D7D7D7D7D7D7D7D7D7D7D7D7D7D7D7D7D7D7D7D7D7D7D7D7D7D7D7D7D7D7D7D7D7D7D7D7D7D7D7D7D7D7D7D7D7D7D7D7D7D7D7D7D7D7D7D7D7D7D7D7D7D7D7D7D7D7D7D7D7D7D7D7D7D7D7D7D7
310
D700D7D7D7D7D7D7D7D7D70000D7D7D7D7D7D7D7D7D700D7D7D7D7D7D7D7D7D7D7D7D7D7D7D7D7D7D7D7D7D7D7D7D7D7D7D7D7D7D7D7D7D7D7D7D7D7D7D7D7D7D7D7D7D7D7D7D7D7D7D7D7D7D7D7D7D7D7D7D7D7D7D7D7D7D7D7D7D7D7D7D7D7D7D7D7D7D7D7D7D7D7D7D7D7D7D7D7D7D7D7D7D7D7D7D7D7D7D7D7D7D7D7D7
310
D7D7D7D7D7D7D7D7D7D7D7D7D7D7D7D7D7D7D7D7D7D7D7D7D7D7D7D7D7D7D7D7D7D7D7D7D7D7D7D7D7D7D7D7D7D7D7D7D7D7D7D7D7D7D7D7D7D7D7D7D7D7D7D7D7D7D7D7D7D7D7D7D7D7D7D7D7D7D7D7D7D7D7D7D7D700D7D7D7D7D7D7D7D7D70000D7D7D7D7D7D7D7D7D700D7D7D7D7D7D7D7D7D7D7D7D7D7D7D7D7D7D7D7
310
D7D7D7D7D7D7D7D7D7D7D7D7D7D7D7D7D7D7D7D7D7D7D7D7D7D7D7D7D7D7D7D7D7D7D7D7D7D7D7D7D7D7D7D7D7D7D7D7D7D7D7D7D7D7D7D7D7D7D7D7D7D7D7D7D7D7D7D7D7D7D7D7D7D7D7D7D7D7D7D7D7D7D7D7D7D7D7D7D7D7D7D7D7D7D7D7D7D7D7D7D7D7D7D7D7D7D7D7D7D7D7D7D7D7D7D7D7D7D7D7D7D7D7D7D7D7D7
310
D7D7D7D7D7D7D7D7D7D7D7D7D7D7D7D7D7D7D7D7D7D7D7D7D7D7D7D7D7D7D7D7D7D7D7D7D7D7D7D7D7D7D7D700D7D7D7D7D7D7D7D7D70000D7D7D7D7D7D7D7D7D700D7D7D7D7D7D7D7D7D7D7D7D7D7D7D7D7D7D7D7D7D7D7D7D7D7D7D7D7D7D7D7D7D7D7D7D7D7D7D7D7D7D7D7D7D7D7D7D7D7D7D7D7D7D7D7D7D7D7D7D7D7
310
D7D7D7D7D7D7D7D7D7D7D7D7D7D7D7D7D7D7D7D7D7D7D7D7D7D7D7D7D7D7D7D7D7D7D7D7D7D7D7D7D7D7D7D7D7D7D7D7D7D7D7D7D7D7D7D7D7D7D7D7D7D7D7D7D7D7D7D7D7D7D7D7D7D7D7D7D7D7D7D7D7D7D7D7D7D7D7D7D7D7D7D7D7D7D7D7D7D7D7D7D7D7D7D7D7D7D7D7D7D7D7D7D7D7D7D7D7D7D7D7D7D7D7D7D7D7D7
310
D7D700D7D7D7D7D7D7D7D7D70000D7D7D7D7D7D7D7D7D700D7D7D7D7D7D7D7D7D7D7D7D7D7D7D7D7D7D7D7D7D7D7D7D7D7D7D7D7D7D7D7D7D7D7D7D7D7D7D7D7D7D7D7D7D7D7D7D7D7D7D7D7D7D7D7D7D7D7D7D7D7D7D7D7D7D7D7D7D7D7D7D7D7D7D7D7D7D7D7D7D7D7D7D7D7D7D7D7D7D7D7D7D7D7D7D7D7D7D7D7D7D7D7
310
D7D7D7D7D7D7D7D7D7D7D7D7D7D7D7D7D7D7D7D7D7D7D7D7D7D7D7D7D7D7D7D7D7D7D7D7D7D7D7D7D7D7D7D7D7D7D7D7D7D7D7D7D7D7D7D7D7D7D7D7D7D7D7D7D7D7D7D7D7D7D7D7D7D7D7D7D7D7D7D7D7D7D7D7D7D7D700D7D7D7D7D7D7D7D7D70000D7D7D7D7D7D7D7D7D700D7D7D7D7D7D7D7D7D7D7D7D7D7D7D7D7D7D7
310
D7D7D7D7D7D7D7D7D7D7D7D7D7D7D7D7D7D7D7D7D7D7D7D7D7D7D7D7D7D7D7D7D7D7D7D7D7D7D7D7D7D7D7D7D7D7D7D7D7D7D7D7D7D7D7D7D7D7D7D7D7D7D7D7D7D7D7D7D7D7D7D7D7D7D7D7D7D7D7D7D7D7D7D7D7D7D7D7D7D7D7D7D7D7D7D7D7D7D7D7D7D7D7D7D7D7D7D7D7D7D7D7D7D7D7D7D7D7D7D7D7D7D7D7D7D7D7
310
D7D7D7D7D7D7D7D7D7D7D7D7D7D7D7D7D7D7D7D7D7D7D7D7D7D7D7D7D7D7D7D7D7D7D7D7D7D7D7D7D7D7D7D7D700D7D7D7D7D7D7D7D7D70000D7D7D7D7D7D7D7D7D700D7D7D7D7D7D7D7D7D7D7D7D7D7D7D7D7D7D7D7D7D7D7D7D7D7D7D7D7D7D7D7D7D7D7D7D7D7D7D7D7D7D7D7D7D7D7D7D7D7D7D7D7D7D7D7D7D7D7D7D7
310
D7D7D7D7D7D7D7D7D7D7D7D7D7D7D7D7D7D7D7D7D7D7D7D7D7D7D7D7D7D7D7D7D7D7D7D7D7D7D7D7D7D7D7D7D7D7D7D7D7D7D7D7D7D7D7D7D7D7D7D7D7D7D7D7D7D7D7D7D7D7D7D7D7D7D7D7D7D7D7D7D7D7D7D7D7D7D7D7D7D7D7D7D7D7D7D7D7D7D7D7D7D7D7D7D7D7D7D7D7D7D7D7D7D7D7D7D7D7D7D7D7D7D7D7D7D7D7
310
D7D7D700D7D7D7D7D7D7D7D7D70000D7D7D7D7D7D7D7D7D700D7D7D7D7D7D7D7D7D7D7D7D7D7D7D7D7D7D7D7D7D7D7D7D7D7D7D7D7D7D7D7D7D7D7D7D7D7D7D7D7D7D7D7D7D7D7D7D7D7D7D7D7D7D7D7D7D7D7D7D7D7D7D7D7D7D7D7D7D7D7D7D7D7D7D7D7D7D7D7D7D7D7D7D7D7D7D7D7D7D7D7D7D7D7D7D7D7D7D7D7D7D7
310
D7D7D7D7D7D7D7D7D7D7D7D7D7D7D7D7D7D7D7D7D7D7D7D7D7D7D7D7D7D7D7D7D7D7D7D7D7D7D7D7D7D7D7D7D7D7D7D7D7D7D7D7D7D7D7D7D7D7D7D7D7D7D7D7D7D7D7D7D7D7D7D7D7D7D7D7D7D7D7D7D7D7D7D7D7D7D7D700D7D7D7D7D7D7D7D7D70000D7D7D7D7D7D7D7D7D700D7D7D7D7D7D7D7D7D7D7D7D7D7D7D7D7D7
310
D7D7D7D7D7D7D7D7D7D7D7D7D7D7D7D7D7D7D7D7D7D7D7D7D7D7D7D7D7D7D7D7D7D7D7D7D7D7D7D7D7D7D7D7D7D7D7D7D7D7D7D7D7D7D7D7D7D7D7D7D7D7D7D7D7D7D7D7D7D7D7D7D7D7D7D7D7D7D7D7D7D7D7D7D7D7D7D7D7D7D7D7D7D7D7D7D7D7D7D7D7D7D7D7D7D7D7D7D7D7D7D7D7D7D7D7D7D7D7D7D7D7D7D7D7D7D7
310
D7D7D7D7D7D7D7D7D7D7D7D7D7D7D7D7D7D7D7D7D7D7D7D7D7D7D7D7D7D7D7D7D7D7D7D7D7D7D7D7D7D7D7D7D7D700D7D7D7D7D7D7D7D7D70000D7D7D7D7D7D7D7D7D700D7D7D7D7D7D7D7D7D7D7D7D7D7D7D7D7D7D7D7D7D7D7D7D7D7D7D7D7D7D7D7D7D7D7D7D7D7D7D7D7D7D7D7D7D7D7D7D7D7D7D7D7D7D7D7D7D7D7D7
310
D7D7D7D7D7D7D7D7D7D7D7D7D7D7D7D7D7D7D7D7D7D7D7D7D7D7D7D7D7D7D7D7D7D7D7D7D7D7D7D7D7D7D7D7D7D7D7D7D7D7D7D7D7D7D7D7D7D7D7D7D7D7D7D7D7D7D7D7D7D7D7D7D7D7D7D7D7D7D7D7D7D7D7D7D7D7D7D7D7D7D7D7D7D7D7D7D7D7D7D7D7D7D7D7D7D7D7D7000000D700D7D70000D7D700D7D7D7D7D7D7D7
310
D7D7D7D700D7D7D7D7D7D7D7D7D70000D7D7D7D7D7D7D7D7D700D7D7D7D7D7D7D7D7D7D7D7D7D7D7D7D7D7D7D7D7D7D7D7D7D7D7D7D7D7D7D7D7D7D7D7D7D7D7D7D7D7D7D7D7D7D7D7D7D7D7D7D7D7D7D7D7D7D7D7D7D7D7D7D7D7D7D7D7D7D7D7D7D7D7D7D7D7D7D7D7D7D7D7D7D7D7D7D7D7D7D7D7D7D7D7D7D7D7D7D7D7
310
D7D7D7D7D7D7D7D7D7D7D7D7D7D7D7D7D7D7D7D7D7D7D7D7D7D7D7D7D7D7D7D7D7D7D7D7D7D7D7D7D7D7D7D7D7D7D7D7D7D7D7D7D7D7D7D7D7D7D7D7D7D7D7D7D7D7D70000D700D7D7D7D7D70000D7D7D7D7D7D7D7D7D7D7D700D7D7D7D7D7D7D7D7D70000D7D7D7D7D7D7D7D7D700D7D7D7D7D7D7D7D7D7D7D7D7D7D7D7D7
310
D7D7D7D7D7D7D7D7D7D7D7D7D7D7D7D7D7D7D7D7D7D7D7D7D7D7D7D7D7D7D7D7D7D7D7D7D7D7D7D7D7D7D7D7D7D7D7D7D7D7D7D7D7D7D7D7D7D7D7D7D7D7D7D7D7D7D7D7D7D7D7D7D7D7D7D7D7D7D7D7D7D7D7D7D7D7D7D7D7D7D7D7D7D7D7D7D7D7D7D7D7D7D7D7D7D7D7D7D7D7D7D7D7D7D7D7D7D7D7D7D7D7D7D7D7D7D7
310
D7D7D7D7D7D7D7D7D7D7D7D7D7D7D7D7D7D7D7D7D70000D7000000D700D7D70000D7D7D7D7D7D7D7D7D7D7D7D7D7D700D7D7D7D7D7D7D7D7D70000D7D7D7D7D7D7D7D7D700D7D7D7D7D7D7D7D7D7D7D7D7D7D7D7D7D7D7D7D7D7D7D7D7D7D7D7D7D7D7D7D7D7D7D7D7D7D7D7D7D7D7D7D7D7D7D7D7D7D7D7D7D7D7D7D7D7D7
310
D7D7D7D7D7D7D7D7D7D7D7D7D7D7D7D7D7D7D7D7D7D7D7D7D7D7D7D7D7D7D7D7D7D7D7D7D7D7D7D7D7D7D7D7D7D7D7D7D7D7D7D7D7D7D7D7D7D7D7D7D7D7D7D7D7D7D7D7D7D7D7D7D7D7D7D7D7D7D7D7D7D7D7D7D7D7D7D7D7D7D7D7D7D7D7D7D7D7D7D7D7D7D7D7D7D7D700D7D7D7D7D7D7D7D7D7D7D7D7D7D7D7D7D7D7D7
310
D7D7D7D7D700D7D7D7D7D7D7D7D7D70000D7D7D7D7D7D7D7D7D700D7D7D7D7D7D7D7D7D7D7D7D7D7D7D7D7D7D7D7D7D7D7D7D7D7D7D7D7D7D7D7D7D7D7D7D7D7D7D7D7D7D7D7D7D7D7D7D7D7D7D7D7D7D7D7D7D7D7D7D7D7D7D7D7D7D7D7D7D7D7D7D7D7D7D7D7D7D7D7D7D7D7D7D7D7D7D7D7D7D7D7D7D7D7D7D7D7D7D7D7
310
D7D7D7D7D7D7D7D7D7D7D7D7D7D7D7D7D7D7D7D7D7D7D7D7D7D7D7D7D7D7D7D7D7D7D7D7D7D7D7D7D7D7D7D7D7D7D7D7D7D7D7D7D7D7D7D7D7D7D7D7D7D7D7D7D7D7D7D7D7D7D7D7D7D7D7D7D7D7D7D7D7D7D7D7D7D7D7D7D7D700D7D7D7D7D7D7D7D7D70000D7D7D7D7D7D7D7D7D700D7D7D7D7D7D7D7D7D7D7D7D7D7D7D7
310
D7D7D7D7D7D7D7D7D7D7D7D7D7D7D7D7D7D7D7D7D7D7D7D7D7D7D7D7D7D7D7D7D7D7D7D7D7D7D7D7D7D7D7D7D7D7D7D7D7D7D7D7D7D7D7D7D7D7D7D7D7D7D7D7D7D7D7D7D7D7D7D7D7D7D7D7D7D7D7D7D7D7D7D7D7D7D7D7D7D7D7D7D7D7D7D7D7D7D7D7D7D7D7D7D7D7D7D7D7D7D7D7D7D7D7D7D7D7D7D7D7D7D7D7D7D7D7
310
D7D7D7D7D7D7D7D7D7D7D7D7D7D7D7D7D7D7D7D7D7D7D7D7D7D7D7D7D7D7D7D7D7D7D7D7D7D7D7D7D7D7D7D7D7D7D7D700D7D7D7D7D7D7D7D7D70000D7D7D7D7D7D7D7D7D700D7D7D7D7D7D7D7D7D7D7D7D7D7D7D7D7D7D7D7D7D7D7D7D7D7D7D7D7D7D7D7D7D7D7D7D7D7D7D7D7D7D7D7D7D7D7D7D7D7D7D7D7D7D7D7D7D7
310
D7D7D7D7D7D7D7D7D7D7D7D7D7D7D7D7D7D7D7D7D7D7D7D7D7D7D7D7D7D7D7D7D7D7D7D7D7D7D7D7D7D7D7D7D7D7D7D7D7D7D7D7D7D7D7D7D7D7D7D7D7D7D7D7D7D7D7D7D7D7D7D7D7D7D7D7D7D7D7D7D7D7D7D7D7D7D7D7D7D7D7D7D7D7D7D7D7D7D7D7D7D7D7D7D7D7D7D7D7D7D7D7D7D7D7D7D7D7D7D7D7D7D7D7D7D7D7
310
D7D7D7D7D7D700D7D7D7D7D7D7D7D7D70000D7D7D7D7D7D7D7D7D700D7D7D7D7D7D7D7D7D7D7D7D7D7D7D7D7D7D7D7D7D7D7D7D7D7D7D7D7D7D7D7D7D7D7D7D7D7D7D7D7D7D7D7D7D7D7D7D7D7D7D7D7D7D7D7D7D7D7D7D7D7D7D7D7D7D7D7D7D7D7D7D7D7D7D7D7D7D7D7D7D7D7D7D7D7D7D7D7D7D7D7D7D7D7D7D7D7D7D7
310
D7D7D7D7D7D7D7D7D7D7D7D7D7D7D7D7D7D7D7D7D7D7D7D7D7D7D7D7D7D7D70000D7D700D7D700D7D700D7D700D7D700D7D700D7D7D70000D7D7000000D7D700D70000D7D7D70000D70000D7D70000D7D7D7D7D7D7D7D7D7D7D7D700D7D7D7D7D7D7D7D7D70000D7D7D7D7D7D7D7D7D700D7D7D7D7D7D7D7D7D7D7D7D7D7D7
310
D7D7D7D7D7D7D7D7D7D7D7D7D7D7D7D7D7D7D7D7D7D7D7D7D7D7D7D7D7D7D7D7D7D7D7D7D7D7D7D7D7D7D7D7D7D7D7D7D7D7D7D7D7D7D7D7D7D7D7D7D7D7D7D7D7D7D7D7D7D7D7D7D7D7D7D7D7D7D7D7D7D7D7D7D7D7D7D7D7D7D7D7D7D7D7D7D7D7D7D7D7D7D7D7D7D7D7D7D7D7D7D7D7D7D7D7D7D7D70000D7D7D70000D7
310
D70000D70000D7D700D7D7D700D700D700D7D7D700D7D700D7D7D7D70000D70000D700D700D7D7D7D7D7D7D7D7D7D7D7D700D7D7D7D7D7D7D7D7D70000D7D7D7D7D7D7D7D7D700D7D7D7D7D7D7D7D7D7D7D7D7D7D7D7D7D7D7D7D7D7D7D7D7D7D7D7D7D7D7D7D7D7D7D7D7D7D7D7D7D7D7D7D7D7D7D7D7D7D7D7D7D7D7D7D7
310
D7D7D7D7D7D7D7D7D7D7D7D7D7D7D7D7D7D7D7D7D7D7D7D7D7D7D7D7D7D7D7D7D7D7D7D7D7D7D7D7D7D7D7D7D7D7D7D7D7D7D7D7D7D7D7D7D7D7D7D7D7D7D7D7D7D7D7D7D7D7D7D7D7D70000D7D7D7D700000000D7D7D7D7D7D7D7D7D700D7D7D70000D7D7000000D7D700D70000D7D7D70000D700D7D7D70000D7D7D7D7D7
310
D7D7D7D7D7D7D700D7D7D7D7D7D7D7D7D70000D7D7D7D7D7D7D7D7D700D7D7D7D7D7D7D7D7D7D7D7D7D7D7D7D7D7D7D7D7D7D7D7D7D7D7D7D7D7D7D7D7D7D7D7D7D7D7D7D7D7D7D7D7D7D7D7D7D7D7D7D7D7D7D7D7D7D7D7D7D7D7D7D7D7D7D7D7D7D7D7D7D7D7D7D7D7D7D7D7D7D7D7D7D7D7D7D7D7D7D7D7D7D7D7D7D7D7
310
D7D7D7D7D7D7D7D7D7D7D7D7D7D7D7D7D7D7D7D7D7D7D7D7D7D7D7D7D7D7D7D7D7D7D7D7D7D7D7D7D7D7D7D7D7D7D7D7D7D7D7D7D7D7D700D7D7D700D7D7D7D7D7D700D7D7D7D7D7D7D7D7D7D7D7D700D7D7D7D7D7D7D7D7D7D7D7D700D7D7D7D7D7D7D7D7D70000D7D7D7D7D7D7D7D7D700D7D7D7D7D7D7D7D7D7D7D7D7D7
310
D7D7D7D7D7D7D7D7D7D7D7D7D7D7D7D7D7D7D7D7D7D7D7D7D7D7D7D7D7D7D7D7D7D7D7D7D7D7D7D7D7D7D7D7D7D7D7D7D7D7D7D7D7D7D7D7D7D7D7D7D7D7D7D7D7D7D7D7D7D7D7D7D7D7D7D7D7D7D7D7D7D7D7D7D7D7D7D7D7D7D7D7D7D7D7D7D7D7D7D7D7D7D7D7D7D7D7D7D7D7D7D7D7D7D7D7D7D7D7D7D7D7D7D7D7D7D7
310
D7D7D7D7D7D7D7D7D7D7D7D7D7D7D7D7D7D7D7D7D7D7D7D7D7D7D7D7D7D7D7D7D7D7D7D7D7D7D7D7D7D7D7D7D7D7D7D7D7D700D7D7D7D7D7D7D7D7D70000D7D7D7D7D7D7D7D7D700D7D7D7D7D7D7D7D7D7D7D7D7D7D7D7D7D7D7D7D7D7D7D7D7D7D7D7D7D7D7D7D7D7D7D7D7D7D7D7D7D7D7D7D7D7D7D7D7D7D7D7D7D7D7D7
310
D7D7D7D7D7D7D7D7D7D7D7D7D7D7D7D7D7D7D7D7D7D7D7D7D7D7D7D7D7D7D7D7D7D7D7D7D7D7D7D7D7D7D7D7D7D7D7D7D7D7D7D7D7D7D7D7D7D7D7D7D7D7D7D7D7D7D7D7D7D7D7D7D7D7D7D7D7D7D7D7D7D7D7D7D7D7D7D7D7D7D7D7D7D7D7D7D7D7D7D7D7D7D7D7D7D7D7D7D7D7D7D7D7D7D7D7D7D7D7D7D7D7D7D7D7D7D7
310
D7D7D7D7D7D7D7D700D7D7D7D7D7D7D7D7D70000D7D7D7D7D7D7D7D7D700D7D7D7D7D7D7D7D7D7D7D7D7D7D7D7D7D7D7D7D7D7D7D7D7D7D7D7D7D7D7D7D7D7D7D7D7D7D7D7D7D7D7D7D7D7D7D7D7D7D7D7D7D7D7D7D7D7D7D7D7D7D7D7D7D7D7D7D7D7D7D7D7D7D7D7D7D7D7D7D7D7D7D7D7D7D7D7D7D7D7D7D7D7D7D7D7D7
310
D7D7D7D7D7D7D7D7D7D7D7D7D7D7D7D7D7D7D7D7D7D7D7D7D7D7D7D7D7D7D7D7D7D7D7D7D7D7D7D7D7D7D7D7D7D7D7D7D7D7D7D7D7D7D7D7D7D7D7D7D7D7D7D7D7D7D7D7D7D7D7D7D7D7D7D7D7D700D7D7D7D7D7D7D7D7D7D7D7D7D7D700D7D7D7D7D7D7D7D7D70000D7D7D7D7D7D7D7D7D700D7D7D7D7D7D7D7D7D7D7D7D7
310
D7D7D7D7D7D7D7D7D7D7D7D7D7D7D7D7D7D7D7D7D7D7D7D7D7D7D7D7D7D7D7D7D7D7D7D7D7D7D7D7D7D7D7D7D7D7D7D7D7D7D7D7D7D7D7D7D7D7D7D7D7D7D7D7D7D7D7D7D7D7D7D7D7D7D7D7D7D7D7D7D7D7D7D7D7D7D7D7D7D7D7D7D7D7D7D7D7D7D7D7D7D7D7D7D7D7D7D7D7D7D7D7D7D7D7D7D7D7D7D7D7D7D7D700D700
310
D700D700D7D7D7D70000D7D7D7000000D7D700D70000D700D700D7D7D7D7D7D7D7D7D7D700D700D7D7D7D7D7D7D7D7D7D7D7D700D7D7D7D7D7D7D7D7D70000D7D7D7D7D7D7D7D7D700D7D7D7D7D7D7D7D7D7D7D7D7D7D7D7D7D7D7D7D7D7D7D7D7D7D7D7D7D7D7D7D7D7D7D7D7D7D7D7D7D7D7D7D7D7D7D7D7D7D7D7D7D7D7
310
D7D7D7D7D7D7D7D7D7D7D7D7D7D7D7D7D7D7D7D7D7D7D7D7D7D7D7D7D7D7D7D7D7D7D7D7D7D7D7D7D7D7D7D7D7D7D7D7D7D7D7D7D7D7D7D7D7D7D7D7D7D7D7D7D7D7D7D7D7D7D7D7D7D7D7D7D7D7D7D7D7D700D7D7D700D700D7D7D7D70000D7D7D7000000D7D700D70000D7D70000D7D7D7D7D7D7D70000D700D700D7D7D7
310
D7D7D7D7D7D7D7D7D700D7D7D7D7D7D7D7D7D70000D7D7D7D7D7D7D7D7D700D7D7D7D7D7D7D7D7D7D7D7D7D7D7D7D7D7D7D7D7D7D7D7D7D7D7D7D7D7D7D7D7D7D7D7D7D7D7D7D7D7D7D7D7D7D7D7D7D7D7D7D7D7D7D7D7D7D7D7D7D7D7D7D7D7D7D7D7D7D7D7D7D7D7D7D7D7D7D7D7D7D7D7D7D7D7D7D7D7D7D7D7D7D7D7D7
310
D7D7D7D7D7D7D7D7D7D7D7D7D7D7D7D7D7D7D7D7D7D7D7D7D7D7D7D7D7D7D7D7D7D7D7D7D7D7D7D700D7D7D700D70000D7D7D7000000D7D70000D7D7D7000000D7D7000000D7D7D7D70000D70000D70000D7D7D7D7D7D7D7D7D7D7D7D7D700D7D7D7D7D7D7D7D7D70000D7D7D7D7D7D7D7D7D700D7D7D7D7D7D7D7D7D7D7D7
310
D7D7D7D7D7D7D7D7D7D7D7D7D7D7D7D7D7D7D7D7D7D7D7D7D7D7D7D7D7D7D7D7D7D7D7D7D7D7D7D7D7D7D7D7D7D7D7D7D7D7D7D7D7D7D7D7D7D7D7D7D7D7D7D7D7D7D7D7D7D7D7D7D7D7D7D7D7D7D7D7D7D7D7D7D7D7D7D7D7D7D7D7D7D7D7D7D7D7D7D7D7D7D7D7D7D7D7D7D7D7D7D7D7D7D7D7D7D7D7D7D7D7D7D7D700D7
310
D70000000000D7D7D7D7D7D7D7D700D7D7D7D700D7D7D7D7D7D7D7D7D7D7D7D7D7D7D7D7D7D7D7D7D7D7D7D7D7D7D7D7D7D7D7D700D7D7D7D7D7D7D7D7D70000D7D7D7D7D7D7D7D7D700D7D7D7D7D7D7D7D7D7D7D7D7D7D7D7D7D7D7D7D7D7D7D7D7D7D7D7D7D7D7D7D7D7D7D7D7D7D7D7D7D7D7D7D7D7D7D7D7D7D7D7D7D7
310
D7D7D7D7D7D7D7D7D7D7D7D7D7D7D7D7D7D7D7D7D7D7D7D7D7D7D7D7D7D7D7D7D7D7D7D7D7D7D7D7D7D7D7D7D7D7D7D7D7D7D7D7D7D7D7D7D7D7D7D7D7D7D7D7D7D7D7D7D7D7D7D7D7D7D7D7D7D7D7D7D7D7D7D7D7D7D7D7D7D7D7D7D7D7D7D7D7D7D7D7D7D7D7D7D7D7D7D7D7D7D7D7D7D7D7D7D7D7D7D7D7D7D7D7D7D7D7
310
D7D7D7D7D7D7D7D7D7D700D7D7D7D7D7D7D7D7D70000D7D7D7D7D7D7D7D7D700D7D7D7D7D7D7D7D7D7D7D7D7D7D7D7D7D7D7D7D7D7D7D7D7D7D7D7D7D7D7D7D7D7D7D7D7D7D7D7D7D7D7D7D7D7D7D7D7D7D7D7D7D7D7D7D7D7D7D7D7D7D7D7D7D7D7D7D7D7D7D7D7D7D7D7D7D7D7D7D7D7D7D7D7D7D7D7D7D7D7D7D7D7D7D7
310
D7D7D7D7D7D7D7D7D7D7D7D7D7D7D7D7D7D7D7D7D7D7D7D7D7D7D7D7D7D7D7D7D7D7D7D7D7D7D7D7D7D7D7D7D7D7D7D7D7D7D7D7D7D7D7D7D7D7D7D7D7D7D7D7D7D7D7D7D7D7D7D7D7D7D7D7D7D7D7D7D7D7D7D7D7D7D7D7D7D7D7D7D7D7D700D7D7D7D7D7D7D7D7D70000D7D7D7D7D7D7D7D7D700D7D7D7D7D7D7D7D7D7D7
310
D7D7D7D7D7D7D7D7D7D7D7D7D7D7D7D7D7D7D7D7D7D7D7D7D7D7D7D7D7D7D7D7D7D7D7D7D7D7D7D7D7D7D7D7D7D7D7D7D7D7D7D7D7D7D7D7D7D7D7D7D7D7D7D7D7D7D7D7D7D7D7D7D7D7D7D7D7D7D7D7D7D7D7D7D7D7D7D7D7D7D7D7D7D7D7D7D7D7D7D7D7D7D7D7D7D7D7D7D7D7D7D7D7D7D7D7D7D7D7D7D7D7D7D7D7D7D7
310
D7D7D7D7D7D7D7D7D7D7D7D7D7D7D7D7D7D7D7D7D7D7D7D7D7D7D7D7D7D7D7D7D7D7D7D7D7D7D7D7D7D7D7D7D7D7D7D7D7D7D7D7D700D7D7D7D7D7D7D7D7D70000D7D7D7D7D7D7D7D7D700D7D7D7D7D7D7D7D7D7D7D7D7D7D7D7D7D7D7D7D7D7D7D7D7D7D7D7D7D7D7D7D7D7D7D7D7D7D7D7D7D7D7D7D7D7D7D7D7D7D7D7D7
310
D7D7D7D7D7D7D7D7D7D7D7D7D7D7D7D7D7D7D7D7D7D7D7D7D7D7D7D7D7D7D7D7D7D7D7D7D7D7D7D7D7D7D7D7D7D7D7D7D7D7D7D7D7D7D7D7D7D7D7D7D7D7D7D7D7D7D7D7D7D7D7D7D7D7D7D7D7D7D7D7D7D7D7D7D7D7D7D7D7D7D7D7D7D7D7D7D7D7D7D7D7D7D7D7D7D7D7D7D7D7D7D7D7D7D7D7D7D7D7D7D7D7D7D7D7D7D7
310
D7D7D7D7D7D7D7D7D7D7D700D7D7D7D7D7D7D7D7D70000D7D7D7D7D7D7D7D7D700D7D7D7D7D7D7D7D7D7D7D7D7D7D7D7D7D7D7D7D7D7D7D7D7D7D7D7D7D7D7D7D7D7D7D7D7D7D7D7D7D7D7D7D7D7D7D7D7D7D7D7D7D7D7D7D7D7D7D7D7D7D7D7D7D7D7D7D7D7D7D7D7D7D7D7D7D7D7D7D7D7D7D7D7D7D7D7D7D7D7D7D7D7D7
310
D7D7D7D7D7D7D7D7D7D7D7D7D7D7D7D7D7D7D7D7D7D7D7D7D7D7D7D7D7D7D7D7D7D7D7D7D7D7D7D7D7D7D7D7D7D7D7D7D7D7D7D7D7D7D7D7D7D7D7D7D7D7D7D7D7D7D7D7D7D7D7D7D7D7D7D7D7D7D7D7D7D7D7D7D7D7D7D7D7D7D7D7D7D7D7D700D7D7D7D7D7D7D7D7D70000D7D7D7D7D7D7D7D7D700D7D7D7D7D7D7D7D7D7
310
D7D7D7D7D7D7D7D7D7D7D7D7D7D7D7D7D7D7D7D7D7D7D7D7D7D7D7D7D7D7D7D7D7D7D7D7D7D7D7D7D7D7D7D7D7D7D7D7D7D7D7D7D7D7D7D7D7D7D7D7D7D7D7D7D7D7D7D7D7D7D7D7D7D7D7D7D7D7D7D7D7D7D7D7D7D7D7D7D7D7D7D7D7D7D7D7D7D7D7D7D7D7D7D7D7D7D7D7D7D7D7D7D700D7D7D7D7D7D7D7D7D7D7D7D7D7
310
D7D7D7D7D7D7D7D7D7D7D7D7D7D7D7D7D7D7D7D7D7D7D7D7D7D7D7D7D7D7D7D7D7D7D7D7D7D7D7D7D7D7D7D7D7D7D7D7D7D7D7D7D7D700D7D7D7D7D7D7D7D7D70000D7D7D7D7D7D7D7D7D700D7D7D7D7D7D7D7D7D7D7D7D7D7D7D7D7D7D7D7D7D7D7D7D7D7D7D7D7D7D7D7D7D7D7D7D7D7D7D7D7D7D7D7D7D7D7D7D7D7D7D7
310
D7D7D7D7D7D7D7D7D7D7D7D7D7D7D7D7D7D7D7D7D7D7D7D7D7D7D7D7D7D7D7D7D7D7D7D7D7D7D7D7D7D7D7D7D7D7D7D7D7D7D7D7D7D7D7D7D7D7D7D7D7D7D7D7D7D7D7D7D7D7D700D7D7D7D7D7D7D7D7D7D7D7D7D7D7D7D7D7D7D7D7D7D7D7D7D7D7D7D7D7D7D7D7D7D7D7D7D7D7D7D7D7D7D7D7D7D7D7D7D7D7D7D7D7D7D7
310
D7D7D7D7D7D7D7D7D7D7D7D700D7D7D7D7D7D7D7D7D70000D7D7D7D7D7D7D7D7D700D7D7D7D7D7D7D7D70000D70000D7D7D7D7D700D700D7D700D7D700D7D700D7D7D7D7D7D700D7D700D7D7D7D7D7D7D7D7D7D7D7D7D7D7D7D7D7D7D7D7D7D7D7D7D7D7D7D7D7D7D7D7D7D7D7D7D7D7D7D7D7D7D7D7D7D7D7D7D7D7D7D7D7
310
D7D7D7D7D7D7D7D7D7D7D7D7D7D7D7D7D7D7D7D7D7D7D7D7D7D7D7D7D7D7D7D7D7D7D7D7D7D7D7D7D7D7D7D7D7D7D7D7D7D7D7D7D7D7D7D7D7D7D7D7D7D7D7D7D7D7D7D7D7D7D7D7D7D7D7D7D7D7D7D7D7D7D7D7D7D7D7D7D7D7D7D7D7D7D7D7D700D7D7D7D7D7D7D7D7D70000D7D7D7D7D7D7D7D7D700D7D7D7D7D7D7D7D7
310
D7D7D7D7D7D7D7D7D7D700D700D7D700D7D700D7D700D7D7D7D7D7D700D700D700D7D7D7D7D7D7D7D7D7D7D7D7D7D7D7D7D7D7D7D7D7D7D7D7D7D7D7D7D7D7D7D7D7D7D7D7D7D7D7D7D7D7D7D7D7D7D7D7D7D7D7D7D7D7D7D7D7D7D7D7D7D7D7D7D7D7D7D7D7D7D7D7D7D7D7D7D7D7D7D7D7D7D7D7D7D7D7D7D7D7D7D7D7D7
310
D7D7D7D7D7D7D7D7D7D7D7D7D7D7D7D7D7D7D7D7D7D7D7D7D7D7D7D7D7D7D7D7D7D7D7D7D7D7D7D7D7D7D7D7D7D7D7D7D7D7D7D7D7D7D700D7D7D7D7D7D7D7D7D70000D7D7D7D7D7D7D7D7D700D7D7D7D7D7D7D7D7D7D7D7D700D7D7D7D7D7000000D7D70000D70000D7D70000D7D7D7D700D7D70000D7D7D7D7D7D7D7D7D7
310
D7D7D7D7D7D7D7D7D7D7D7D7D7D7D7D7D7D7D7D7D7D7D7D7D7D7D7D7D7D7D7D7D7D7D7D7D7D7D7D7D7D7D7D7D7D7D7D7D7D7D7D7D7D7D7D7D7D7D7D7D7D7D7D7D7D7D7D7D7D7D700D7D7D7D7D7D7D7D7D7D7D7D7D7D7D7D7D7D7D7D7D7D7D7D7D7D7D7D7D7D7D7D7D7D7D7D7D7D7D7D7D7D7D7D7D7D7D7D7D7D7D7D7D7D7D7
310
D7D7D7D7D7D7D7D7D7D7D7D7D700D7D7D7D7D7D7D7D7D70000D7D7D7D7D7D7D7D7D700D7D7D7D7D7D7D7D7D7D7D7D7D7D7D7D7D7D700D700D7D70000D70000D7D7D7D7D7D7D7D700D7000000D7D7D7D7D7D7D7D7D7D7D7D7D7D7D7D7D7D7D7D7D7D7D7D7D7D7D7D7D7D7D7D7D7D7D7D7D7D7D7D7D7D7D7D7D7D7D7D7D7D7D7
310
D7D7D7D7D7D7D7D7D7D7D7D7D7D7D7D7D7D7D7D7D7D7D7D7D7D7D7D7D700D7D7D7D7D7D7D7D7D7D7D7D7D7D7D7D7D7D7D7D7D7D7D7D7D7D7D7D7D7D7D7D7D7D7D7D7D7D7D7D7D7D7D7D7D7D7D7D7D7D7D7D7D7D7D7D7D7D7D7D7D7D7D7D7D7D7D7D700D7D7D7D7D7D7D7D7D70000D7D7D7D7D7D7D7D7D700D7D7D7D7D7D7D7
310
D7D7D7D7D7D7D7D7D7D7D7D7D7D7D7D7D7D7D7D7D7D7D7D7D7D7D7D7D7D7D7D7D7D7D7D7D7D7D7D7D7D7D7D7D7D7D7D7D7D7D7D7D7D7D7D7D7D7D7D7D7D7D7D7D7D7D7D7D7D7D7D7D7D7D7D7D7D7D7D7D7D7D7D7D7D7D7D7D7D7D7D7D7D7D7D7D7D7D7D7D7D7D7D7D7D7D7D7D7D7D7D7D700D7D7D7D7D7D7D7D7D7D7D7D7D7
310
D7D7D7D7D7D7D70000D7D7D7D7D7D7D7D7D7D7D7D7D7D7D7D7D7D7D7D7D7D7D7D7D7D7D7D7D7D7D7D7D7D7D7D7D7D7D7D7D7D7D7D7D7D7D700D7D7D7D7D7D7D7D7D70000D7D7D7D7D7D7D7D7D700D7D7D7D7D7D7D7D7D7D7D7D7D7D7D7D700D700D7D7D7D7D7D7D7D7D7D7D7D7D7D7D7D7D70000D7D7D7D7D7D7D7D7D7D7D7
310
D7D7D7D7D7D7D7D7D7D7D7D7D7D7D7D7D7D7D7D7D7D7D7D7D7D7D7D7D7D7D7D7D7D7D7D7D7D7D7D7D7D7D7D7D7D7D7D7D7D7D7D7D7D7D7D7D7D7D7D7D7D7D7D7D7D7D7D7D7D7D700D7D7D7D7D7D7D7D7D7D7D7D7D7D7D7D7D700D7D7D7D7D70000D7D7D7D7D7D7D7D7D7D7D7D7D7D7D7D7D7D7D7D7D7D7D7D7D7D7D7D7D7D7
310
D7D7D7D7D7D7D7D7D7D7D7D7D7D700D7D7D7D7D7D7D7D7D70000D7D7D7D7D7D7D7D7D700D7D7D7D7D7D7D7D7D7D7D7D7D7D7D7D700D700D7D7D7D7D7D7D7D7D7D7D7D7D7D7D7D7D7D7D700D7D7D7D7D7D7D7D7D7D7D7D7D7D7D7D7D7D7D7D7D7D7D7D7D7D7D7D7D7D7D7D7D7D7D7D7D7D7D7D7D7D7D7D7D7D7D7D7D7D7D7D7
310
D7D7D7D7D7D7D7D7D7D7D7D7D7D7D7D7D7D7D7D7D7D7D7D7D7D7D7D7D7D7D7D7D7D7D7D7D7D7D7D7D7D7D7D7D7D700D7D7D7D7D7D7D7D700D7D7D7D7D7D7D7D7D7D7D7D7D7D7D7D7D7D7D7D7D7D7D7D7D7D7D7D7D7D7D7D7D7D7D7D7D7D7D7D7D7D7D700D7D7D7D7D7D7D7D7D70000D7D7D7D7D7D7D7D7D700D7D7D7D7D7D7
310
D7D700D700D7D7D7D700D7D700D700D7D7D7D7D7D700D7D700D7D7D700D700D70000D7D7D700D7D7D7D7D7D7D7D7D7D7D7D7D7D7D7D7D7D7D7D7D7D7D7D7D7D7D7D7D7D7D7D7D7D7D7D7D7D7D7D7D7D7D7D7D7D7D7D7D7D7D7D7D7D7D7D7D7D7D7D7D7D7D7D7D7D7D7D7D7D7D7D7D7D7D7D7D7D7D7D7D7D7D7D7D7D7D7D7D7
310
D70000D7D7D7D7D7D7D700D7D700D7D7D7D7D7D7D7D7D7D7D7D7D7D7D7D7D7D7D7D7D7D7D7D7D7D7D7D7D7D7D7D7D7D7D7D7D7D7D7D7D7D7D700D7D7D7D7D7D7D7D7D70000D7D7D7D7D7D7D7D7D700D7D7D7D7D7D7D7D700D700D7D7D7D700D7D700D700D7D700D7D7D700D7D7D7D7D7D700D700D70000D7D7D700D7D7D7D7
310
D7D7D7D7D7D7D7D7D7D7D7D7D7D7D7D7D7D7D7D7D7D7D7D7D7D7D7D7D7D7D7D7D7D7D7D7D7D7D7D7D7D7D7D7D7D7D7D7D7D7D7D7D7D7D7D7D7D7D7D7D7D7D7D7D7D7D7D7D7D7D700D7D7D7D7D7D7D7D7D7D7D700D7D7D7D7D7D7D7D7D700D7D7D7D700D7D7D7D7D7D7D7D7D7D7D7D7D7D7D7D7D7D7D7D7D7D7D7D7D7D7D7D7
310
D7D7D7D7D7D7D7D7D7D7D7D7D7D7D700D7D7D7D7D7D7D7D7D70000D7D7D7D7D7D7D7D7D700D7D7D7D7D7D7D7D700D700D7D7D70000D7000000D7D700D7D7D7D7D7D7D70000D7D7D7D7D70000D700D7D70000D7D7D7D7D7D7D7D7D7D7D7D7D7D7D7D7D7D7D7D7D7D7D7D7D7D7D7D7D7D7D7D7D7D7D7D7D7D7D7D7D7D7D7D7D7
310
D7D7D7D7D7D7D7D7D7D7D7D7D7D7D7D7D7D7D7D7D7D7D7D7D7D7D7D7D700D7D7D7D7D7D7D7D7D7D700D7D7D7D7D7D7D7D70000D7D7D7D7D700D7D7D7D7D7D7D7D7D7D7D7D7D7D7D7D7D7D7D7D7D7D7D7D7D7D7D7D7D7D7D7D7D7D7D7D7D7D7D7D7D7D7D700D7D7D7D7D7D7D7D7D70000D7D7D7D7D7D7D7D7D700D7D7D7D7D7
310
D7D7D7D7D7D7D7D7D7D7D7D7D7D7D7D7D7D7D7D7D7D7D7D7D7D7D7D7D7D7D7D7D7D7D7D7D7D7D7D7D7D7D7D7D7D7D7D7D7D7D7D7D7D7D7D7D7D7D7D7D7D7D7D7D7D7D7D7D7D7D7D7D7D7D7D7D7D7D7D7D7D7D7D7D7D7D7D7D7D7D7D70000D70000D7D7D7D7D7D7D7D7D7D7D7D7D7D7D7D700D7D7D7D7D7D7D7D70000D7D7D7
310
D7D7D7D7D700D7D7D7D7D7D7D7D700D7D7D7D7D7D7D7D7D7D7D7D7D7D7D7D7D7D7D7D7D7D7D7D7D7D7D7D7D7D7D7D7D7D7D7D7D7D7D7D7D7D7D700D7D7D7D7D7D7D7D7D70000D7D7D7D7D7D7D7D7D700D7D7D7D7D7D7D7D7D7D7D7D7D7D7D7D7D7D7D7D7D7D7D7D7D7D7D7D7D7D7D7D7D7D7D7D70000000000000000000000
310
00000000000000000000000000000000000000000000000000000000000000000000000000000000000000000000000000000000000000D7D7D7D7D7D7D7D7D7D7D7D7D7D7D7D700D7D7D7D7D7D70000D7D7D7D7D7D7D7D7D700D7D7D7D7D7D7D7D7D700D7D7D7D7D7D7D7D7D7D7D7D7D7D7D7D7D7D7D7D7D7D7D7D7D7D7D7
310
D7D7D7D7D7D7D7D7D7D7D7D7D7D7D7D700D7D7D7D7D7D7D7D7D70000D7D7D7D7D7D7D7D7D700D7D7D7D7D7D7D7D7D7D7D7D7D7D7D7D7D7D7D7D7D7D7D7D7D7D7D7D7D7D7D7D7D7D7D7D7D7D7D7D7D7D7D7D7D7D7D7D7D7D7D7D7D7D7D7D7D7D7D7D7D7D7D7D7D7D7D7D7D7D7D7D7D7D7D7D7D7D7D7D7D7D7D7D7D7D7D7D7D7
310
D7D7D7D7D7D7D70000D7D7D70000D7D7D7D7D7D7D7D7D7D7D7D7D7D7D7D7D7D7D7D700D7D7D7D7D7D7D7D70000D7D7D7D7D7D7D7D7D70000D7D7D7D7D7D7D7D7D7D7D7D7D7D7D7D7D7D7D7D7D7D7D7D7D7D7D7D7D7D7D7D7D7D7D7D7D7D7D7D7D7D7D7D7D700D7D7D7D7D7D7D7D7D70000D7D7D7D7D7D7D7D7D700D7D7D7D7
310
D7D7D7D7D7D7D7D7D7D7D7D7D7D7D7D7D7D7D7D7D7D7D7D7D7D7D7D7D7D7D7D7D7D7D7D7D7D7D7D7D7D7D7D7D7D7D7D7D7D7D7D7D7D7D7D7D7D7D7D7D7D7D7D7D7D7D7D7D7D7D7D7D7D7D7D7D7D7D7D7D7D7D7D7D7D7D7D7D7D7D7D70000D7D7D70000D7D7D7D7D7D7D7D7D7D7D7D7D7D7D7D7D7D70000D7D7D7D7D7D7D7D7
310
00D7D7D7D7D7D7D7D7D7D700D700D7D7D7D7D7D7D7D7D7D7D7D7D7D7D7D7D7D7D7D7D7D7D7D7D7D7D7D7D7D7D7D7D7D7D7D7D7D7D7D7D7D7D7D7D700D7D7D7D7D7D7D7D7D70000D7D7D7D7D7D7D7D7D700D7D7D7D7D7D7D7D7D7D7D7D7D7D7D7D7D7D7D7D7D7D7D7D7D7D7D7D7D7D7D7D7D7D7D7D7D7D7D7D7D7D7D7D7D7D7
310
D7D7D7D7D7D7D7D7D7D7D7D7D7D7D7D7D7D7D7D7D7D7D7D7D7D7D7D7D7D7D7D7D7D7D7D7D7D7D7D7D7D7D7D7D7D7D7D7D7D700D7D7D7D7D7D700D7D7D7D7D7D7D7D7D7D7D7D7D7000000D7D7D7D7D7D7D7D70000D7D7D7D7D7D7D7D7D70000D7D7D700D7D7D7D7D7D7D7D7D7D7D7D7D7D7D7D7D7D7D7D7D7D7D7D7D7D7D7D7
310
D7D7D7D7D7D7D7D7D7D7D7D7D7D7D7D7D700D7D7D7D7D7D7D7D7D70000D7D7D7D7D7D7D7D7D700D7D7D7D7D7D7D7D7D7D7D7D7D7D7D7D7D7D7D7D7D7D7D7D7D7D7D7D7D7D7D7D7D7D7D7D7D7D7D7D7D7D7D7D7D7D7D7D7D7D7D7D7D7D7D7D7D7D7D7D7D7D7D7D7D7D7D7D7D7D7D7D7D7D7D7D7D7D7D7D7D7D7D7D7D7D7D7D7
310
D7D7D7D7D7D7D700D7D7D7D7D7D7D700D7D7D7D7D7D7D7D7D7D7D7000000D7D7D7D7D7D7D70000D7D7D7D7D7D7D7D7D7D700D7D7D7D7D7D700D7D7D7D7D7D7D7D7D7D7D7D7D7D7D7D7D7D7D7D7D7D7D7D7D7D7D7D7D7D7D7D7D7D7D7D7D7D7D7D7D7D7D7D7D700D7D7D7D7D7D7D7D7D70000D7D7D7D7D7D7D7D7D700D7D7D7
310
D7D7D7D7D7D7D7D7D7D7D7D7D7D7D7D7D7D7D7D7D7D7D7D7D7D7D7D7D7D7D7D7D7D7D7D7D7D7D7D7D7D7D7D7D7D7D7D7D7D7D7D7D7D7D7D7D7D7D7D7D7D7D7D7D7D7D7D7D7D7D7D7D7D7D7D7D7D7D7D7D7D7D7D7D7D7D7D7D7D7D7D700D7D7D7D7D7D700D7D7D7D7D7D7D7D7D7D7D700D700D7D7D7D7D7D70000D7D7D7D7D7
310
D7D7D7D7D7D700D7D7D7D7D7D7D700D7D7D7D7D7D7D7D7D7D7D7D7D7D7D7D7D7D7D7D7D7D7D7D7D7D7D7D7D7D7D7D7D7D7D7D7D7D7D7D7D7D7D7D7D700D7D7D7D7D7D7D7D7D70000D7D7D7D7D7D7D7D7D700D7D7D7D7D7D7D7D7D7D7D7D7D7D7D7D7D7D7D7D7D7D7D7D7D7D7D7D7D7D7D7D7D7D7D7D7D7D7D7D7D7D7D7D7D7
310
D7D7D7D7D7D7D7D7D7D7D7D7D7D7D7D7D7D7D7D7D7D7D7D7D7D7D7D7D7D7D7D7D7D7D7D7D7D7D7D7D7D7D7D7D7D7D7D7D7D70000D7D7D7D7D700D7D7D7D7D7D7D7D70000D7D7D700D7D7D7D700D7D7D7D7D7D7D7D7D7D7D700D7D7D7D7D7D7D7D7D7D700D7D7D7D7D7D7D7D7D7D7D7D7D7D7D7D7D7D7D7D7D7D7D7D7D7D7D7
310
D7D7D7D7D7D7D7D7D7D7D7D7D7D7D7D7D7D700D7D7D7D7D7D7D7D7D70000D7D7D7D7D7D7D7D7D700D7D7D7D7D7D7D7D7D7D7D7D7D7D7D7D7D7D7D7D7D7D7D7D7D7D7D7D7D7D7D7D7D7D7D7D7D7D7D7D7D7D7D7D7D7D7D7D7D7D7D7D7D7D7D7D7D7D7D7D7D7D7D7D7D7D7D7D7D7D7D7D7D7D7D7D7D7D7D7D7D7D7D7D7D7D7D7
310
D7D7D7D7D7D7D7D70000D7D7D7D7D700D7D7D7D7D7D70000D7D7D7D7D7D7D7D70000D7D7D7D7D7D7D7D7D7D70000D7D7D7D7D7D7D7D7D7D7D700D7D7D7D7D7D7D7D7D7D7D7D7D7D7D7D7D7D7D7D7D7D7D7D7D7D7D7D7D7D7D7D7D7D7D7D7D7D7D7D7D7D7D7D7D700D7D7D7D7D7D7D7D7D70000D7D7D7D7D7D7D7D7D700D7D7
310
D7D7D7D7D7D7D7D7D7D7D7D7D7D7D7D7D7D7D7D7D7D7D7D7D7D7D7D7D7D7D7D7D7D7D7D7D7D7D7D7D7D7D7D7D7D7D7D7D7D7D7D7D7D7D7D7D7D7D7D7D7D7D7D7D7D7D7D7D7D7D7D7D7D7D7D7D7D7D7D7D7D7D7D7D7D7D7D7D7D7D7D7D7D700D7D7D7D7D7D70000D7D700D7D7D7D7D7D7D7D70000D7D7D7D7D7D7D7D7D7D7D7
310
00D7D7D7D7D7D7D7D7D7D7D7D7D7D700D7D7D7D7D7D7D7D7D7D7D7D7D7D7D7D7D7D7D7D7D7D7D7D7D7D7D7D7D7D7D7D7D7D7D7D7D7D7D7D7D7D7D7D7D700D7D7D7D7D7D7D7D7D70000D7D7D7D7D7D7D7D7D700D7D7D7D7D7D7D7D7D7D7D7D7D7D7D7D7D7D7D7D7D7D7D7D7D7D7D7D7D7D7D7D7D7D7D7D7D7D7D7D7D7D7D7D7
310
D7D7D7D7D7D7D7D7D7D7D7D7D7D7D7D7D7D7D7D7D7D7D7D7D7D7D7D7D7D7D7D7D7D7D7D7D7D7D7D7D7D7D7D7D7D7D7D7D7D7D7D700D7D7D7D7D7D70000D700D7D7D7D7D7D7D7D700D7D7D7D7D7D7D7D7D7D7D70000D7D7D7D7D7D7D7D7D7D7D7D7D7D7D700D7D7D7D7D7D7D7D7D7D7D7D7D7D7D7D7D7D7D7D7D7D7D7D7D7D7
310
D7D7D7D7D7D7D7D7D7D7D7D7D7D7D7D7D7D7D700D7D7D7D7D7D7D7D7D70000D7D7D7D7D7D7D7D7D700D7D7D7D7D7D7D7D7D7D7D7D7D7D7D7D7D7D7D7D7D7D7D7D7D7D7D7D7D7D7D7D7D7D7D7D7D7D7D7D7D7D7D7D7D7D7D7D7D7D7D7D7D7D7D7D7D7D7D7D7D7D7D7D7D7D7D7D7D7D7D7D7D7D7D7D7D7D7D7D7D7D7D7D7D7D7
310
D7D7D7D7D7D7D7D7D700D7D7D7D7D7D7000000D7D7D7D7D7D7D700D7D700D7D7D7D7D7D7D7D700D7D7D7D7D7D7D7D7D7D7D7D7D7D7D7D7D7D7D700D7D7D7D7D7D7D7D7D7D7D7D7D7D7D7D7D7D7D7D7D7D7D7D7D7D7D7D7D7D7D7D7D7D7D7D7D7D7D7D7D7D7D7D7D700D7D7D7D7D7D7D7D7D70000D7D7D7D7D7D7D7D7D700D7
310
D7D7D7D7D7D7D7D7D7D7D7D7D7D7D7D7D7D7D7D7D7D7D7D7D7D7D7D7D7D7D7D7D7D7D7D7D7D7D7D7D7D7D7D7D7D7D7D7D7D7D7D7D7D7D7D7D7D7D7D7D7D7D7D7D7D7D7D7D7D7D7D7D7D7D7D7D7D7D7D7D7D7D7D7D7D7D7D7D7D7D7D7D70000D7D7D7D700D7D7D7D700D7D7D70000D7D7D7D7D7D7D7D7D7D7D700D7D7D7D7D7
310
D7D7D7D7D7D7D7D7D7D7D7D7D7D7D7D700D7D7D7D7D7D7D7D7D7D7D7D7D7D7D7D7D7D7D7D7D7D7D7D7D7D7D7D7D7D7D7D7D7D7D7D7D7D7D7D7D7D7D7D7D700D7D7D7D7D7D7D7D7D70000D7D7D7D7D7D7D7D7D700D7D7D7D7D7D7D7D7D7D7D7D7D7D7D7D7D7D7D7D7D7D7D7D7D7D7D7D7D7D7D7D7D7D7D7D7D7D7D7D7D7D7D7
310
D7D7D7D7D7D7D7D7D7D7D7D7D7D7D7D7D7D7D7D7D7D7D7D7D7D7D7D7D7D7D7D7D7D7D7D7D7D7D7D7D7D7D7D7D7D7D7D7D7D7D70000D7D7D700D7D7D7D7D700D7D700D7D7D7D7D7D7D7D7D7D7D70000D7D7D7D7D7D7D7D7D7D7D7D7D7D7D7D7D7D7D7D7D7D700D7D7D7D7D7D7D7D7D7D7D7D7D7D7D7D7D7D7D7D7D7D7D7D7D7
310
D7D7D7D7D7D7D7D7D7D7D7D7D7D7D7D7D7D7D7D700D7D7D7D7D7D7D7D7D70000D7D7D7D7D7D7D7D7D700D7D7D7D7D7D7D7D7D7D7D7D7D7D7D7D7D7D7D7D7D7D7D7D7D7D7D7D7D7D7D7D7D7D7D7D7D7D7D7D7D7D7D7D7D7D7D7D7D7D7D7D7D7D7D7D7D7D7D7D7D7D7D7D7D7D7D7D7D7D7D7D7D7D7D7D7D7D7D7D7D7D7D7D7D7
310
D7D7D7D7D7D7D7D7D700D700D7D7D7D7D7D7D7D700D7D7D7D7D7D7D7D700D7D700D7D7D7D7D7D7D7D7D7D7D7D7D7D7D7D7D7D7D7D7D7D7D7D7D7D700D7D7D7D7D7D7D7D7D7D7D7D7D7D7D7D7D7D7D7D7D7D7D7D7D7D7D7D7D7D7D7D7D7D7D7D7D7D7D7D7D7D7D7D7D700D7D7D7D7D7D7D7D7D70000D7D7D7D7D7D7D7D7D700
310
D7D7D7D7D7D7D7D7D7D7D7D7D7D7D7D7D7D7D7D7D7D7D7D7D7D7D7D7D7D7D7D7D7D7D7D7D7D7D7D7D7D7D7D7D7D7D7D7D7D7D7D7D7D7D7D7D7D7D7D7D7D7D7D7D7D7D7D7D7D7D7D7D7D7D7D7D7D7D7D7D7D7D7D7D7D7D7D7D7D7D7D7D7D70000D7D7D7D7D7D7D7D700D7D7D7D7D7D7D7D7D700D700D7D7D7D7D7D7D7D7D7D7
310
D7D7D7D7D7D7D7D7D7D7D7D7D7D7D7D7D700D7D7D7D7D7D7D7D7D7D7D7D7D7D7D7D7D7D7D7D7D7D7D7D7D7D7D7D7D7D7D7D7D7D7D7D7D7D7D7D7D7D7D7D7D700D7D7D7D7D7D7D7D7D70000D7D7D7D7D7D7D7D7D700D7D7D7D7D7D7D7D7D7D7D7D7D7D7D7D7D7D7D7D7D7D7D7D7D7D7D7D7D7D7D7D7D7D7D7D7D7D7D7D7D7D7
310
D7D7D7D7D7D7D7D7D7D7D7D7D7D7D7D7D7D7D7D7D7D7D7D7D7D7D7D7D7D7D7D7D7D7D7D7D7D7D7D7D7D7D7D7D7D7D7D7D7D70000D7D7D7D7D7D7D700D7D700D7D7D7D7D7D7D7D7000000D7D7D7D7D7D7D7D7D7D7D7D7D7D7D7D7D7D7D7D7D7D7D7D7D7D7D7D700D7D7D7D7D7D7D7D7D7D7D7D7D7D7D7D7D7D7D7D7D7D7D7D7
310
D7D7D7D7D7D7D7D7D7D7D7D7D7D7D7D7D7D7D7D7D700D7D7D7D7D7D7D7D7D70000D7D7D7D7D7D7D7D7D700D7D7D7D7D7D7D7D7D7D7D7D7D7D7D7D7D7D7D7D7D7D7D7D7D7D7D7D7D7D7D7D7D7D7D7D7D7D7D7D7D7D7D7D7D7D7D7D7D7D7D7D7D7D7D7D7D7D7D7D7D7D7D7D7D7D7D7D7D7D7D7D7D7D7D7D7D7D7D7D7D7D7D7D7
310
D7D7D7D7D7D700D7D7D700D7D7D700D7D7D7D7D700D700D7D7D700D7D700D700D700D7D7D7D7D7D7D7D7D7D7D7D7D7D7D7D7D7D7D7D7D7D7D7D7D7D700D7D7D7D7D7D7D7D7D7D7D7D7D7D7D7D7D7D7D7D7D7D7D7D7D7D7D7D7D7D7D7D7D7D7D7D7D7D7D7D7D7D7D7D7D700D7D7D7D7D7D7D7D7D70000D7D7D7D7D7D7D7D7D7
310
00D7D7D7D7D7D7D7D7D7D7D7D7D7D7D7D7D7D7D7D7D7D7D7D7D7D7D7D7D7D7D7D7D7D7D7D7D7D7D7D7D7D7D7D7D7D7D7D7D7D7D7D7D7D7D7D7D7D7D7D7D7D7D7D7D7D7D7D7D7D7D7D7D7D7D7D7D7D7D7D7D7D7D7D7D7D7D7D70000D7D7D7D700D7D700D7D7D7D7D7D7D70000D7D700D7D7D7D700D7D700D7D7D7D7D7D7D7D7
310
D7D7D7D7D7D7D7D7D7D7D7D7D7D7D7D7D7D700D7D7D7D7D7D7D7D7D7D7D7D7D7D7D7D7D7D7D7D7D7D7D7D7D7D7D7D7D7D7D7D7D7D7D7D7D7D7D7D7D7D7D7D7D700D7D7D7D7D7D7D7D7D70000D7D7D7D7D7D7D7D7D700D7D7D7D7D7D7D7D7D7D7D7D7D7D7D7D7D7D7D7D7D7D7D7D7D7D7D7D7D7D7D7D7D7D7D7D7D7D7D7D7D7
310
D7D7D7D7D7D7D7D7D7D7D7D7D7D7D7D7D7D7D7D7D7D7D7D7D7D7D7D7D7D7D7D7D7D7D7D7D7D7D7D7D7D7D7D70000D7D7D7D7D7D7D700D7D7D7D7D7D7D7D7D700000000D7D7D700D7D7D7D7D700D7D7D7D7D7D7D7D7D7D7D7D7D7D7D7D7D7D7D7D7D7D7D7D7D7D700D7D7D7D7D7D7D7D7D7D7D7D7D7D7D7D7D7D7D7D7D7D7D7
310
D7D7D7D7D7D7D7D7D7D7D7D7D7D7D7D7D7D7D7D7D7D700D7D7D7D7D7D7D7D7D70000D7D7D7D7D7D7D7D7D700D7D7D7D7D7D7D7D7D7D7D7D7D7D7D7D7D7D7D7D7D7D7D7D7D7D7D7D7D7D7D7D7D7D7D7D7D7D7D7D7D7D7D7D7D7D7D7D7D7D7D7D7D7D7D7D7D7D7D7D7D7D7D7D7D7D7D7D7D7D7D7D7D7D7D7D7D7D7D7D7D7D7D7
310
D700D7D7D7D7D7D7D7000000D7D7D7D7D7D7D7D700D700D700D70000D7D7D7D7D7D700D7D7D7D7D7D7D7D7D7D7D7D7D7D7D7D7D7D7D7D7D7D7D7D7D7D700D7D7D7D7D7D7D7D7D7D7D7D7D7D7D7D7D7D7D7D7D7D7D7D7D7D7D7D7D7D7D7D7D7D7D7D7D7D7D7D7D7D7D7D7D700D7D7D7D7D7D7D7D7D70000D7D7D7D7D7D7D7D7
310
D700D7D7D7D7D7D7D7D7D7D7D7D7D7D7D7D7D7D7D7D7D7D7D7D7D7D7D7D7D7D7D7D7D7D7D7D7D7D7D7D7D7D7D7D7D7D7D7D7D7D7D7D7D7D7D7D7D7D7D7D7D7D7D7D7D7D7D7D7D7D7D7D7D7D7D7D7D7D7D7D7D70000D7D7D7D7D7D7D700D7D700D7D7D7D7D7D7D700D7D7D7D7D700D7D7D7D7D7D7D7D7D700D7D7D7D7D7D7D7
310
D7D7D7D7D7D7D7D7D7D7D7D7D7D7D7D7D7D7D700D7D7D7D7D7D7D7D7D7D7D7D7D7D7D7D7D7D7D7D7D7D7D7D7D7D7D7D7D7D7D7D7D7D7D7D7D7D7D7D7D7D7D7D7D700D7D7D7D7D7D7D7D7D70000D7D7D7D7D7D7D7D7D700D7D7D7D7D7D7D7D7D7D7D7D7D7D7D7D7D7D7D7D7D7D7D7D7D7D7D7D7D7D7D7D7D7D7D7D7D7D7D7D7
310
D7D7D7D7D7D7D7D7D7D7D7D7D7D7D7D7D7D7D7D7D7D7D7D7D7D7D7D7D7D7D7D7D7D7D7D7D7D7D7D700D7D7D7D7D7D7D70000D7D7D700D7D7D7D7D70000D7D7D7D700D700D7D7D7D7D7D7D7D7D700D7D7D7D7D7D7D7D7D7D7D7D7D7D7D7D7D7D7D7D7D7D7D7D7D7D700D7D7D7D7D7D7D7D7D7D7D7D7D7D7D7D7D7D7D7D7D7D7
310
D7D7D7D7D7D7D7D7D7D7D7D7D7D7D7D7D7D7D7D7D7D7D700D7D7D7D7D7D7D7D7D70000D7D7D7D7D7D7D7D7D700D7D7D7D7D7D7D7D7D7D7D7D7D7D7D7D7D7D7D7D7D7D7D7D7D7D7D7D7D7D7D7D7D7D7D7D7D7D7D7D7D7D7D7D7D7D7D7D7D7D7D7D7D7D7D7D7D7D7D7D7D7D7D7D7D7D7D7D7D7D7D7D7D7D7D7D7D700D7D7D7D7
310
D7D7D70000D7D7D7D7D7D700D7D7D700D7D7D7D70000D7D7D7D7D7D7D7D7D7D7D7D7D700D7D7D7D7D7D7D7D7D7D7D7D7D7D7D7D7D7D7D7D7D7D7D7D7D7D700D7D7D7D7D7D7D7D7D7D7D7D7D7D7D7D7D7D7D7D7D7D7D7D7D7D7D7D7D7D7D7D7D7D7D7D7D7D7D7D7D7D7D7D7D700D7D7D7D7D7D7D7D7D70000D7D7D7D7D7D7D7
310
D7D700D7D7D7D7D7D7D7D7D7D7D7D7D7D7D7D7D7D7D7D7D7D7D7D7D7D7D7D7D7D7D7D7D7D7D7D7D7D7D7D7D7D7D7D7D7D7D7D7D7D7D7D7D7D7D7D7D7D7D7D7D7D7D7D7D7D7D7D7D7D7D7D7D7D700D7D7D7D7D7D7D7D700D7D7D7D7D7D7D7D7000000D7D7D7D70000D7D7D7D7D700D70000000000D7D7D7D700D7D7D7D7D7D7
310
D7D7D7D7D7D7D7D7D7D7D7D7D7D7D7D7D7D7D7D700D7D7D7D7D7D7D7D7D7D7D7D7D7D7D7D7D7D7D7D7D7D7D7D7D7D7D7D7D7D7D7D7D7D7D7D7D7D7D7D7D7D7D7D7D700D7D7D7D7D7D7D7D7D70000D7D7D7D7D7D7D7D7D700D7D7D7D7D7D7D7D7D7D7D7D7D7D7D7D7D7D7D7D7D7D7D7D7D7D7D7D7D7D7D7D7D7D7D7D7D7D7D7
310
D7D7D7D7D7D7D7D7D7D7D7D7D7D7D7D7D7D7D7D7D7D7D7D7D7D7D7D7D7D7D7D7D7D700D7D7D7D7D7D7D70000D7D7D7D7D7D7D7D7D70000D7D7D7D700D7D7D7D7D7D7D700D7D700000000D7D7D7D700D7D7D7D7D7D7D7D7D7D7D7D7D7D7D7D7D7D7D7D7D7D7D7D7D7D700D7D7D7D7D7D7D7D7D7D7D7D7D7D7D7D7D7D7D7D7D7
310
D7D7D7D7D7D7D7D7D7D7D7D7D7D7D7D7D7D7D7D7D7D7D7D700D7D7D7D7D7D7D7D7D70000D7D7D7D7D7D7D7D7D700D7D7D7D7D7D7D7D7D7D7D7D7D7D7D7D7D7D7D7D7D7D7D7D7D7D7D7D7D7D7D7D7D7D7D7D7D7D7D7D7D7D7D7D7D7D7D7D7D7D7D7D7D7D7D7D7D7D7D7D7D7D7D7D7D7D7D7D7D7D700D7D7D7D7D7D7D70000D7
310
D7D7D7D7D7D7D7D7D700000000D70000D7D7D7D7D7D7D7D7D7D700000000000000D7D7D700D7D7D7D7D7D7D7D7D7D7D7D7D7D7D7D7D7D7D7D7D7D7D7D7D7D700D7D7D7D7D7D7D7D7D7D7D7D7D7D7D7D7D7D7D7D7D7D7D7D7D7D7D7D7D7D7D7D7D7D7D7D7D7D7D7D7D7D7D7D7D700D7D7D7D7D7D7D7D7D70000D7D7D7D7D7D7
310
D7D7D700D7D7D7D7D7D7D7D7D7D7D7D7D7D7D7D7D7D7D7D7D7D7D7D7D7D7D7D7D7D7D7D7D7D7D7D7D7D7D7D7D7D7D7D7D7D7D7D7D7D7D7D7D7D7D7D7D7D7D7D7D7D7D7D7D7D7D7D70000D7D7D7D7D7D7D700D7D7D7D7D7D7D7D7D7D7D700D7D7000000D7D7D7D7D7D7D7D7D7D7D7D7000000000000D7D7D7D700D7D7D7D7D7
310
D7D7D7D7D7D7D7D7D7D7D7D7D7D7D7D7D7D7D7D7D700D7D7D7D7D7D7D7D7D7D7D7D7D7D7D7D7D7D7D7D7D7D7D7D7D7D7D7D7D7D7D7D7D7D7D7D7D7D7D7D7D7D7D7D7D700D7D7D7D7D7D7D7D7D70000D7D7D7D7D7D7D7D7D700D7D7D7D7D7D7D7D7D7D7D7D7D7D7D7D7D7D7D7D7D7D7D7D7D7D7D7D7D7D7D7D7D7D7D7D7D7D7
310
D7D7D7D7D7D7D7D7D7D7D7D7D7D7D7D7D7D7D7D7D7D7D7D7D7D7D7D700D7D7D7D7D7D7D70000D7D7D7D7D7D7D7D7D7D70000D7D7D70000D7D7D7D7D7D7D7D7D7D7D7D7D7D70000000000D7D7D7D7D700D7D7D7D7D7D7D7D7D7D7D7D7D7D7D7D7D7D7D7D7D7D7D7D7D7D70000D7D7D7D7D7D7D7D7D7D7D7D7D7D7D7D7D7D7D7
310
D7D7D7D7D7D7D7D7D7D7D7D7D7D7D7D7D7D7D7D7D7D7D7D7D700D7D7D7D7D7D7D7D7D70000D7D7D7D7D7D7D7D7D700D7D7D7D7D7D7D7D7D7D7D7D7D7D7D7D7D7D7D7D7D7D7D7D7D7D7D7D7D7D7D7D7D7D7D7D7D7D7D7D7D7D7D7D7D7D7D7D7D7D7D7D7D7D7D7D7D7D7D7D7D7D7D7D70000D7D7D7D7D7D7D700D7D7D7D7D7D7
310
D7D7D7D7D700D7D7D7D700D700D7D7D7D7D7D7D7D7D7D7D7D7D7D7D7000000D700D7D7D7D700D7D7D7D7D7D7D7D7D7D7D7D7D7D7D7D7D7D7D7D7D7D7D7D7D700D7D700D7D7D7D7D7D7D7D7D7D7D7D7D7D7D7D7D7D7D7D7D7D7D7D7D7D7D7D7D7D7D7D7D7D7D7D7D7D7D7D7D7D7D700D7D7D7D7D7D7D7D7D70000D7D7D7D7D7
310
D7D7D7D700D7D7D7D7D7D7D7D7D7D7D7D7D7D7D7D7D7D7D7D7D7D7D7D7D7D7D7D7D7D7D7D7D7D7D7D7D7D7D7D7D7D7D7D7D7D7D7D7D7D7D7D7D7D7D7D7D7D7D7D7D700D7D7D7D7D7D7D7D700D7D7D7D7D7D7D7D7D7D7D700D7D7D7D700D7D7D7D700D7D7D7D7D7D7D7D7D7D7D7D7D7D7D7D7D7D700D7D7D7D7D700D7D7D7D7
310
D7D7D7D7D7D7D7D7D7D7D7D7D7D7D7D7D7D700D7D700D7D700D7D7D7D7D7D7D7D7D7D7D7D7D7D7D7D7D7D7D7D7D7D7D7D7D7D7D7D7D7D7D7D7D7D7D7D7D7D7D7D7D7D7D700D7D7D7D7D7D7D7D7D70000D7D7D7D7D7D7D7D7D700D7D7D7D7D7D7D7D7D7D7D7D7D7D7D7D7D7D7D7D7D7D7D7D7D7D7D7D7D7D7D7D7D7D7D7D7D7
310
D7D7D7D7D7D7D7D7D7D7D7D7D7D7D7D7D7D7D7D7D7D700D7D7D7D7D7D7D70000D7D7D7D7D7D7D7D7D7D70000D7D7D7D700D7D7D7D7D700D7D7D7D7D7D7D7D7D7D7D7D7D7D7D7D7D7D7D7D700D7D7D7D700D7D7D7D7D7D7D7D7D7D7D7D7D7D7D7D7D7D7D70000D7D700D7D7D7D700D7D7D7D7D7D7D7D7D7D7D7D7D7D7D7D7D7
310
D7D7D7D7D7D7D7D7D7D7D7D7D7D7D7D7D7D7D7D7D7D7D7D7D7D700D7D7D7D7D7D7D7D7D70000D7D7D7D7D7D7D7D7D700D7D7D7D7D7D7D7D7D7D7D7D7D7D7D7D7D7D7D7D7D7D7D7D7D7D7D7D7D7D7D7D7D7D7D7D7D7D7D7D7D7D7D7D7D7D7D7D7D7D7D7D7D7D7D7D7D70000D7D7D7D7D7D7D700D7D7D7D7D7D7D7D7D7D7D700
310
00D7D7D70000D7D7D7D7D7D700D7D7D7D7D7D7D7D7D7D7D7D7D7D7D7D7D7D7D7D7D7D7D7D70000D7D7D7D7D7D7D7D7D7D7D7D7D7D7D7D7D7D700D7D70000D7D7D7D7D700D7D7D7D7D7D7D7D7D7D7D7D7D7D7D7D7D7D7D7D7D7D7D7D7D7D7D7D7D7D7D7D7D7D7D7D7D7D7D7D7D7D7D700D7D7D7D7D7D7D7D7D70000D7D7D7D7
310
D7D7D7D7D700D7D7D7D7D7D7D7D7D7D7D7D7D7D7D7D7D7D7D7D7D7D7D7D7D7D7D7D7D7D7D7D7D7D7D7D7D7D7D7D7D7D7D7D7D7D7D7D7D7D7D7D7D7D700D7D7D7D7D7D7D7D70000D7D7D7D7D7D7D7D7D7D70000D7D7D7D700D7D7D7D7D700D7D70000D7D7D7D7D7D7D7D7D7D7D7D7D7D7D7D7D7D7D7D7D70000D7D7D7D7D7D7
310
D7D7D7D7D7D7D7D7D7D7D7D700D7D700D7D7D7D7D7D7D7D7D700D7D7D7D7D7D7D7D7D7D7D7D7D7D7D7D7D7D7D7D7D7D7D7D7D7D7D7D7D7D7D7D7D7D7D7D7D7D7D7D7D7D7D700D7D7D7D7D7D7D7D7D70000D7D7D7D7D7D7D7D7D700D7D7D7D7D7D7D7D7D7D7D7D7D7D7D7D7D7D7D7D7D7D7D7D7D7D7D7D7D7D7D7D7D7D7D7D7
310
D7D7D7D7D7D7D7D7D7D7D7D7D7D7D7D7D700D7D7D7D7D7D7D7D700D7D7D7D7D7D7D7D7D7D70000D70000D7D7D7D7D7D7D7D7D7D700000000D7D7D7D7D7D7D7D7D7D7D7D7D7D7D7D7D7D7D7D7D700D7D7D7D7D7D7D7D7D7D7D7D7D7D7D7D7D7D700D7D700D7D7D7D7D7D7D7D7D7D700D7D7D7D7D7D7D7D7D7D7D7D7D7D7D7D7
310
D7D7D7D7D7D7D7D7D7D7D7D7D7D7D7D7D7D7D7D7D7D7D7D7D7D7D700D7D7D7D7D7D7D7D7D70000D7D7D7D7D7D7D7D7D700D7D7D7D7D7D7D7D7D7D7D7D7D7D7D7D7D7D7D7D7D7D7D7D7D7D7D7D7D7D7D7D7D7D7D7D7D7D7D7D7D7D7D7D7D7D7D7D7D7D70000D7D7D7D7D7D7D700D7D7D7D7D7D7D7D7D7D7D700D7D7D7D70000
310
D7D700D7D7D7D7D7000000000000D7D7D7D7D7D7D7D7D7D7D7D7D7D7D7D7D70000D7D7D700D7D7D7D7D7D7D7D7D7D7D7D7D7D700D7D70000D7D7D7D7D7D7D7D7D700D7D7D7D7D7D7D7D7D7D7D7D7D7D7D7D7D7D7D7D7D7D7D7D7D7D7D7D7D7D7D7D7D7D7D7D7D7D7D7D7D7D7D7D7D7D700D7D7D7D7D7D7D7D7D70000D7D7D7
310
D7D7D7D7D7D700D7D7D7D7D7D7D7D7D7D7D7D7D7D7D7D7D7D7D7D7D7D7D7D7D7D7D7D7D7D7D7D7D7D7D7D7D7D7D7D7D7D7D7D7D7D7D700D7D7D7D7D7D7D7D70000D7D7D7D7D7D7D7D7D70000D7D7D7D7D7D7D700D7D7D7D7D7D7D7D7D7000000000000D7D7D7D7D7D7D7D7D7D7D7D7D7D70000D7D7D7D7D7D7D7D7D7D7D7D7
310
D7D7D7D7D7D700D7D700D7D7D7D7D7D7D7D7D7D7D700D7D7D7D7D7D7D7D7D7D7D7D7D7D7D7D7D7D7D7D7D7D7D7D7D7D7D7D7D7D7D7D7D7D7D7D7D7D7D7D7D7D7D7D7D7D7D7D700D7D7D7D7D7D7D7D7D70000D7D7D7D7D7D7D7D7D700D7D7D7D7D7D7D7D7D7D7D7D7D7D7D7D7D7D7D7D7D7D7D7D7D7D7D7D7D7D7D7D7D7D7D7
310
D7D7D7D7D7D7D7D7D7D7D700D7D7D7D7D7D7D7D700D7D7D7D7D7D7D7D7D7D700D7D7D7D7D7D7D7D7D700D7D7D7D7D7D7D7D7D7D7D70000D700D7D7D7D7D7D7D7D7D7D7D7D7D700D7D7D7D7D7D7D7D7D700D7D7D7D7D7D7D7D7D700D7D700D7D7D7D7D7D7D7D7D7D70000D7D7D7D7D7D7D7D7D7D7D7D7D7D7D7D7D7D7D7D7D7
310
D7D7D7D7D7D7D7D7D7D7D7D7D7D7D7D7D7D7D7D7D7D7D7D7D7D7D7D700D7D7D7D7D7D7D7D7D70000D7D7D7D7D7D7D7D7D700D7D7D7D7D7D7D7D7D7D7D7D7D7D7D7D7D7D7D7D7D7D7D7D7D7D7D7D7D7D7D7D7D7D7D7D7D7D7D7D7D7D7D70000D7D7D7D7D7D7D700D7D7D7D7D7D7D7D7D7D7D700D7D7D7D7D7D7D7D7D7D7D700
310
D70000D7D7D7D7D7D7D7D70000D7D7D700D7D7D7D7D7D7D7D70000D7D7D7D7D7D7D7D7D7D7D7D7D7D7D7D7D7D700D7D70000D7D7D7D7D7D7D7D7D700D7D7D7D7D7D7D7D7D7D7D7D7D7D7D7D7D7D7D7D7D7D7D7D7D7D7D7D7D7D7D7D7D7D7D7D7D7D7D7D7D7D7D7D7D7D7D7D7D7D7D7D7D700D7D7D7D7D7D7D7D7D70000D7D7
310
D7D7D7D7D7D7D700D7D7D7D7D7D7D7D7D7D7D7D7D7D7D7D7D7D7D7D7D7D7D7D7D7D7D7D7D7D7D7D7D7D7D7D7D7D7D7D7D70000D7D7D7D7D7D7D7D700D7D7D7D7D7D7D7D7D7D70000D7D7D7D7D7D7D7D7D7D7D7D700D70000D7D7D7D7D7D7D7D7D7D7D7D7D7D700D7D7D7D7D7D700D7D7D7D7D7D7D7D7D7D7D7D7D7D7D7D7D7
310
D70000D70000D7D7D7D7D7D7D7D7D7D700D7D7D7D7D7D7D7D7D7D7D7D7D7D7D7D7D7D7D7D7D7D7D7D7D7D7D7D7D7D7D7D7D7D7D7D7D7D7D7D7D7D7D7D7D7D7D7D7D7D7D7D7D7D700D7D7D7D7D7D7D7D7D70000D7D7D7D7D7D7D7D7D700D7D7D7D7D7D7D7D7D7D7D7D7D7D7D7D7D7D7D7D7D7D7D7D7D7D7D7D7D7D7D7D7D7D7
310
D7D7D7D7D700D7D7D7D7D7D7D7D700D7D7D7D7D7D7D7D7D7D700D7D7D7D7D7D7D7D7D7D7D7D7D7D7D7D700D70000D7D7D7D7D7D7D7D7D7D7D7D7D7D7D700D7D700D7D7D7D7D7D7D7D7D7D7D7D7D7D7D7D7D700D700D7D700D7D7D7D7D7D7D7D7D7D70000D7D7D7D7D7D7D7D7D7D7D7D7D7D7D7D7D7D7D7D7D7D7D7D7D7D7D7
310
D7D7D7D7D7D7D7D7D7D7D7D7D7D7D7D7D7D7D7D7D7D7D7D7D7D7D7D7D700D7D7D7D7D7D7D7D7D70000D7D7D7D7D7D7D7D7D700D7D7D7D7D7D7D7D7D7D7D7D7D7D7D7D7D7D7D7D7D7D7D7D7D7D7D7D7D7D7D7D7D7D7D7D7D7D700D7D7D7D7D7D7D70000D7D7D7D7D7D7D7D7D7D700D7D7D7D7D7D7D7D7D7D7D7D7D7D7D7D7D7
310
00D70000D7D7D7D7D7D7D7D7D7D7D7D7D7D7D7D70000D7D7D7D7D7D7D7D7D7D7D7D7D7D7D7D7D7D70000D7D700D7D7D7D7D7D7D7D7D70000D7D7D7D7D7D7D7D7D7D7D7D7D7D7D7D7D7D7D7D7D7D7D7D7D7D7D7D7D7D7D7D7D7D7D7D7D7D7D7D7D7D7D7D7D7D7D7D7D7D7D7D7D7D7D7D7D7D700D7D7D7D7D7D7D7D7D70000D7
310
D7D7D7D7D7D7D7D700D7D7D7D7D7D7D7D7D7D7D7D7D7D7D7D7D7D7D7D7D7D7D7D7D7D7D7D7D7D7D7D7D7D7D7D7D7D7D7D7D700D7D700D7D7D7D7D7D7D7D7D7D70000D7D7D7D7D7D7D7D7D7D7D7D7D7D7D7D7D7D7D700D7D700D7D7D7D7D7D7D7D7D7D7D7D7D7D700D7D7D700D7D7D7D7D7D7D7D7D7D7D7D7D7D70000D70000
310
D7D7D7D7D7D7D7D7D7D700D7D7D7D7D7D7D7D7D7D7D7D7D7D7D7D7D7D7D7D7D7D7D7D7D7D7D7D7D7D7D7D7D7D7D7D7D7D7D7D7D7D7D7D7D7D7D7D7D7D7D7D7D7D7D7D7D7D7D7D7D700D7D7D7D7D7D7D7D7D70000D7D7D7D7D7D7D7D7D700D7D7D7D7D7D7D7D7D7D7D7D7D7D7D7D7D7D7D7D7D7D7D7D7D7D7D7D7D7D7D7D7D7
310
D7D7D7D7D7D7D7D7D7D7D7D7D7D7D7D7D7D7D700D7D7D7D7D7D7D7D7D7D7D7D7D7D7D7D7D7D7D7D7D7D7D70000D7D7D7D7D7D7D7D7D7D7D7D70000D7D7D7D7D7D7D7D700D7D7D7D7D7D7D7D7D7D700D7D700D7D7D700D7D7D7D7D7D70000D7D7D7D7D7D7D7D7D7D7D7D7D7D7D7D7D7D7D7D7D7D7D7D7D7D7D7D7D7D7D7D7D7
310
D7D7D7D7D7D7D7D7D7D7D7D7D7D7D7D7D7D7D7D7D7D7D7D7D7D7D7D7D7D700D7D7D7D7D7D7D7D7D70000D7D7D7D7D7D7D7D7D700D7D7D7D7D7D7D7D7D7D7D7D7D7D7D7D7D7D7D7D7D7D7D7D7D7D7D7D7D7D7D7D7D7D7D7D7D7D7D70000D7D7D7D7D7D7D7D7D7D700D7D7D7D7D7D7D7D7D7D7D7D7D7D7D7D7D7D7D7D7D7D7D7
310
D70000D7D7D7D7D7D7D7D7D7D7D700D7D7D7D7D7D7D7D7D7D7D700D7D7D7D7D7D7D70000D7D700D7D7D7D700D7D7D7D70000D7D7D7D7D7D7D7D7D7D7D7D7D7D7D7D7D7D7D7D7D7D7D7D7D7D7D7D7D7D7D7D7D7D7D7D7D7D7D7D7D7D7D7D7D7D7D7D7D7D7D7D7D7D7D7D7D7D7D7D7D7D7D7D7D700D7D7D7D7D7D7D7D7D70000
310
D7D7D7D7D7D7D7D7D700D7D7D7D7D7D7D7D7D7D7D7D7D7D7D7D7D7D7D7D7D7D7D7D7D7D7D7D7D7D7D7D7D7D7D7D7D7D7D700D7D7D7D7D7D7D7D70000D7D7D7D7D7D7D7D7D7D7D7D7D7D7D7D7D7D7D7D7D7D7D7D7D7D700D7D7D700D7D7D7D7D70000D7D7D7D7D7D7D7D7D7D7D7D7D7D7D700D7D70000D70000D7D7D7D7D7D7
310
D7D700D700D7D7D7D7D7D7D7D7D7D7D7D7D7D7D7D7D7D7D7D7D7D7D7D7D7D7D7D7D7D7D7D7D7D7D7D7D7D7D7D7D7D7D7D7D7D7D7D7D7D7D7D7D7D7D7D7D7D7D7D7D7D7D7D7D7D7D7D700D7D7D7D7D7D7D7D7D70000D7D7D7D7D7D7D7D7D700D7D7D7D7D7D7D7D7D7D7D7D7D7D7D7D7D7D7D7D7D7D7D7D7D7D7D7D7D7D7D7D7
310
D7D7D7D7D7D70000D7D7D7D7D7D70000D7D7D7D7D7D7D7D7D7D7D7D7D7D7D7D7D7D7D7D7D7D7D7D7D7D7D7D70000D7D700D7D7D7D700D7D7D7D7D7D7D7D7D7D7D7D7D7D7D7D7D7D70000D7D700D7D7D7D7D7D7D7D7D7D7D700D7D7D7D7D7D7D7D7D7D7D7D7D7D7D7D7D7D7D7D7D7D7D7D7D7D7D7D7D7D7D7D7D7D7D7D7D7D7
310
D7D7D7D7D7D7D7D7D7D7D7D7D7D7D7D7D7D7D7D7D7D7D7D7D7D7D7D7D7D7D700D7D7D7D7D7D7D7D7D70000D7D7D7D7D7D7D7D7D700D7D7D7D7D7D7D7D7D7D7D7D7D7D7D7D7D7D7D7D7D7D7D7D7D7D7D7D7D7D7D7D7D7D7D7D7D7D7D700D700D7D700D7D7D7D7D7D7D7D7D7D7D7D7D7D7D7D7D7D7D7D7D7D7D7D7D7D7D7D7D7
310
D7D7D7D7D700D7D700D7D7D7D7D7D7D7D7D7D7D7D7D7D7D7D7D7D7D70000D7D700D7D7D7D7D7D7D7D7D70000D7D700D7D7D7D7D7D7D7D7D7D7D7D7D7D7D7D7D7D7D7D7D7D7D7D7D7D7D7D7D7D7D7D7D7D7D7D7D7D7D7D7D7D7D7D7D7D7D7D7D7D7D7D7D7D7D7D7D7D7D7D7D7D7D7D7D7D7D7D7D700D7D7D7D7D7D7D7D7D700
310
00D7D7D7D7D7D7D7D7D700D7D7D7D7D7D7D7D7D7D7D7D7D7D7D7D7D7D7D7D7D7D7D7D7D7D7D7D7D7D7D7D7D7D7D7D7D7D7D700D7D70000D7D7D7D7D7D7D7D7D7D7D7D7D7D7D7D7D7D7D7D7D7D7D7D7D7D7D7D7D7D7D7D7D7D7D7D70000D7D7D7D7D7D7D7D7D7D7D7D7D7D7D7D7D7D7D700D7D70000D700D7D7D7D7D7D7D700
310
D7D7D7D700D7D7D7D7D7D7D7D7D7D7D7D7D7D7D7D7D7D7D7D7D7D7D7D7D7D7D7D7D7D7D7D7D7D7D7D7D7D7D7D7D7D7D7D7D7D7D7D7D7D7D7D7D7D7D7D7D7D7D7D7D7D7D7D7D7D7D7D7D700D7D7D7D7D7D7D7D7D70000D7D7D7D7D7D7D7D7D700D7D7D7D7D7D7D7D7D7D7D7D7D7D7D7D7D7D7D7D7D7D7D7D7D7D7D7D7D7D7D7
310
D7D7D7D7D7D7D7D700D7D7D7D7D7D7D7D7D7D7D7D7D7D7D7D7D7D7D7D7D7D7D7D7D7D7D7D7D7D7D7D7D7D7D7D7D7D7D7D7D7D7D7D7D7D7D7D7D7D7D7D7D7D7D7D7D7D700D7D700D7D7D7D7D7D7D7D7D7D7D700D7D7D7D7D7D7D700D7D7D7D7D7D7D7D7D7D7D7D7D7D7D7D7D7D7D7D7D7D7D7D7D7D7D7D7D7D7D7D7D7D7D7D7
310
D7D7D7D7D7D7D7D7D7D7D7D7D7D7D7D7D7D7D7D7D7D7D7D7D7D7D7D7D7D7D7D700D7D7D7D7D7D7D7D7D70000D7D7D7D7D7D7D7D7D700D7D7D7D7D7D7D7D7D7D7D7D7D7D7D7D7D7D7D7D7D7D7D7D7D7D7D7D7D7D7D7D7D7D7D7D7D7D7D700D7D7D7D7D7D7D7D7D7D7D7D7D7D7D7D7D7D7D7D7D7D7D7D7D7D7D7D7D7D7D7D7D7
310
D7D7D7D7D7D7D7D7D7D7D7D7D7D7D7D7D7D7D7D7D7D70000D7D700D7D7D7D7D7D7D7D7D70000D7D7D7D7D7D7D7D7D7D7D7D7D7D7D7D7D7D7D7D7D7D7D7D7D7D7D7D7D7D7D7D7D7D7D7D7D7D7D7D7D7D7D7D7D7D7D7D7D7D7D7D7D7D7D7D7D7D7D7D7D7D7D7D7D7D7D7D7D7D7D7D7D7D7D7D7D7D7D700D7D7D7D7D7D7D7D7D7
310
0000D7D7D7D7D7D7D7D7D700D7D7D7D7D7D7D7D7D7D7D7D7D7D7D7D7D7D7D7D7D7D7D7D7D7D7D7D7D7D7D7D7D7D7D7D7D7D7D700D7D7D7D7D7D7D7D7D7D7D7D7D7D7D7D7D7D7D7D7D7D7D7D7D7D7D7D7D7D7D7D7D7D7D7D7D7D7D7D7D7D7D7D7D7D7D7D7D7D7D7D7D7D700D7D70000D7D7D7D7D7D7D7D7D700D7D700D7D7D7
310
D7D7D7D7D7D7D700D7D7D7D7D7D7D7D7D7D7D7D7D7D7D7D7D7D7D7D7D7D7D7D7D7D7D7D7D7D7D7D7D7D7D7D7D7D7D7D7D7D7D7D7D7D7D7D7D7D7D7D7D7D7D7D7D7D7D7D7D7D7D7D7D7D7D700D7D7D7D7D7D7D7D7D70000D7D7D7D7D7D7D7D7D700D7D7D7D7D7D7D7D7D7D7D7D7D7D7D7D7D7D7D7D7D7D7D7D7D7D7D7D7D7D7
310
D7D7D7D7D7D7D7D7D700D7D7D7D7D7D7D7D7D7D7D7D7D7D7D7D7D7D7D7D7D7D7D7D7D7D7D7D7D7D7D7D7D7D7D7D7D7D7D7D7D7D7D7D7D7D7D7D7D7D7D700D7D700D7D7D7D7D7D7D7D7D7D7D700D7D7D7D7D7D700D7D7D7D7D7D7D7D7D7D7D7D7D7D7D7D7D7D7D7D7D7D7D7D7D7D7D7D7D7D7D7D7D7D7D7D7D7D7D7D7D7D7D7
310
D7D7D7D7D7D7D7D7D7D7D7D7D7D7D7D7D7D7D7D7D7D7D7D7D7D7D7D7D7D7D7D7D700D7D7D7D7D7D7D7D7D70000D7D7D7D7D7D7D7D7D700D7D7D7D7D7D7D7D7D7D7D7D7D7D7D7D7D7D7D7D7D7D7D7D7D7D7D7D7D7D7D7D7D7D7D7D7D7D7D700D7D7D7D7D7D7D7D7D7D7D7D7D7D7D7D7D7D7D7D7D7D7D7D7D7D7D7D7D7D7D7D7
310
D7D7D7D7D7D7D7D7D7D7D7D7D7D7D7D7D70000D7D700D7D7D7D7D7D7D7D7D7D70000D7D7D7D7D7D7D7D700D7D7D7D7D7D7D7D7D7D7D7D7D7D7D7D7D7D7D7D7D7D7D7D7D7D7D7D7D7D7D7D7D7D7D7D7D7D7D7D7D7D7D7D7D7D7D7D7D7D7D7D7D7D7D7D7D7D7D7D7D7D7D7D7D7D7D7D7D7D7D7D7D7D7D700D7D7D7D7D7D7D7D7
310
D70000D7D7D7D7D7D7D7D7D700D7D7D7D7D7D7D7D7D7D7D7D7D7D7D7D7D7D7D7D7D7D7D7D7D7D7D7D7D7D7D7D7D7D7D7D7D7D7D700D7D7D7D7D7D7D7D7D7D7D7D7D7D7D7D7D7D7D7D7D7D7D7D7D7D7D7D7D7D7D7D7D7D7D7D7D7D7D7D7D7D7D7D7D7D7D700D7D700D7D7D7D7D7D7D7D7D7D700D7D7D7D7D7D7D7D7D7D7D7D7
310
D7D700D7D7D7D7D7D700D7D7D7D7D7D7D7D7D7D7D7D7D7D7D7D7D7D7D7D7D7D7D7D7D7D7D7D7D7D7D7D7D7D7D7D7D7D7D7D7D7D7D7D7D7D7D7D7D7D7D7D7D7D7D7D7D7D7D7D7D7D7D7D7D7D700D7D7D7D7D7D7D7D7D70000D7D7D7D7D7D7D7D7D700D7D7D7D7D7D7D7D7D7D7D7D7D7D7D7D7D7D7D7D7D7D7D7D7D7D7D7D7D7
310
D7D7D7D7D7D7D7D7D7D700D7D7D7D7D7D7D7D7D7D7D7D7D7D7D7D7D7D7D7D7D7D7D7D7D7D7D7D7D7D7D7D7D7D7D7D7D7D7D7D7D7D7D7D700D7D700D7D7D7D7D7D7D7D7D7D7D700D7D7D7D7D7D7D7D7D7D7D7D7D7D7D7D7D7D700D7D7D7D7D700D7D7D7D7D7D7D7D7D7D7D7D7D7D7D7D7D7D7D7D7D7D7D7D7D7D7D7D7D7D7D7
310
D7D7D7D7D7D7D7D7D7D7D7D7D7D7D7D7D7D7D7D7D7D7D7D7D7D7D7D7D7D7D7D7D7D700D7D7D7D7D7D7D7D7D70000D7D7D7D7D7D7D7D7D700D7D7D7D7D7D7D7D7D7D7D7D7D7D7D7D7D7D7D7D7D7D7D7D7D7D7D7D7D7D7D7D7D7D7D7D7D7D7D700D7D7D7D7D7D7D7D7D7D7D7D7D7D7D7D7D7D7D7D7D7D7D7D7D7D7D7D7D7D7D7
310
D7D7D7D7D7D7D7D7D7D7D70000D7D700D7D7D7D7D7D7D7D7D7D70000D7D7D7D7D7D7D7D7D7D7D7D7D7D7D7D7D7D7D7D700D7D7D7D7D7D7D7D7D7D7D7D7D7D7D7D7D7D7D7D7D7D7D7D7D7D7D7D7D7D7D7D7D7D7D7D7D7D7D7D7D7D7D7D7D7D7D7D7D7D7D7D7D7D7D7D7D7D7D7D7D7D7D7D7D7D7D7D7D7D700D7D7D7D7D7D7D7
310
D7D70000D7D7D7D7D7D7D7D7D700D7D7D7D7D7D7D7D7D7D7D7D7D7D7D7D7D7D7D7D7D7D7D7D7D7D7D7D7D7D7D7D7D7D7D7D7D7D7D700D7D7D7D7D7D7D7D7D7D7D7D7D7D7D7D7D7D7D7D7D7D7D7D7D7D7D7D7D7D7D7D7D7D7D7D7D7D7D7D700D7D700D7D7D7D7D7D7D7D7D7D700D7D7D7D7D7D7D7D7D7D7D7D7D7D7D7D7D7D7
310
D7D7D7D7D7D7D7D700D7D7D700D7D7D7D7D7D7D7D7D7D7D7D7D7D7D7D7D7D7D7D7D7D7D7D7D7D7D7D7D7D7D7D7D7D7D7D7D7D7D7D7D7D7D7D7D7D7D7D7D7D7D7D7D7D7D7D7D7D7D7D7D7D7D7D700D7D7D7D7D7D7D7D7D70000D7D7D7D7D7D7D7D7D700D7D7D7D7D7D7D7D7D7D7D7D7D7D7D7D7D7D7D7D7D7D7D7D7D7D7D7D7
310
D7D7D7D7D7D7D7D7D7D7D700D7D7D7D7D7D7D7D7D7D7D7D7D7D7D7D7D7D7D7D7D7D7D7D7D7D7D7D7D7D7D7D7D7D7D7D7D7D70000D70000D7D7D7D7D7D7D7D7D7D700D7D7D7D7D7D7D7D7D7D7D7D7D7D7D7D7D7D7D7D7D7D7D7D7D7D7D7D7D7D7D700D7D7D7D7D7D7D7D7D7D7D7D7D7D7D7D7D7D7D7D7D7D7D7D7D7D7D7D7D7
310
D7D7D7D7D7D7D7D7D7D7D7D7D7D7D7D7D7D7D7D7D7D7D7D7D7D7D7D7D7D7D7D7D7D7D700D7D7D7D7D7D7D7D7D70000D7D7D7D7D7D7D7D7D700D7D7D7D7D7D7D7D7D7D7D7D7D7D7D7D7D7D7D7D7D7D7D7D7D7D7D7D7D7D7D7D7D7D7D7D7D7D7D700D7D7D7D7D7D7D7D7D7D7D7D7D7D7D7D7D7D7D7D7D7D7D7D7D7D7D7D7D7D7
310
D7D7D7D7D70000D7D700D7D7D7D7D7D7D7D7D7D700D7D7D7D7D7D7D7D7D7D7D7D7D7D7D7D7D7D7D7D7D7D7D7D7D7D7D7D7D7D7D7D700D7D700D7D7D7D7D7D7D7D7D7D7D7D7D7D7D7D7D7D7D7D7D7D7D7D7D7D7D7D7D7D7D7D7D7D7D7D7D7D7D7D7D7D7D7D7D7D7D7D7D7D7D7D7D7D7D7D7D7D7D7D7D7D7D700D7D7D7D7D7D7
310
D7D7D70000D7D7D7D7D7D7D7D7D700D7D7D7D7D7D7D7D7D7D7D7D7D7D7D7D7D7D7D7D7D7D7D7D7D7D7D7D7D7D7D7D7D7D7D7D7D7D7D700D7D7D7D7D7D7D7D7D7D7D7D7D7D7D7D7D7D7D7D7D7D7D7D7D7D7D7D7D7D7D7D7D7D700D7D70000D7D7D7D7D7D7D7D7D70000D7D7D7D7D7D7D7D7D7D7D7D7D7D7D7D7D7D7D7D7D7D7
310
D7D7D7D7D7D7D7D7D7D7D7D700D7D7D7D7D7D7D7D7D7D7D7D7D7D7D7D7D7D7D7D7D7D7D7D7D7D7D7D7D7D7D7D7D7D7D7D7D7D7D7D7D7D7D7D7D7D7D7D7D7D7D7D7D7D7D7D7D7D7D7D7D7D7D7D7D700D7D7D7D7D7D7D7D7D70000D7D7D7D7D7D7D7D7D700D7D7D7D7D7D7D7D7D7D7D7D7D7D7D7D7D7D7D7D7D7D7D7D7D7D7D7
310
D7D7D7D7D7D7D7D7D7D7D7D700D7D7D7D7D7D7D7D7D7D7D7D7D7D7D7D7D7D7D7D7D7D7D7D7D7D7D7D7D7D7D70000D70000D7D7D7D7D7D7D7D7D7D700D7D7D7D7D7D7D7D7D7D7D7D7D7D7D7D7D7D7D7D7D7D7D7D7D7D7D7D7D7D7D7D7D7D7D7D7D7D7D70000D7D7D7D7D7D7D7D7D7D7D7D7D7D7D7D7D7D7D7D7D7D7D7D7D7D7
310
D7D7D7D7D7D7D7D7D7D7D7D7D7D7D7D7D7D7D7D7D7D7D7D7D7D7D7D7D7D7D7D7D7D7D7D700D7D7D7D7D7D7D7D7D70000D7D7D7D7D7D7D7D7D700D7D7D7D7D7D7D7D7D7D7D7D7D7D7D7D7D7D7D7D7D7D7D7D7D7D7D7D7D7D7D7D7D7D7D7D7D7D7D700D7D7D7D7D7D7D7D7D7D7D7D7D7D7D7D7D7D7D7D7D7D7D7D7D7D7D7D700
310
00D7D700D7D7D7D7D7D7D7D7D7D700D7D7D7D7D7D7D7D7D7D7D7D7D7D7D7D7D7D7D7D7D7D7D7D7D7D7D7D7D7D7D7D7D7D7D7D7D7D7D7D7D7D7D7D7D7D7D7D7D7D7D7D7D7D7D7D7D7D7D7D7D7D7D7D7D7D7D7D7D7D7D7D7D7D7D7D7D7D7D7D7D7D7D7D7D7D7D7D7D7D7D7D7D7D7D7D7D7D7D7D7D7D7D7D7D7D700D7D7D7D7D7
310
D7D7D7D70000D7D7D7D7D7D7D7D7D700D7D7D7D7D7D7D7D7D7D7D7D7D7D7D7D7D7D7D7D7D7D7D7D7D7D7D7D7D7D7D7D7D7D7D7D7D7D7D700D7D7D7D7D7D7D7D7D7D7D7D7D7D7D7D7D7D7D7D7D7D7D7D7D7D7D700D7D70000D7D7D7D7D7D7D7D7D70000D7D7D7D7D7D7D7D7D7D7D7D7D7D7D7D7D7D7D7D7D7D7D7D7D7D7D7D7
310
D7D7D7D7D7D7D7D7D7D7D7D7D7D7D7D7D7D7D7D7D7D7D7D7D7D7D7D7D7D7D7D7D7D7D7D7D7D7D7D7D7D7D7D7D7D7D7D7D7D7D7D7D7D7D7D7D7D7D7D7D7D7D7D7D7D7D7D7D7D7D7D7D7D7D7D7D7D7D700D7D7D7D7D7D7D7D7D70000D7D7D7D7D7D7D7D7D700D7D7D7D7D7D7D7D7D7D7D7D7D7D7D7D7D7D7D7D7D7D7D7D7D7D7
310
D7D7D7D7D7D7D7D7D7D7D7D7D700D7D7D7D7D7D7D7D7D7D7D7D7D7D7D7D7D7D7D7D7D7D7D7D70000D70000D7D7D7D7D7D7D7D7D7D700D7D7D7D7D7D7D7D7D7D7D7D7D7D7D7D7D7D7D7D7D7D7D7D7D7D7D7D7D7D7D7D7D7D7D7D7D7D7D7D7D7D7D7D7D7D7D7D7D7D7D7D7D7D7D7D7D7D7D7D7D7D7D7D7D7D7D7D7D7D7D7D7D7
310
D7D7D7D7D7D7D7D7D7D7D7D7D7D7D7D7D7D7D7D7D7D7D7D7D7D7D7D7D7D7D7D7D7D7D7D7D700D7D7D7D7D7D7D7D7D70000D7D7D7D7D7D7D7D7D700D7D7D7D7D7D7D7D7D7D7D7D7D7D7D7D7D7D7D7D7D7D7D7D7D7D7D7D7D7D7D7D7D7D7D7D7D7D7D700D7D7D7D7D7D7D7D7D7D7D7D7D7D7D7D7D7D7D7D7D7D7D700D7D700D7
310
D7D7D7D7D7D7D7D7D70000D7D7D7D7D7D7D7D7D7D7D7D7D7D7D7D7D7D7D7D7D7D7D7D7D7D7D7D7D7D7D7D7D7D7D7D7D7D7D7D7D7D7D7D7D7D7D7D7D7D7D7D7D7D7D7D7D7D7D7D7D7D7D7D7D7D7D7D7D7D7D7D7D7D7D7D7D7D7D7D7D7D7D7D7D7D7D7D7D7D7D7D7D7D7D7D7D7D7D7D7D7D7D7D7D7D7D7D7D7D7D700D7D7D7D7
310
D7D7D7D7D70000D7D7D7D7D7D7D7D7D700D7D7D7D7D7D7D7D7D7D7D7D7D7D7D7D7D7D7D7D7D7D7D7D7D7D7D7D7D7D7D7D7D7D7D7D7D7D7D700D7D7D7D7D7D7D7D7D7D7D7D7D7D7D7D7D7D7D7D700D7D70000D7D7D7D7D7D7D7D7D70000D7D7D7D7D7D7D7D7D7D7D7D7D7D7D7D7D7D7D7D7D7D7D7D7D7D7D7D7D7D7D7D7D7D7
310
D7D7D7D7D7D7D7D7D7D7D7D7D7D7D7D7D7D7D7D7D7D7D7D7D7D7D7D7D7D7D7D7D7D7D7D7D7D7D7D7D7D7D7D7D7D7D7D7D7D7D7D7D7D7D7D7D7D7D7D7D7D7D7D7D7D7D7D7D7D7D7D7D7D7D7D7D7D7D7D700D7D7D7D7D7D7D7D7D70000D7D7D7D7D7D7D7D7D700D7D7D7D7D7D7D7D7D7D7D7D7D7D7D7D7D7D7D7D7D7D7D7D7D7
310
D7D7D7D7D7D7D7D7D7D7D7D7D7D700D7D7D7D7D7D7D7D7D7D7D7D7D7D7D7D7D7D7D700D7D700D7D7D7D7D7D7D7D7D7D700D7D7D7D7D7D7D7D7D7D7D7D7D7D7D7D7D7D7D7D7D7D7D7D7D7D7D7D7D7D7D7D7D7D7D7D7D7D7D7D7D7D7D7D7D7D7D7D7D7D7D7D7D7D7D7D7D7D7D7D7D7D7D7D7D7D7D7D7D7D7D7D7D7D7D7D7D7D7
310
D7D7D7D7D7D7D7D7D7D7D7D7D7D7D7D7D7D7D7D7D7D7D7D7D7D7D7D7D7D7D7D7D7D7D7D7D7D700D7D7D7D7D7D7D7D7D70000D7D7D7D7D7D7D7D7D700D7D7D7D7D7D7D7D7D7D7D7D7D7D7D7D7D7D7D7D7D7D7D7D7D7D7D7D7D7D7D7D7D7D7D7D7D7D7D700D7D7D7D7D7D7D7D7D7D7D7D7D7D7D7D700D7D700D7D7D7D7D7D7D7
310
D7D7D70000D7D7D7D7D7D7D7D7D7D7D7D7D7D7D7D7D7D7D7D7D7D7D7D7D7D7D7D7D7D7D7D7D7D7D7D7D7D7D7D7D7D7D7D7D7D7D7D7D7D7D7D7D7D7D7D7D7D7D7D7D7D7D7D7D7D7D7D7D7D7D7D7D7D7D7D7D7D7D7D7D7D7D7D7D7D7D7D7D7D7D7D7D7D7D7D7D7D7D7D7D7D7D7D7D7D7D7D7D7D7D7D7D7D7D7D7D7D700D7D7D7
310
D7D7D7D7D7D70000D7D7D7D7D7D7D7D7D700D7D7D7D7D7D7D7D7D7D7D7D7D7D7D7D7D7D7D7D7D7D7D7D7D7D7D7D7D7D7D7D7D7D7D7D7D7D7D700D7D7D7D7D7D7D7D7D7D7D7D7D700D7D70000D7D7D7D7D7D7D7D7D70000D7D7D7D7D7D7D7D7D7D7D7D7D7D7D7D7D7D7D7D7D7D7D7D7D7D7D7D7D7D7D7D7D7D7D7D7D7D7D7D7
310
D7D7D7D7D7D7D7D7D7D7D7D7D7D7D7D7D7D7D7D7D7D7D7D7D7D7D7D7D7D7D7D7D7D7D7D7D7D7D7D7D7D7D7D7D7D7D7D7D7D7D7D7D7D7D7D7D7D7D7D7D7D7D7D7D7D7D7D7D7D7D7D7D7D7D7D7D7D7D7D7D700D7D7D7D7D7D7D7D7D70000D7D7D7D7D7D7D7D7D700D7D7D7D7D7D7D7D7D7D7D7D7D7D7D7D7D7D7D7D7D7D7D7D7
310
D7D7D7D7D7D7D7D7D7D7D7D7D7D7D700D7D7D7D7D7D7D7D7D7D7D7D700D7D700D7D7D7D7D7D7D7D7D7D700D7D7D7D7D7D7D7D7D7D7D7D7D7D7D7D7D7D7D7D7D7D7D7D7D7D7D7D7D7D7D7D7D7D7D7D7D7D7D7D7D7D7D7D7D7D7D7D7D7D7D7D7D7D7D7D7D7D7D7D7D7D7D7D7D7D7D7D7D7D7D7D7D7D7D7D7D7D7D7D7D7D7D7D7
310
D7D7D7D7D7D7D7D7D7D7D7D7D7D7D7D7D70000D7D7D7D7D7D7D7D7D7D7D7D7D7D7D7D7D7D7D7D700D7D7D7D7D7D7D7D7D70000D7D7D7D7D7D7D7D7D700D7D7D7D7D7D7D7D7D7D7D7D7D7D7D7D7D7D7D7D7D7D7D7D7D7D7D7D7D7D7D7D7D7D7D7D7D7D7D700D7D7D7D7D7D7D7D7D700D7D700D7D7D7D7D7D7D7D7D7D70000D7
310
D7D7D7D7D7D7D7D7D7D7D7D7D7D7D7D7D7D7D7D7D7D7D7D7D7D7D7D7D7D7D7D7D7D7D7D7D7D7D7D7D7D7D7D7D7D7D7D7D7D7D7D7D7D7D7D7D7D7D7D7D7D7D7D7D7D7D7D7D7D7D7D7D7D7D7D7D7D7D7D7D7D7D7D7D7D7D7D7D7000000D7D700D70000D7D700D7D70000D700D7D7D7D70000D7D700D70000D7D7D7D7D700D7D7
310
D7D7D7D7D7D7D70000D7D7D7D7D7D7D7D7D700D7D7D7D7D7D7D7D7D7D7D7D7D7D7D7D7D7D7D7D7D7D7D7D7D7D7D7D7D7D7D7D7D7D7D7D7D7D7D700D7D7D7D7D7D7D70000D7D700D7D7D7D7D7D7D7D7D7D700D7D7D7D7D7D7D7D7D7D7D7D7D7D7D7D7D7D7D7D7D7D7D7D7D7D7D7D7D7D7D7D7D7D7D7D7D7D7D7D7D7D7D7D7D7
310
D7D7D7D7D7D7D7D7D7D7D7D7D7D7D7D7D7D7D7D7D7D7D7D7D7D7D7D7D7D7D7D7D7D7D7D7D7D7D7D7D7D7D7D7D7D7D700D700D7D700D7D7D7D70000D700D700D700D7D7D70000D7D700D7D700D700D7D7D7D700D7D7D7D7D7D7D7D7D70000D7D7D7D7D7D7D7D7D700D7D7D7D7D7D7D7D7D7D7D7D7D7D7D7D7D7D7D7D7D7D7D7
310
D7D7D7D7D7D7D7D7D7D7D7D7D7D7D70000D7D7D7D7D700D7D700D7D7D7D7D7D7D7D7D7D700D7D7D7D7D7D7D7D7D7D7D7D7D7D7D7D7D7D7D7D7D7D7D7D7D7D7D7D7D7D7D7D7D7D7D7D7D7D7D7D7D7D7D7D7D7D7D7D7D7D7D7D7D7D7D7D7D7D7D7D7D7D7D7D7D7D7D7D7D7D7D7D7D7D7D7D7D7D7D7D7D7D7D7D7D7D7D7D7D7D7
310
D7D7D7D7D700D700D7D700D7D7D7D70000D700D700D700D7D7D70000D7D70000D700D700D7D7D7D700D7D7D7D7D7D7D7D7D70000D7D7D7D7D7D7D7D7D700D7D7D7D7D7D7D7D7D7D7D7D7D7D7D7D7D7D7D7D7D7D7D7D7D7D7D7D7D7D7D7D7D7D7D7D7D7D7D700D7D700D7D700D7D7D7D7D7D7D7D7D7D70000D7D7D7D7D7D7D7
310
D7D7D7D7D7D7D7D7D7D7D7D7D7D7D7D7D7D7D7D7D7D7D7D7D7D7D7D7D7D7D7D7D7D7D7D7D7D7D7D7D7D7D7D7D7D7D7D7D7D7D7D7D7D7D7D7D7D7D7D7D7D7D7D7D7D7D7D7D7D7D7D7D7D7D7D7D7D7D7D7D7D7D7D7D7D7D7D7D7D700D700D7D7D7D7D7D7D7D7D7D7D7D7D7D7D7D7D7D7D7D7D7D7D7D7D700D7D7D7D7D7D700D7
310
D7D7D7D7D7D7D7D70000D7D7D7D7D7D7D7D7D700D7D7D7D7D7D7D7D7D7D7D7D7D7D7D7D7D7D7D7D7D7D7D7D7D7D7D7D7D7D7D7D7D7D7D7D7D7D7D700D700D7D700D7D7D7D7D7D7D7D7D7D700D7D7D7D7D7D7D7D7D7D7D7D7D7D7D7D7D7D7D7D7D7D7D7D7D7D7D7D7D7D7D7D7D7D7D7D7D7D7D7D7D7D7D7D7D7D7D7D7D7D7D7
310
D7D7D7D7D7D7D7D7D7D7D7D7D7D7D7D7D7D7D7D7D7D7D7D7D7D7D7D7D7D7D7D7D7D7D7D7D7D7D7D7D7D7D7D7D7D7D7D7D7D7D7D7D7D7D7D7D7D7D7D7D7D7D7D7D7D7D7D7D7D7D7D7D7D7D7D7D7D7D7D7D7D7D700D7D7D7D7D7D7D7D7D70000D7D7D7D7D7D7D7D7D700D7D7D7D7D7D7D7D7D7D7D7D7D7D7D7D7D7D7D7D7D7D7
310
D7D7D7D7D7D7D7D7D7D7D7D7D7D7D7D7D700D7D7D7D7D7D7D7D7D7D7D7D700D7D7D7D7D7D7D7D7D7D7D7D7D7D7D7D7D7D7D7D7D7D7D7D7D7D7D7D7D7D7D7D7D7D7D7D7D7D7D7D7D7D7D7D7D7D7D7D7D7D7D7D7D7D7D7D7D7D7D7D7D7D7D7D7D7D7D7D7D7D7D7D7D7D7D7D7D7D7D7D7D7D7D7D7D7D7D7D7D7D7D7D7D7D7D7D7
310
D7D7D7D7D7D7D7D7D7D7D7D7D7D7D7D7D7D7D7D7D7D7D7D7D7D7D7D7D7D7D7D7D7D7D7D7D7D7D7D7D700D7D7D7D7D7D7D7D7D70000D7D7D7D7D7D7D7D7D700D7D7D7D7D7D7D7D7D7D7D7D7D7D7D7D7D7D7D7D7D7D7D7D7D7D7D7D7D7D7D7D7D7D7D7D7D7D7D70000D7D7D7D7D7D7D7D7D7D700D7D7D7D7D7D7D7D7D7D7D7D7
310
D7D7D7D7D7D7D7D7D7D7D7D7D7D7D7D7D7D7D7D7D7D7D7D7D7D7D7D7D7D7D7D7D7D7D7D7D7D7D7D7D7D7D7D7D7D7D7D7D7D7D7D7D7D7D7D7D7D7D7D7D7D7D7D7D7D7D7D7D7D7D7D7D7D7D7D7D7D7D7D7D7D7D7D7D7D7D7D7D7D7D7D7D7D7D7D7D7D7D7D7D7D7D7D7D7D7D7D7D7D7D7D7D7D7D7D7D7D7D7D7D7D7D7D7D7D700
310
D7D7D7D7D7D7D7D7D70000D7D7D7D7D7D7D7D7D700D7D7D7D7D7D7D7D7D7D7D7D7D7D7D7D7D7D7D7D7D7D7D7D7D7D7D7D7D7D7D7D7D7D7D7D7D7D7D7D7D7D7D7D7D7D7D7D700D7D7D7D7D7D7D7D7D7D7D7D7D7D7D7D7D7D7D7D7D7D7D7D7D7D7D7D7D7D7D7D7D7D7D7D7D7D7D7D7D7D7D7D7D7D7D7D7D7D7D7D7D7D7D7D7D7
310
D7D7D7D7D7D7D7D7D7D7D7D7D7D7D7D7D7D7D7D7D7D7D700D700D7000000D7D7D7D700D7D7D70000D7000000D7D7D7D7D70000D7D700D7D700D700D7D7D7D70000D7D700D7D700D70000D7D70000D7D7D7D7D7D700D7D7D7D7D7D7D7D7D70000D7D7D7D7D7D7D7D7D700D7D7D7D7D7D7D7D7D7D7D7D7D7D7D7D7D7D7D7D7D7
310
D7D7D7D7D7D7D7D7D7D7D7D7D7D7D7D7D700D7D7D7D7D7D7D70000D7D7D7D7D7D7D7D7D7D7D7D7D7D7D7D7D7D7D7D7D7D7D7D7D7D7D7D7D7D7D7D7D7D7D7D7D7D7D7D7D7D7D7D7D7D7D7D7D7D7D7D7D7D7D7D7D7D7D7D7D7D7D7D7D7D7D7D7D7D7D7D7D7D7D7D7D7D7D7D7D700D700D7D7D7D7D7D7D7D700D7D7D7D7D7D700
310
D700D7D7D7D7D700D70000D700D700D70000D7D7D700D70000D700D700D700D7D700D700D7D7D7D7D7D700D7D7D7D7D7D7D7D7D70000D7D7D7D7D7D7D7D7D700D7D7D7D7D7D7D7D7D7D7D7D7D7D7D7D7D7D7D7D7D7D7D7D7D7D7D7D7D7D7D7D7D7D7D7D7D7D7D7D7D700D7D700D7D7D7D7D7D7D7D7D7D7D7D7D7D7D7D7D7D7
310
D7D7D7D7D7D7D7D7D7D7D7D7D7D7D7D7D7D7D7D7D7D7D7D7D7D7D7D7D7D7D7D7D7D7D7D7D7D7D7D7D7D7D7D7D7D7D7D7D7D7D7D7D7D7D7D7D7D7D7D7D7D7D7D7D7D700D7D7D7D7D700D7D7D7D7D7D700D7D700D700D700D7D7D7D7D700D70000D700D700D700D7D7D7D700D70000D700D700D70000D700D700D7D7D7D7D7D7
310
00D7D7D7D7D7D7D7D7D70000D7D7D7D7D7D7D7D7D700D7D7D7D7D7D7D7D7D7D7D7D7D7D7D7D7D7D7D7D7D7D7D7D7D7D7D7D7D7D7D7D7D7D7D7D7D7D7D7D7D7D7D7D7D7D7D7D7D7D7D7D7D7D7D7D7D7D7D7D7D7D7D7D7D7D7D7D7D7D7D7D7D7D7D7D7D7D7D7D7D7D7D7D7D7D7D7D7D7D7D7D7D7D7D7D7D7D7D7D7D7D7D7D7D7
310
D7D7D7D7D7D7D7D7D7D7D7D7D7D7D7D7D7D7D7D7D7D7D7D700D7D700D7000000D7D7D7D700D7D70000D70000000000D7D7D700D7D7D7D7D7D700D7D7D7D7D7D700D7D7D7D7D7D700D7D7D7D7D7D700D7D7D7D7D7D700D7D7D7D7D7D7D7D7D70000D7D7D7D7D7D7D7D7D700D7D7D7D7D7D7D7D7D7D7D7D7D7D7D7D7D7D7D7D7
310
D7D7D7D7D7D7D7D7D7D7D7D7D7D7D7D7D7D7D7D7D7D7D7D7D7D7D7D7D7D7D7D7D7D7D7D7D7D7D7D7D7D7D7D7D7D7D7D7D7D7D7D7D7D7D7D7D7D7D7D7D7D7D7D7D7D7D7D7D7D7D7D7D7D7D7D7D7D7D7D7D7D7D7D7D7D7D7D7D7D7D7D7D7D7D7D7D7D7D7D7D7D7D7D7D7D7D7D7D7D7D7D7D7D7D7D7D7D7D7D7D7D7D7D7D7D7D7
310
D7D7D7D7D7D7D7D7D7D7D7D7D7D7D7D7D7D7D7D7D7D7D7D7D7D7D7D7D7D7D7D7D7D7D7D7D7D7D7D7D7D7D700D7D7D7D7D7D7D7D7D70000D7D7D7D7D7D7D7D7D700D7D7D7D7D7D7D7D7D7D7D7D7D7D7D7D7D7D7D7D7D7D7D7D7D7D7D7D7D7D7D7D7D7D7D7D7D7D7D7D7D7D7D7D7D7D7D7D7D7D7D7D7D7D7D7D7D7D7D7D7D7D7
310
D7D7D7D7D7D7D7D7D7D7D7D7D7D7D7D7D7D7D7D7D7D7D7D7D7D7D7D7D7D7D7D7D7D7D7D7D7D7D7D7D7D7D7D7D7D7D7D7D7D7D7D7D7D7D7D7D7D7D7D7D7D7D7D7D7D7D7D7D7D7D7D7D7D7D7D7D7D7D7D7D7D7D7D7D7D7D7D7D7D7D7D7D7D7D7D7D7D7D7D7D7D7D7D7D7D7D7D7D7D7D7D7D7D7D7D7D7D7D7D7D7D7D7D7D7D7D7
310
D700D7D7D7D7D7D7D7D7D70000D7D7D7D7D7D7D7D7D700D7D7D7D7D7D7D7D7D7D7D7D7D7D7D7D7D7D7D7D7D7D7D7D7D7D7D7D7D7D7D7D7D7D7D7D7D7D7D7D7D7D7D7D7D7D7D7D7D7D7D7D7D7D7D7D7D7D7D7D7D7D7D7D7D7D7D7D7D7D7D7D7D7D7D7D7D7D7D7D7D7D7D7D7D7D7D7D7D7D7D7D7D7D7D7D7D7D7D7D7D7D7D7D7
310
D7D7D7D7D7D7D7D7D7D7D7D7D7D7D7D7D7D7D7D7D7D7D7D7D7D7D7D7D7D7D7D7D7D7D7D7D7D7D7D7D7D7D7D7D7D7D7D7D7D7D7D7D7D7D7D700D7D7D7D7D7D7D7D7D7D7D7D7D7D7D7D7D7D7D7D7D7D7D7D7D7D7D7D7D700D7D7D7D7D7D7D7D7D70000D7D7D7D7D7D7D7D7D700D7D7D7D7D7D7D7D7D7D7D7D7D7D7D7D7D7D7D7
310
D7D7D7D7D7D7D7D7D7D7D7D7D7D7D7D7D7D7D7D7D7D7D7D7D7D7D7D7D7D7D7D7D7D7D7D7D7D7D7D7D7D7D7D7D7D7D7D7D7D7D7D7D7D7D7D7D7D7D7D7D7D7D7D7D7D7D7D7D7D7D7D7D7D7D7D7D7D7D7D7D7D7D7D7D7D7D7D7D7D7D7D7D7D7D7D7D7D7D7D7D7D7D7D7D7D7D7D70000D7D700D7D700D7D70000D7D700D700D7D7
310
000000D7D7D7D700D70000D7D70000D7D700D700D7D7D700D700D7D7D7D700000000D7D700D7D7D7D7D7D7D700D7D7D7D7D7D7D7D7D70000D7D7D7D7D7D7D7D7D700D7D7D7D7D7D7D7D7D7D7D7D7D7D7D7D7D7D7D7D7D7D7D7D7D7D7D7D7D7D7D7D7D7D7D7D7D7D7D7D7D7D7D7D7D7D7D7D7D7D7D7D7D7D7D7D7D7D7D7D7D7
310
D7D7D7D7D7D7D7D7D7D7D7D7D7D7D7D7D7D7D7D7D7D7D7D7D7D7D7D7D7D7D7D7D7D7D7D7D7D7D7D7D7D7D7D7D7D7D7D7D7D7D7D7D7D7D7D7D7D7D7D7D7D7D7D7D7D700D7D700D7D700D700D700D700D70000D7D7D7D7D700D7D7D7D700D7D7D7D700D700D70000D700D7D700D7D70000D7D7D700D700D70000D700D7D7D7D7
310
D7D700D7D7D7D7D7D7D7D7D70000D7D7D7D7D7D7D7D7D700D7D7D7D7D7D7D7D7D7D7D7D7D7D7D7D7D7D7D7D7D7D7D7D7D7D7D7D7D7D7D7D7D7D7D7D7D7D7D7D7D7D7D7D7D7D7D7D7D7D7D7D7D7D7D7D7D7D7D7D7D7D7D7D7D7D7D7D7D7D7D7D7D7D7D7D7D7D7D7D7D7D7D7D7D7D7D7D7D7D7D7D7D7D7D7D7D7D7D7D7D7D7D7
310
D7D7D7D7D7D7D7D7D7D7D7D7D7D7D7D7D7D7D7D7D7D7D7D7D7D7D700D7D70000D7D700D700D70000D7D7D7D7D70000D7D7D700D7D700D700D700D70000D700D7D70000D700D7D7D7D700D700D70000D700D7D7D7D7D7D700D7D7D7D7D7D7D7D7D70000D7D7D7D7D7D7D7D7D700D7D7D7D7D7D7D7D7D7D7D7D7D7D7D7D7D7D7
310
D7D7D7D7D7D7D7D7D7D7D7D7D7D7D7D7D7D7D7D7D7D7D7D7D7D7D7D7D7D7D7D7D7D7D7D7D7D7D7D7D7D7D7D7D7D7D7D7D7D7D7D7D7D7D7D7D7D7D7D7D7D7D7D7D7D7D7D7D7D7D7D7D7D7D7D7D7D7D7D7D7D7D7D7D7D7D7D7D7D7D7D7D7D7D7D7D7D7D7D7D7D7D7D7D7D7D7D7D70000D7D7D7D7D70000D700D7D7D700D7D7D7
310
D7D7D700D7D7D7D7D7D7D7D7D7D7D7D7D7D7D7D700D7D7D7D7D7D7D7D7D7D700D7D7D7D7D7D7D7D7D7D7D7D7D700D7D7D7D7D7D7D7D7D70000D7D7D7D7D7D7D7D7D700D7D7D7D7D7D7D7D7D7D7D7D7D7D7D7D7D7D7D7D7D7D7D7D7D7D7D7D7D7D7D7D7D7D7D7D7D7D7D7D7D7D7D7D7D7D7D7D7D7D7D7D7D7D7D7D7D7D7D7D7
310
D7D7D7D7D7D7D7D7D7D7D7D7D7D7D7D7D7D7D7D7D7D7D7D7D7D7D7D7D7D7D7D7D7D7D7D7D7D7D7D7D7D7D7D7D7D7D7D7D7D7D7D7D7D7D7D7D7D7D7D7D7D7D7D7D7D7D7D7D7D7D7D7D7D7D7D7D7D7D7D7D7D7D7D7D7D7D7D7D7D7D7D7D7D7D7D7D7D7D7D7D7D7D7D7D7D7D7D7D7D7D7D7D7D7D7D7D7D7D7D7D7D7D7D7D7D7D7
310
D7D7D700D7D7D7D7D7D7D7D7D70000D7D7D7D7D7D7D7D7D700D7D7D7D7D7D7D7D7D7D7D7D7D7D7D7D7D7D7D7D7D7D7D7D7D7D7D7D7D7D7D7D7D7D7D7D7D7D7D7D7D7D7D7D7D7D7D7D7D7D7D7D7D7D7D7D7D7D7D7D7D7D7D7D7D7D7D7D7D7D7D7D7D7D7D7D7D7D7D7D7D7D7D7D7D7D7D7D7D7D7D7D7D7D7D7D7D7D7D7D7D7D7
310
D7D7D7D7D7D7D7D7D7D7D7D7D7D7D7D7D7D7D7D7D7D7D7D7D7D7D7D7D7D7D7D7D7D7D7D7D7D7D7D7D7D7D7D7D7D7D7D7D7D7D7D7D7D7D7D7D7D7D7D7D7D7D7D7D7D7D7D7D7D7D7D7D7D7D7D7D7D7D7D7D7D7D7D7D7D7D7D700D7D7D7D7D7D7D7D7D70000D7D7D7D7D7D7D7D7D700D7D7D7D7D7D7D7D7D7D7D7D7D7D7D7D7D7
310
D7D7D7D7D7D7D7D7D7D7D7D7D7D7D7D7D7D7D7D7D7D7D7D7D7D7D7D7D7D7D7D7D7D7D7D7D7D7D7D7D7D7D7D7D7D7D7D7D7D7D7D7D7D7D7D7D7D7D7D7D7D7D7D7D7D7D7D7D7D7D7D7D7D7D7D7D7D7D7D7D7D7D7D7D7D7D7D7D7D7D7D7D7D7D7D7D7D7D7D7D7D7D7D7D7D7D7D7D7D7D7D7D7D7D7D7D7D7D7D7D7D7D7D7D7D7D7
310
D7D7D7D7D7D7D7D7D7D7D7D7D7D7D7D7D7D7D7D7D7D7D7D7D7D7D7D7D7D7D7D7D7D7D7D7D7D7D7D7D7D7D7D7D7D700D7D7D7D7D7D7D7D7D70000D7D7D7D7D7D7D7D7D700D7D7D7D7D7D7D7D7D7D7D7D7D7D7D7D7D7D7D7D7D7D7D7D7D7D7D7D7D7D7D7D7D7D7D7D7D7D7D7D7D7D7D7D7D7D7D7D7D7D7D7D7D7D7D7D7D7D7D7
310
D7D7D7D7D7D7D7D7D7D7D7D7D7D7D7D7D7D7D7D7D7D7D7D7D7D7D7D7D7D7D7D7D7D7D7D7D7D7D7D7D7D7D7D7D7D7D7D7D7D7D7D7D7D7D7D7D7D7D7D7D7D7D7D7D7D7D7D7D7D7D7D7D7D7D7D7D7D7D7D7D7D7D7D7D7D7D7D7D7D7D7D7D7D7D7D7D7D7D7D7D7D7D7D7D7D7D7D7D7D7D7D7D7D7D7D7D7D7D7D7D7D7D7D7D7D7D7
310
D7D7D7D700D7D7D7D7D7D7D7D7D70000D7D7D7D7D7D7D7D7D700D7D7D7D7D7D7D7D7D7D7D7D7D7D7D7D7D7D7D7D7D7D7D7D7D7D7D7D7D7D7D7D7D7D7D7D7D7D7D7D7D7D7D7D7D7D7D7D7D7D7D7D7D7D7D7D7D7D7D7D7D7D7D7D7D7D7D7D7D7D7D7D7D7D7D7D7D7D7D7D7D7D7D7D7D7D7D7D7D7D7D7D7D7D7D7D7D7D7D7D7D7
310
D7D7D7D7D7D7D7D7D7D7D7D7D7D7D7D7D7D7D7D7D7D7D7D7D7D7D7D7D7D7D7D7D7D7D7D7D7D7D7D7D7D7D7D7D7D7D7D7D7D7D7D7D7D7D7D7D7D7D7D7D7D7D7D7D7D7D7D7D7D7D7D7D7D7D7D7D7D7D7D7D7D7D7D7D7D7D7D7D700D7D7D7D7D7D7D7D7D70000D7D7D7D7D7D7D7D7D700D7D7D7D7D7D7D7D7D7D7D7D7D7D7D7D7
310
D7D7D7D7D7D7D7D7D7D7D7D7D7D7D7D7D7D7D7D7D7D7D7D7D7D7D7D7D7D7D7D7D7D7D7D7D7D7D7D7D7D7D7D7D7D7D7D7D7D7D7D7D7D7D7D7D7D7D7D7D7D7D7D7D7D7D7D7D7D7D7D7D7D7D7D7D7D7D7D7D7D7D7D7D7D7D7D7D7D7D7D7D7D7D7D7D7D7D7D7D7D7D7D7D7D7D7D7D7D7D7D7D7D7D7D7D7D7D7D7D7D7D7D7D7D7D7
310
D7D7D7D7D7D7D7D7D7D7D7D7D7D7D7D7D7D7D7D7D7D7D7D7D7D7D7D7D7D7D7D7D7D7D7D7D7D7D7D7D7D7D7D7D7D7D700D7D7D7D7D7D7D7D7D70000D7D7D7D7D7D7D7D7D700D7D7D7D7D7D7D7D7D7D7D7D7D7D7D7D7D7D7D7D7D7D7D7D7D7D7D7D7D7D7D7D7D7D7D7D7D7D7D7D7D7D7D7D7D7D7D7D7D7D7D7D7D7D7D7D7D7D7
310
D7D7D7D7D7D7D7D7D7D7D7D7D7D7D7D7D7D7D7D7D7D7D7D7D7D7D7D7D7D7D7D7D7D7D7D7D7D7D7D7D7D7D7D7D7D7D7D7D7D7D7D7D7D7D7D7D7D7D7D7D7D7D7D7D7D7D7D7D7D7D7D7D7D7D7D7D7D7D7D7D7D7D7D7D7D7D7D7D7D7D7D7D7D7D7D7D7D7D7D7D7D7D7D7D7D7D7D7D7D7D7D7D7D7D7D7D7D7D7D7D7D7D7D7D7D7D7
310
D7D7D7D7D700D7D7D7D7D7D7D7D7D70000D7D7D7D7D7D7D7D7D700D7D7D7D7D7D7D7D7D7D7D7D7D7D7D7D7D7D7D7D7D7D7D7D7D7D7D7D7D7D7D7D7D7D7D7D7D7D7D7D7D7D7D7D7D7D7D7D7D7D7D7D7D7D7D7D7D7D7D7D7D7D7D7D7D7D7D7D7D7D7D7D7D7D7D7D7D7D7D7D7D7D7D7D7D7D7D7D7D7D7D7D7D7D7D7D7D7D7D7D7
310
D7D7D7D7D7D7D7D7D7D7D7D7D7D7D7D7D7D7D7D7D7D7D7D7D7D7D7D7D7D7D7D7D7D7D7D7D7D7D7D7D7D7D7D7D7D7D7D7D7D7D7D7D7D7D7D7D7D7D7D7D7D7D7D7D7D7D7D7D7D7D7D7D7D7D7D7D7D7D7D7D7D7D7D7D7D7D7D7D7D700D7D7D7D7D7D7D7D7D70000D7D7D7D7D7D7D7D7D700D7D7D7D7D7D7D7D7D7D7D7D7D7D7D7
310
D7D7D7D7D7D7D7D7D7D7D7D7D7D7D7D7D7D7D7D7D7D7D7D7D7D7D7D7D7D7D7D7D7D7D7D7D7D7D7D7D7D7D7D7D7D7D7D7D7D7D7D7D7D7D7D7D7D7D7D7D7D7D7D7D7D7D7D7D7D7D7D7D7D7D7D7D7D7D7D7D7D7D7D7D7D7D7D7D7D7D7D7D7D7D7D7D7D7D7D7D7D7D7D7D7D7D7D7D7D7D7D7D7D7D7D7D7D7D7D7D7D7D7D7D7D7D7
310
D7D7D7D7D7D7D7D7D7D7D7D7D7D7D7D7D7D7D7D7D7D7D7D7D7D7D7D7D7D7D7D7D7D7D7D7D7D7D7D7D7D7D7D7D7D7D7D700D7D7D7D7D7D7D7D7D70000D7D7D7D7D7D7D7D7D700D7D7D7D7D7D7D7D7D7D7D7D7D7D7D7D7D7D7D7D7D7D7D7D7D7D7D7D7D7D7D7D7D7D7D7D7D7D7D7D7D7D7D7D7D7D7D7D7D7D7D7D7D7D7D7D7D7
310
D7D7D7D7D7D7D7D7D7D7D7D7D7D7D7D7D7D7D7D7D7D7D7D7D7D7D7D7D7D7D7D7D7D7D7D7D7D7D7D7D7D7D7D7D7D7D7D7D7D7D7D7D7D7D7D7D7D7D7D7D7D7D7D7D7D7D7D7D7D7D7D7D7D7D7D7D7D7D7D7D7D7D7D7D7D7D7D7D7D7D7D7D7D7D7D7D7D7D7D7D7D7D7D7D7D7D7D7D7D7D7D7D7D7D7D7D7D7D7D7D7D7D7D7D7D7D7
310
D7D7D7D7D7D700D7D7D7D7D7D7D7D7D70000D7D7D7D7D7D7D7D7D700D7D7D7D7D7D7D7D7D7D7D7D7D7D7D7D7D7D7D7D7D7D7D7D7D7D7D7D7D7D7D7D7D7D7D7D7D7D7D7D7D7D7D7D7D7D7D7D7D7D7D7D7D7D7D7D7D7D7D7D7D7D7D7D7D7D7D7D7D7D7D7D7D7D7D7D7D7D7D7D7D7D7D7D7D7D7D7D7D7D7D7D7D7D7D7D7D7D7D7
310
D7D7D7D7D7D7D7D7D7D7D7D7D7D7D7D7D7D7D7D7D7D7D7D7D7D7D7D7D7D7D7D7D7D7D7D7D7D7D7D7D7D7D7D7D7D7D7D7D7D7D7D7D7D7D7D7D7D7D7D7D7D7D7D7D7D7D7D7D7D7D7D7D7D7D7D7D7D7D7D7D7D7D7D7D7D7D7D7D7D7D700D7D7D7D7D7D7D7D7D70000D7D7D7D7D7D7D7D7D700D7D7D7D7D7D7D7D7D7D7D7D7D7D7
310
D7D7D7D7D7D7D7D7D7D7D7D7D7D7D7D7D7D7D7D7D7D7D7D7D7D7D7D7D7D7D7D7D7D7D7D7D7D7D7D7D7D7D7D7D7D7D7D7D7D7D7D7D7D7D7D7D7D7D7D7D7D7D7D7D7D7D7D7D7D7D7D7D7D7D7D7D7D7D7D7D7D7D7D7D7D7D7D7D7D7D7D7D7D7D7D7D7D7D7D7D7D7D7D7D7D7D7D7D7D7D7D7D7D7D7D7D7D7D7D7D7D7D7D7D7D7D7
310
D7D7D7D7D7D7D7D7D7D7D7D7D7D7D7D7D7D7D7D7D7D7D7D7D7D7D7D7D7D7D7D7D7D7D7D7D7D7D7D7D7D7D7D7D7D7D7D7D700D7D7D7D7D7D7D7D7D70000D7D7D7D7D7D7D7D7D700D7D7D7D7D7D7D7D7D7D7D7D7D7D7D7D7D7D7D7D7D7D7D7D7D7D7D7D7D7D7D7D7D7D7D7D7D7D7D7D7D7D7D7D7D7D7D7D7D7D7D7D7D7D7D7D7
310
D7D7D7D7D7D7D7D7D7D7D7D7D7D7D7D7D7D7D7D7D7D7D7D7D7D7D7D7D7D7D7D7D7D7D7D7D7D7D7D7D7D7D7D7D7D7D7D7D7D7D7D7D7D7D7D7D7D7D7D7D7D7D7D7D7D7D7D7D7D7D7D7D7D7D7D7D7D7D7D7D7D7D7D7D7D7D7D7D7D7D7D7D7D7D7D7D7D7D7D7D7D7D7D7D7D7D7D7D7D7D7D7D7D7D7D7D7D7D7D7D7D7D7D7D7D7D7
310
D7D7D7D7D7D7D700D7D7D7D7D7D7D7D7D70000D7D7D7D7D7D7D7D7D700D7D7D7D7D7D7D7D7D7D7D7D7D7D7D7D7D7D7D7D7D7D7D7D7D7D7D7D7D7D7D7D7D7D7D7D7D7D7D7D7D7D7D7D7D7D7D7D7D7D7D7D7D7D7D7D7D7D7D7D7D7D7D7D7D7D7D7D7D7D7D7D7D7D7D7D7D7D7D7D7D7D7D7D7D7D7D7D7D7D7D7D7D7D7D7D7D7D7
310
D7D7D7D7D7D7D7D7D7D7D7D7D7D7D7D7D7D7D7D7D7D7D7D7D7D7D7D7D7D7D7D7D7D7D7D7D7D7D7D7D7D7D7D7D7D7D7D7D7D7D7D7D7D7D7D7D7D7D7D7D7D7D7D7D7D7D7D7D7D7D7D7D7D7D7D7D7D7D7D7D7D7D7D7D7D7D7D7D7D7D7D700D7D7D7D7D7D7D7D7D70000D7D7D7D7D7D7D7D7D700D7D7D7D7D7D7D7D7D7D7D7D7D7
310
D7D7D7D7D7D7D7D7D7D7D7D7D7D7D7D7D7D7D7D7D7D7D7D7D7D7D7D7D7D7D7D7D7D7D7D7D7D7D7D7D7D7D7D7D7D7D7D7D7D7D7D7D7D7D7D7D7D7D7D7D7D7D7D7D7D7D7D7D7D7D7D7D7D7D7D7D7D7D7D7D7D7D7D7D7D7D7D7D7D7D7D7D7D7D7D7D7D7D7D7D7D7D7D7D7D7D7D7D7D7D7D7D7D7D7D7D7D7D7D7D7D7D7D7D7D7D7
310
D7D7D7D7D7D7D7D7D7D7D7D7D7D7D7D7D7D7D7D7D7D7D7D7D7D7D7D7D7D7D7D7D7D7D7D7D7D7D7D7D7D7D7D7D7D7D7D7D7D700D7D7D7D7D7D7D7D7D70000D7D7D7D7D7D7D7D7D700D7D7D7D7D7D7D7D7D7D7D7D7D7D7D7D7D7D7D7D7D7D7D7D7D7D7D7D7D7D7D7D7D7D7D7D7D7D7D7D7D7D7D7D7D7D7D7D7D7D7D7D7D7D7D7
310
D7D7D7D7D7D7D7D7D7D7D7D7D7D7D7D7D7D7D7D7D7D7D7D7D7D7D7D7D7D7D7D7D7D7D7D7D7D7D7D7D7D7D7D7D7D7D7D7D7D7D7D7D7D7D7D7D7D7D7D7D7D7D7D7D7D7D7D7D7D7D7D7D7D7D7D7D7D7D7D7D7D7D7D7D7D7D7D7D7D7D7D7D7D7D7D7D7D7D7D7D7D7D7D7D7D7D7D7D7D7D7D7D7D7D7D7D7D7D7D7D7D7D7D7D7D7D7
310
D7D7D7D7D7D7D7D700D7D7D7D7D7D7D7D7D70000D7D7D7D7D7D7D7D7D700D7D7D7D7D7D7D7D7D7D7D7D7D7D7D7D7D7D7D7D7D7D7D7D7D7D7D7D7D7D7D7D7D7D7D7D7D7D7D7D7D7D7D7D7D7D7D7D7D7D7D7D7D7D7D7D7D7D7D7D7D7D7D7D7D7D7D7D7D7D7D7D7D7D7D7D7D7D7D7D7D7D7D7D7D7D7D7D7D7D7D7D7D7D7D7D7D7
310
D7D7D7D7D7D7D7D7D7D7D7D7D7D7D7D7D7D7D7D7D7D7D7D7D7D7D7D7D7D7D7D7D7D7D7D7D7D7D7D7D7D7D7D7D7D7D7D7D7D7D7D7D7D7D7D7D7D7D7D7D7D7D7D7D7D7D7D7D7D7D7D7D7D7D7D7D7D7D7D7D7D7D7D7D7D7D7D7D7D7D7D7D700D7D7D7D7D7D7D7D7D70000D7D7D7D7D7D7D7D7D700D7D7D7D7D7D7D7D7D7D7D7D7
310
D7D7D7D7D7D7D7D7D7D7D7D7D7D7D7D7D7D7D7D7D7D7D7D7D7D7D7D7D7D7D7D7D7D7D7D7D7D7D7D7D7D7D7D7D7D7D7D7D7D7D7D7D7D7D7D7D7D7D7D7D7D7D7D7D7D7D7D7D7D7D7D7D7D7D7D7D7D7D7D7D7D7D7D7D7D7D7D7D7D7D7D7D7D7D7D7D7D7D7D7D7D7D7D7D7D7D7D7D7D7D7D7D7D7D7D7D7D7D7D7D7D7D7D7D7D7D7
310
D7D7D7D7D7D7D7D7D7D7D7D7D7D7D7D7D7D7D7D7D7D7D7D7D7D7D7D7D7D7D7D7D7D7D7D7D7D7D7D7D7D7D7D7D7D7D7D7D7D7D700D7D7D7D7D7D7D7D7D70000D7D7D7D7D7D7D7D7D700D7D7D7D7D7D7D7D7D7D7D7D7D7D7D7D7D7D7D7D7D7D7D7D7D7D7D7D7D7D7D7D7D7D7D7D7D7D7D7D7D7D7D7D7D7D7D7D7D7D7D7D7D7D7
310
D7D7D7D7D7D7D7D7D7D7D7D7D7D7D7D7D7D7D7D7D7D7D7D7D7D7D7D7D7D7D7D7D7D7D7D7D7D7D7D7D7D7D7D7D7D7D7D7D7D7D7D7D7D7D7D7D7D7D7D7D7D7D7D7D7D7D7D7D7D7D7D7D7D7D7D7D7D7D7D7D7D7D7D7D7D7D7D7D7D7D7D7D7D7D7D7D7D7D7D7D7D7D7D7D7D7D7D7D7D7D7D7D7D7D7D7D7D7D7D7D7D7D7D7D7D7D7
310
D7D7D7D7D7D7D7D7D700D7D7D7D7D7D7D7D7D70000D7D7D7D7D7D7D7D7D700D7D7D7D7D7D7D7D7D7D7D7D7D7D7D7D7D7D7D7D7D7D7D7D7D7D7D7D7D7D7D7D7D7D7D7D7D7D7D7D7D7D7D7D7D7D7D7D7D7D7D7D7D7D7D7D7D7D7D7D7D7D7D7D7D7D7D7D7D7D7D7D7D7D7D7D7D7D7D7D7D7D7D7D7D7D7D7D7D7D7D7D7D7D7D7D7
310
D7D7D7D7D7D7D7D7D7D7D7D7D7D7D7D7D7D7D7D7D7D7D7D7D7D7D7D7D7D7D7D7D7D7D7D7D7D7D7D7D7D7D7D7D7D7D7D7D7D7D7D7D7D7D7D7D7D7D7D7D7D7D7D7D7D7D7D7D7D7D7D7D7D7D7D7D7D7D7D7D7D7D7D7D7D7D7D7D7D7D7D7D7D700D7D7D7D7D7D7D7D7D70000D7D7D7D7D7D7D7D7D700D7D7D7D7D7D7D7D7D7D7D7
310
D7D7D7D7D7D7D7D7D7D7D7D7D7D7D7D7D7D7D7D7D7D7D7D7D7D7D7D7D7D7D7D7D7D7D7D7D7D7D7D7D7D7D7D7D7D7D7D7D7D7D7D7D7D7D7D7D7D7D7D7D7D7D7D7D7D7D7D7D7D7D7D7D7D7D7D7D7D7D7D7D7D7D7D7D7D7D7D7D7D7D7D7D7D7D7D7D7D7D7D7D7D7D7D7D7D7D7D7D7D7D7D7D7D7D7D7D7D7D7D7D7D7D7D7D7D7D7
310
D7D7D7D7D7D7D7D7D7D7D7D7D7D7D7D7D7D7D7D7D7D7D7D7D7D7D7D7D7D7D7D7D7D7D7D7D7D7D7D7D7D7D7D7D7D7D7D7D7D7D7D700D7D7D7D7D7D7D7D7D70000D7D7D7D7D7D7D7D7D700D7D7D7D7D7D7D7D7D7D7D7D7D7D7D7D7D7D7D7D7D7D7D7D7D7D7D7D7D7D7D7D7D7D7D7D7D7D7D7D7D7D7D7D7D7D7D7D7D7D7D7D7D7
310
D7D7D7D7D7D7D7D7D7D7D7D7D7D7D7D7D7D7D7D7D7D7D7D7D7D7D7D7D7D7D7D7D7D7D7D7D7D7D7D7D7D7D7D7D7D7D7D7D7D7D7D7D7D7D7D7D7D7D7D7D7D7D7D7D7D7D7D7D7D7D7D7D7D7D7D7D7D7D7D7D7D7D7D7D7D7D7D7D7D7D7D7D7D7D7D7D7D7D7D7D7D7D7D7D7D7D7D7D7D7D7D7D7D7D7D7D7D7D7D7D7D7D7D7D7D7D7
310
D7D7D7D7D7D7D7D7D7D700D7D7D7D7D7D7D7D7D70000D7D7D7D7D7D7D7D7D700D7D7D7D7D7D7D7D7D7D7D7D7D7D7D7D7D7D7D7D7D7D7D7D7D7D7D7D7D7D7D7D7D7D7D7D7D7D7D7D7D7D7D7D7D7D7D7D7D7D7D7D7D7D7D7D700D7D7D7D7D7D7D7D7D7D7D7D7D7D7D7D7D7D7D7D7D7D7D7D7D7D7D7D7D7D7D7D7D7D7D7D7D7D7
310
D7D7D7D7D7D7D7D7D7D7D7D7D7D7D7D7D7D7D7D7D7D7D7D7D7D7D7D7D7D7D7D7D7D7D7D7D7D7D7D7D7D7D7D7D7D7D7D7D7D7D7D7D7D7D7D7D7D7D7D7D7D7D7D7D7D7D7D7D7D7D7D7D7D7D7D7D7D7D7D7D7D7D7D7D7D7D7D7D7D7D7D7D7D7D700D7D7D7D7D7D7D7D7D70000D7D7D7D7D7D7D7D7D700D7D7D7D7D7D7D7D7D7D7
310
D7D7D7D7D7D7D7D7D7D7D7D7D7D70000D7D7D7D70000D7D700D7D700D700D700D7000000D7D700D7D700D7D7D7D700D70000D70000D700D700000000D7D7D700D7D70000D700D7D7D7D7D700D70000D7D7D7D7D7D7D7D7D7D7D7D7D7D7D7D7D7D7D7D7D7D7D7D7D7D7D7D7D7D7D7D7D7D7D7D7D7D7D7D7D7D7D7D7D7D7D7D7
310
D7D7D7D7D7D7D7D7D7D7D7D7D7D7D7D7D7D7D7D7D7D7D7D7D7D7D7D7D7D7D7D7D7D7D7D7D7D7D7D7D7D7D7D7D7D7D7D7D7D7D7D7D700D7D7D7D7D7D7D7D7D70000D7D7D7D7D7D7D7D7D700D7D7D7D7D7D7D7D7D7D7D7D7D7D7D7D7D7D7D7D7D7D70000D7D700D7D700D70000D700D7D700D700D700D7000000D7D700D7D7D7
310
D70000D700D700D7000000D7D7D700000000D7D7D7D7D7D70000D700D7D7D7D7D700D700D700D7D7D7D7D7D7D7D7D7D7D7D7D7D7D7D7D7D7D7D7D7D7D7D7D7D7D7D7D7D7D7D7D7D7D7D7D7D7D7D7D7D7D7D7D7D7D7D7D7D7D7D7D7D7D7D7D7D7D7D7D7D7D7D7D7D7D7D7D7D7D7D7D7D7D7D7D7D7D7D7D7D7D7D7D7D7D7D7D7
310
D7D7D7D7D7D7D7D7D7D7D700D7D7D7D7D7D7D7D7D70000D7D7D7D7D7D7D7D7D700D7D7D7D7D7D7D7D7D7D7D7D7D7D7D7D7D7D7D7D7D7D700D7D7D700D7D70000D7D7D7000000D7D70000D7D700D7D7D7D700D7D700D70000D70000D7000000D700D7D7000000D700D7D7D700D7D700D700D7D7D7D7D70000D7D700D7D7D7D7
310
D7D7D7D7D7D7D7D7D7D7D7D7D7D7D7D7D7D7D7D7D7D7D7D7D7D7D7D7D7D7D7D7D7D7D7D7D7D7D7D7D7D7D7D7D7D7D7D7D7D7D7D7D7D7D7D7D7D7D7D7D7D7D7D7D7D7D7D7D7D7D7D7D7D7D7D7D7D7D7D7D7D7D7D7D7D7D7D7D7D7D7D7D7D7D7D700D7D7D7D7D7D7D7D7D70000D7D7D7D7D7D7D7D7D700D7D7D7D7D7D7D7D7D7
310
D7D7D7D7D7D7D7D7D7D7D7D7D7D700D7D7D7D7D7D7D7D7D7D7D7D7D7D7D700D7D7D700D7D7D7D7D70000D7D7D7D7D7D7D7D7D7D7D7D7D7D7D70000D7D7D7D7D70000D7D700D70000D7D7D7D700D7D7D7D7D7D7D7D7D7D7D7D7D7D7D7D7D7D7D7D7D7D7D7D7D7D7D7D7D7D7D7D7D7D7D7D7D7D7D7D7D7D7D7D7D7D7D7D7D7D7
310
D7D7D7D7D7D7D7D7D7D7D7D7D7D7D7D7D7D7D7D7D7D7D7D7D7D7D7D7D7D7D7D7D7D7D7D7D7D7D7D7D7D7D7D7D7D7D7D7D7D7D7D7D7D700D7D7D7D7D7D7D7D7D70000D7D7D7D7D7D7D7D7D700D7D7D7D7D7D7D7D7D7D7D7D7D7D7D7D7D7D7D7D7D7D7D7D7D7D7D7D7D7D7D7D7D7D7D7D7D7D7D7D7D7D7D7D7D7D7D7D7D7D7D7
310
D7D7D7D7D7D7D7D7D7D7D7D7D7D7D7D7D7D7D7D7D7D7D7D7D7D7D7D7D7D7D7D7D7D7D7D7D7D7D7D7D7D7D7D7D7D7D7D7D7D7D7D7D7D7D7D7D7D7D7D7D7D7D7D7D7D7D7D7D7D7D7D7D7D7D7D7D7D7D7D7D7D7D7D7D7D7D7D7D7D7D7D7D7D7D7D7D7D7D7D7D7D7D7D7D7D7D7D7D7D7D7D7D7D7D7D7D7D7D7D7D7D7D7D7D7D7D7
310
D7D7D7D7D7D7D7D7D7D7D7D700D7D7D7D7D7D7D7D7D70000D7D7D7D7D7D7D7D7D700D7D7D7D7D7D7D7D7D7D7D7D7D7D7D7D7D7D7D7D7D7D7D7D7D7D7D7D7D7D7D7D7D7D7D7D7D7D7D7D7D7D7D7D7D7D7D7D7D7D7D7D7D7D7D7D7D7D7D7D7D7D7D7D7D7D7D7D7D7D7D7D7D7D7D7D7D7D7D7D7D7D7D7D7D7D7D7D7D7D7D7D7D7
310
D7D7D7D7D7D7D7D7D7D7D7D7D7D7D7D7D7D7D7D7D7D7D7D7D7D7D7D7D7D7D7D7D7D7D7D7D7D7D7D7D7D7D7D7D7D7D7D7D7D7D7D7D7D7D7D7D7D7D7D7D7D7D7D7D7D7D7D7D7D7D7D7D7D7D7D7D7D7D7D7D7D7D7D7D7D7D7D7D7D7D7D7D7D7D7D7D700D7D7D7D7D7D7D7D7D70000D7D7D7D7D7D7D7D7D700D7D7D7D7D7D7D7D7
310
D7D7D7D7D7D7D7D7D7D7D7D7D7D7D7D7D7D7D7D7D7D7D7D7D7D7D7D7D7D7D7D7D7D7D7D7D7D7D7D7D7D7D7D7D7D7D7D7D7D7D7D7D7D7D7D7D7D7D7D7D7D7D7D7D7D7D7D7D7D7D7D7D7D7D7D7D7D7D7D7D7D7D7D7D7D7D7D7D7D7D7D7D7D7D7D7D7D7D7D7D7D7D7D7D7D7D7D7D7D7D7D7D7D7D7D7D7D7D7D7D7D7D7D7D7D7D7
310
D7D7D7D7D7D7D7D7D7D7D7D7D7D7D7D7D7D7D7D7D7D7D7D7D7D7D7D7D7D7D7D7D7D7D7D7D7D7D7D7D7D7D7D7D7D7D7D7D7D7D7D7D7D7D700D7D7D7D7D7D7D7D7D70000D7D7D7D7D7D7D7D7D700D7D7D7D7D7D7D7D7D7D7D7D7D7D7D7D7D7D7D7D7D7D7D7D7D7D7D7D7D7D7D7D7D7D7D7D7D7D7D7D7D7D7D7D7D7D7D7D7D7D7
310
D7D7D7D7D7D7D7D7D7D7D7D7D7D7D7D7D7D7D7D7D7D7D7D7D7D7D7D7D7D7D7D7D7D7D7D7D7D7D7D7D7D7D7D7D7D7D7D7D7D7D7D7D7D7D7D7D7D7D7D7D7D7D7D7D7D7D7D7D7D7D7D7D7D7D7D7D7D7D7D7D7D7D7D7D7D7D7D7D7D7D7D7D7D7D7D7D7D7D7D7D7D7D7D7D7D7D7D7D7D7D7D7D7D7D7D7D7D7D7D7D7D7D7D7D7D7D7
310
D7D7D7D7D7D7D7D7D7D7D7D7D700D7D7D7D7D7D7D7D7D70000D7D7D7D7D7D7D7D7D700D7D7D7D7D7D7D7D7D7D7D7D7D7D7D7D7D7D7D7D7D7D7D7D7D7D7D7D7D7D7D7D7D7D7D7D7D7D7D7D7D7D7D7D7D7D7D7D7D7D7D7D7D7D7D7D7D7D7D7D7D7D7D7D7D7D7D7D7D7D7D7D7D7D7D7D7D7D7D7D7D7D7D7D7D7D7D7D7D7D7D7D7
310
D7D7D7D7D7D7D7D7D7D7D7D7D7D7D7D7D7D7D7D7D7D7D7D7D7D7D7D7D7D7D7D7D7D7D7D7D7D7D7D7D7D7D7D7D7D7D7D7D7D7D7D7D7D7D7D7D7D7D7D7D7D7D7D7D7D7D7D7D7D7D7D7D7D7D7D7D7D7D7D7D7D7D7D7D7D7D7D7D7D7D7D7D7D7D7D7D7D700D7D7D7D7D7D7D7D7D70000D7D7D7D7D7D7D7D7D700D7D7D7D7D7D7D7
310
D7D7D7D7D7D7D7D7D7D7D7D7D7D7D7D7D7D7D7D7D7D7D7D7D7D7D7D7D7D7D7D7D7D7D7D7D7D7D7D7D7D7D7D7D7D7D7D7D7D7D7D7D7D7D7D7D7D7D7D7D7D7D7D7D7D7D7D7D7D7D7D7D7D7D7D7D7D7D7D7D7D7D7D7D7D7D7D7D7D7D7D7D7D7D7D7D7D7D7D7D7D7D7D7D7D7D7D7D7D7D7D7D7D7D7D7D7D7D7D7D7D7D7D7D7D7D7
310
D7D7D7D7D7D7D7D7D7D7D7D7D7D7D7D7D7D7D7D7D7D7D7D7D7D7D7D7D7D7D7D7D7D7D7D7D7D7D7D7D7D7D7D7D7D7D7D7D7D7D7D7D7D7D7D700D7D7D7D7D7D7D7D7D70000D7D7D7D7D7D7D7D7D700D7D7D7D7D7D7D7D7D7D7D7D7D7D7D7D7D7D7D7D7D7D7000000D7D700D7D7D7D7D700D7D7D700D700D700D7D7D700D7D7D7
310
D7D7D70000000000D7D700000000D700D7D7D700D7D7D7D7000000D7D7D7D700D7D7D7D7D7D7D7D7D700D7D7D7D7D7D7000000D7D700D7D7D700D7D7D700D7D7D7D7D7D7D7D7D7D7D7D7D7D7D7D7D7D7D7D7D7D7D7D7D7D7D7D7D7D7D7D7D7D7D7D7D7D7D7D7D7D7D7D7D7D7D7D7D7D7D7D7D7D7D7D7D7D7D7D7D7D7D7D7D7
310
D7D7D7D7D7D7D7D7D7D7D7D7D7D700D7D7D7D7D7D7D7D7D70000D7D7D7D7D7D7D7D7D700D7D7D7D7D7D7D7D7D7D7D7D7D700D7D7D7D7D7D7D7D7D7D7D700D700D7D7D7D7D700D7D700D7D700D700D7D70000D7D7D7D7D700D700D7D7D7D7D7D7D7D7D7D700D7D700D7D7D7D7D7D7D7D700D700D7D7D700D7D7D7D7D7D7D700
310
D7D7D7D7D700D7D7D7D7D700D7D7D7D7D7D7D700D7D7D7D7D7D7D7D7D7D7D7D7D7D7D7D7D7D7D7D7D7D7D7D7D7D7D7D7D7D7D7D7D7D7D7D7D7D7D7D7D7D7D7D7D7D7D7D7D7D7D7D7D7D7D7D7D7D7D7D7D7D7D7D7D7D7D7D7D7D7D7D7D7D7D7D7D7D7D700D7D7D7D7D7D7D7D7D70000D7D7D7D7D7D7D7D7D700D7D7D7D7D7D7
310
D7D7D7D7D700000000D7D7D7D7D7D7D7D7D7D700D700D7D7D7D7D700D7D7D7D7D700D700D7D70000D7D700D700D7D700D7D7D7D7D7D7D7D7D7D700D7D7D7D7D7D7D7D7D7D7D700D700D7D7D700D7D7D7D7D7D7D700D7D7D7D7D700D7D7D7D7D700D7D700D7D7D7D700D7D7D7D7D7D7D7D7D7D7D7D7D7D7D7D7D7D7D7D7D7D7
310
D7D7D7D7D7D7D7D7D7D7D7D7D7D7D7D7D7D7D7D7D7D7D7D7D7D7D7D7D7D7D7D7D7D7D7D7D7D7D7D7D7D7D7D7D7D7D7D7D7D7D7D7D7D7D7D7D700D7D7D7D7D7D7D7D7D70000D7D7D7D7D7D7D7D7D700D7D7D7D7D7D7D7D70000D700D700D7D7D7D7D7D7D7D70000D7D7D700D7D7D700D700D7D7D700D700D700D700D700D7D7
310
D7D7D7D7D700D7D7D7D7D700000000D700D7D7D700D7D7D7D70000D7D7D700D7D7D700D7D7D7D7D700D700D7D7D700D700D7D7D7D7D700D7D7D700D7D7D700D7D7D7D7D7D7D7D7D7D7D7D7D7D7D7D7D7D7D7D7D7D7D7D7D7D7D7D7D7D7D7D7D7D7D7D7D7D7D7D7D7D7D7D7D7D7D7D7D7D7D7D7D7D7D7D7D7D7D7D7D7D7D7D7
310
D7D7D7D7D7D7D7D7D7D7D7D7D7D7D700D7D7D7D7D7D7D7D7D70000D7D7D7D7D7D7D7D7D700D7D7D7D7D7D7D7D7D7D7D7D70000D7D7D7D7D7D7D7D7D7D7D700D700D7D7D700D700D7D7D700D700D700D7D7D700D7D7D7D7D700D700D7D7D7D7D7D7D7D7D7D700D7D7D700D7D7D7D7D7D7D700D700D7D7D700D7D7D7D7D700D7
310
00D7D7D700D700D7D7D7D7D700D7D7D700D7D7D700D7D7D7D7D7D7D7D7D7D7D7D7D7D7D7D7D7D7D7D7D7D7D7D7D7D7D7D7D7D7D7D7D7D7D7D7D7D7D7D7D7D7D7D7D7D7D7D7D7D7D7D7D7D7D7D7D7D7D7D7D7D7D7D7D7D7D7D7D7D7D7D7D7D7D7D7D7D7D700D7D7D7D7D7D7D7D7D70000D7D7D7D7D7D7D7D7D700D7D7D7D7D7
310
D7D7D7D7D7D7D7D700D7D7D7D7D7D7D7D7D7D7D700D700D7D7D700D700D7D7D700D700D70000D7D700D7D7D7D7D7D7D700D7D7D7D7D7D7D7D7D7D700D7D7D700D7D7D7D7D7D7D700D700D7D7D700D7D7D7D7D700D700D7D7D700D7D7D7D7D700D700D7D7D700D7D7D700D7D7D7D7D7D7D7D7D7D7D7D7D7D7D7D7D7D7D7D7D7
310
D7D7D7D7D7D7D7D7D7D7D7D7D7D7D7D7D7D7D7D7D7D7D7D7D7D7D7D7D7D7D7D7D7D7D7D7D7D7D7D7D7D7D7D7D7D7D7D7D7D7D7D7D7D7D7D7D7D700D7D7D7D7D7D7D7D7D70000D7D7D7D7D7D7D7D7D700D7D7D7D7D7D700000000D7D7D700D7D7D7D7D7D7D7D7D7D7D7D7D7D7D7D7D7D7D7D7D7D7D7D7D7D7D7D7D7D7D7D7D7
310
D7D7D7D7D7D7D7D7D7D7D7D7D7D7D7D7D7D7D7D7D7D7D7D7D7D7D7D7D7D7D7D7D7D7D7D7D7D7D7D7D7D7D7D7D7D7D7D7D7D7D7D7D7D7D7D7D7D7D7D7D7D7D7D7D7D7D7D7D7D7D7D7D7D7D7D7D7D7D7D7D7D7D7D7D7D7D7D7D7D7D7D7D7D7D7D7D7D7D7D7D7D7D7D7D7D7D7D7D7D7D7D7D7D7D7D7D7D7D7D7D7D7D7D7D7D7D7
310
D7D7D7D7D7D7D7D7D7D7D7D7D7D7D7D700D7D7D7D7D7D7D7D7D70000D7D7D7D7D7D7D7D7D700D7D7D7D7D7D7D7D7D7D7D7D7D7D7D7D7D7D7D7D7D7D7D7D7D7D7D7D7D7D7D7D7D7D7D7D7D7D7D7D7D7D7D7D7D7D7D7D7D7D7D7D7D7D7D7D7D7D7D7D7D7D7D7D7D7D7D7D7D7D7D7D7D7D7D7D7D7D7D7D7D7D7D7D7D7D7D7D7D7
310
D7D7D7D7D7D7D7D7D7D7D7D7D7D7D7D7D7D7D7D7D7D7D7D7D7D7D7D7D7D7D7D7D7D7D7D7D7D7D7D7D7D7D7D7D7D7D7D7D7D7D7D7D7D7D7D7D7D7D7D7D7D7D7D7D7D7D7D7D7D7D7D7D7D7D7D7D7D7D7D7D7D7D7D7D7D7D7D7D7D7D7D7D7D7D7D7D7D7D7D7D700D7D7D7D7D7D7D7D7D70000D7D7D7D7D7D7D7D7D700D7D7D7D7
310
D7D7D7D7D7D7D7D7D7D7D7D7D7D7D7D7D7D7D7D7D7D7D7D7D7D7D7D7D7D7D7D7D7D7D7D7D7D7D7D7D7D7D7D7D7D7D7D7D7D7D7D7D7D7D7D7D7D7D7D7D7D7D7D7D7D7D7D7D7D7D7D7D7D7D7D7D7D7D7D7D7D7D7D7D7D7D7D7D7D7D7D7D7D7D7D7D7D7D7D7D7D7D7D7D7D7D7D7D7D7D7D7D7D7D7D7D7D7D7D7D7D7D7D7D7D7D7
310
D7D7D7D7D7D7D7D7D7D7D7D7D7D7D7D7D7D7D7D7D7D7D7D7D7D7D7D7D7D7D7D7D7D7D7D7D7D7D7D7D7D7D7D7D7D7D7D7D7D7D7D7D7D7D7D7D7D7D700D7D7D7D7D7D7D7D7D70000D7D7D7D7D7D7D7D7D700D7D7D7D7D7D7D7D7D7D7D7D7D7D7D7D7D7D7D7D7D7D7D7D7D7D7D7D7D7D7D7D7D7D7D7D7D7D7D7D7D7D7D7D7D7D7
310
D7D7D7D7D7D7D7D7D7D7D7D7D7D7D7D7D7D7D7D7D7D7D7D7D7D7D7D7D7D7D7D7D7D7D7D7D7D7D7D7D7D7D7D7D7D7D7D7D7D7D7D7D7D7D7D7D7D7D7D7D7D7D7D7D7D7D7D7D7D7D7D7D7D7D7D7D7D7D7D7D7D7D7D7D7D7D7D7D7D7D7D7D7D7D7D7D7D7D7D7D7D7D7D7D7D7D7D7D7D7D7D7D7D7D7D7D7D7D7D7D7D7D7D7D7D7D7
310
D7D7D7D7D7D7D7D7D7D7D7D7D7D7D7D7D700D7D7D7D7D7D7D7D7D70000D7D7D7D7D7D7D7D7D700D7D7D7D7D7D7D7D7D7D7D7D7D7D7D7D7D7D7D7D7D7D7D7D7D7D7D7D7D7D7D7D7D7D7D7D7D7D7D7D7D7D7D7D7D7D7D7D7D7D7D7D7D7D7D7D7D7D7D7D7D7D7D7D7D7D7D7D7D7D7D7D7D7D7D7D7D7D7D7D7D7D7D7D7D7D7D7D7
310
D7D7D7D7D7D7D7D7D7D7D7D7D7D7D7D7D7D7D7D7D7D7D7D7D7D7D7D7D7D7D7D7D7D7D7D7D7D7D7D7D7D7D7D7D7D7D7D7D7D7D7D7D7D7D7D7D7D7D7D7D7D7D7D7D7D7D7D7D7D7D7D7D7D7D7D7D7D7D7D7D7D7D7D7D7D7D7D7D7D7D7D7D7D7D7D7D7D7D7D7D7D700D7D7D7D7D7D7D7D7D70000D7D7D7D7D7D7D7D7D700D7D7D7
310
D7D7D7D7D7D7D7D7D7D7D7D7D7D7D7D7D7D7D7D7D7D7D7D7D7D7D7D7D7D7D7D7D7D7D7D7D7D7D7D7D7D7D7D7D7D7D7D7D7D7D7D7D7D7D7D7D7D7D7D7D7D7D7D7D7D7D7D7D7D7D7D7D7D7D7D7D7D7D7D7D7D7D7D7D7D7D7D7D7D7D7D7D7D7D7D7D7D7D7D7D7D7D7D7D7D7D7D7D7D7D7D7D7D7D7D7D7D7D7D7D7D7D7D7D7D7D7
310
D7D7D7D7D7D7D7D7D7D7D7D7D7D7D7D7D7D7D7D7D7D7D7D7D7D7D7D7D7D7D7D7D7D7D7D7D7D7D7D7D7D7D7D7D7D7D7D7D7D7D7D7D7D7D7D7D7D7D7D700D7D7D7D7D7D7D7D7D70000D7D7D7D7D7D7D7D7D700000000000000000000000000000000000000000000000000000000000000000000000000000000000000000000
310
00000000000000000000000000000000000000000000000000000000000000000000000000000000000000000000000000000000000000000000000000000000000000000000000000000000000000000000000000000000000000000000000000000000000000000000000000000000000000000000000000000000000000
310
00000000000000000000000000000000000000D7D7D7D7D7D7D7D7D70000D7D7D7D7D7D7D7D7D7D7D7D7D7D7D7D7D7D7D7D7D7D7D7D7D7D7D7D7D7D7D7D7D7D7D7D7D7D7D7D7D7D7D7D7D7D7D7D7D7D7D7D7D7D7D7D7D7D7D7D7D7D7D7D7D7D7D7D7D7D7D7D7D7D7D7D7D7D7D7D7D7D7D7D7D7D7D7D7D7D7D7D7D7D7D7D7D7
310
D7D7D7D7D7D7D7D7D7D7D7D7D7D7D7D7D7D7D7D7D7D7D7D7D7D7D7D7D7D7D7D7D7D7D7D7D7D7D7D7D7D7D7D7D7D7D7D7D7D7D7D7D7D7D7D7D7D7D7D7D7D7D7D7D7D7D7D7D7D7D7D7D7D7D7D7D7D7D7D7D7D7D7D7D7D7D7D7D7D7D7D7D7D7D7D7D7D7D7D7D7D7D7D7D7D7D7D7D7D7D7D7D70000D7D7D7D7D7D7D7D7D7D7D7D7
310
D7D7D7D7D7D7D7D7D7D7D7D7D7D7D7D7D7D7D7D7D7D7D7D7D7D7D7D7D7D7D7D7D7D7D7D7D7D7D7D7D7D7D7D7D7D7D7D7D7D7D7D7D7D7D7D7D7D7D7D7D7D7D7D7D7D7D7D7D7D7D7D7D7D7D7D7D7D7D7D7D7D7D7D7D7D7D7D7D7D7D7D7D7D7D7D7D7D7D7D7D7D7D7D7D7D7D7D7D7D7D7D7D7D7D7D7D7D7D7D7D7D7D7D7D7D7D7
310
D7D7D7D7D7D7D7D7D7D7D7D7D7D7D7D7D7D7D7D7D7D7D7D7D7D7D7D7D7D7D7D7D7D7D7D7D7D7D7D7D7D7D7D7D7D7D7D7D7D7D7D7D7D7D7D7D7D7D7D7D7D7D7D7D7D7D7D7D7D7D70000D7D7D7D7D7D7D7D7D7D7D7D7D7D7D7D7D7D7D7D7D7D7D7D7D7D7D7D7D7D7D7D7D7D7D7D7D7D7D7D7D7D7D7D7D7D7D7D7D7D7D7D7D7D7
310
D7D7D7D7D7D7D7D7D7D7D7D7D7D7D7D7D7D7D7D7D7D7D7D7D7D7D7D7D7D7D7D7D7D7D7D7D7D7D7D7D7D7D7D7D7D7D7D7D7D7D7D7D7D7D7D7D7D7D7D7D7D7D7D7D7D7D7D7D7D7D7D7D7D7D7D7D7D7D7D7D7D7D7D7D7D7D7D7D7D7D7D7D7D7D7D7D7D7D7D7D7D7D7D7D7D7D7D7D7D7D7D7D7D7D7D7D7D7D7D7D7D7D7D7D7D7D7
310
D7D7D7D7D7D7D7D7D7D7D7D7D7D7D7D7D7D7D7D7D7D7D7D7D7D7D7D7D70000D7D7D7D7D7D7D7D7D7D7D7D7D7D7D7D7D7D7D7D7D7D7D7D7D7D7D7D7D7D7D7D7D7D7D7D7D7D7D7D7D7D7D7D7D7D7D7D7D7D7D7D7D7D7D7D7D7D7D7D7D7D7D7D7D7D7D7D7D7D7D7D7D7D7D7D7D7D7D7D7D7D7D7D7D7D7D7D7D7D7D7D7D7D7D7D7
310
D7D7D7D7D7D7D7D7D7D7D7D7D7D7D7D7D7D7D7D7D7D7D7D7D7D7D7D7D7D7D7D7D7D7D7D7D7D7D7D7D7D7D7D7D7D7D7D7D7D7D7D7D7D7D7D7D7D7D7D7D7D7D7D7D7D7D7D7D7D7D7D7D7D7D7D7D7D7D7D7D7D7D7D7D7D7D7D7D7D7D7D7D7D7D7D7D7D7D7D7D7D7D7D7D7D7D7D7D7D7D7D7D7D70000D7D7D7D7D7D7D7D7D7D7D7
310
D7D7D7D7D7D7D7D7D7D7D7D7D7D7D7D7D7D7D7D7D7D7D7D7D7D7D7D7D7D7D7D7D7D7D7D7D7D7D7D7D7D7D7D7D7D7D7D7D7D7D7D7D7D7D7D7D7D7D7D7D7D7D7D7D7D7D7D7D7D7D7D7D7D7D7D7D7D7D7D7D7D7D7D7D7D7D7D7D7D7D7D7D7D7D7D7D7D7D7D7D7D7D7D7D7D7D7D7D7D7D7D7D7D7D7D7D7D7D7D7D7D7D7D7D7D7D7
310
D7D7D7D7D7D7D7D7D7D7D7D7D7D7D7D7D7D7D7D7D7D7D7D7D7D7D7D7D7D7D7D7D7D7D7D7D7D7D7D7D7D7D7D7D7D7D7D7D7D7D7D7D7D7D7D7D7D7D7D7D7D7D7D7D7D7D7D7D7D7D7D70000D7D7D7D7D7D7D7D7D7D7D7D7D7D7D7D7D7D7D7D7D7D7D7D7D7D7D7D7D7D7D7D7D7D7D7D7D7D7D7D7D7D7D7D7D7D7D7D7D7D7D7D7D7
310
D7D7D7D7D7D7D7D7D7D7D7D7D7D7D7D7D7D7D7D7D7D7D7D7D7D7D7D7D7D7D7D7D7D7D7D7D7D7D7D7D7D7D7D7D7D7D7D7D7D7D7D7D7D7D7D7D7D7D7D7D7D7D7D7D7D7D7D7D7D7D7D7D7D7D7D7D7D7D7D7D7D7D7D7D7D7D7D7D7D7D7D7D7D7D7D7D7D7D7D7D7D7D7D7D7D7D7D7D7D7D7D7D7D7D7D7D7D7D7D7D7D7D7D7D7D7D7
310
D7D7D7D7D7D7D7D7D7D7D7D7D7D7D7D7D7D7D7D7D7D7D7D7D7D7D7D7D7D70000D7D7D7D7D7D7D7D7D7D7D7D7D7D7D7D7D7D7D7D7D7D7D7D7D7D7D7D7D7D7D7D7D7D7D7D7D7D7D7D7D7D7D7D7D7D7D7D7D7D7D7D7D7D7D7D7D7D7D7D7D7D7D7D7D7D7D7D7D7D7D7D7D7D7D7D7D7D7D7D7D7D7D7D7D7D7D7D7D7D7D7D7D7D7D7
310
D7D7D7D7D7D7D7D7D7D7D7D7D7D7D7D7D7D7D7D7D7D7D7D7D7D7D7D7D7D7D7D7D7D7D7D7D7D7D7D7D7D7D7D7D7D7D7D7D7D7D7D7D7D7D7D7D7D7D7D7D7D7D7D7D7D7D7D7D7D7D7D7D7D7D7D7D7D7D7D7D7D7D7D7D7D7D7D7D7D7D7D7D7D7D7D7D7D7D7D7D7D7D7D7D7D7D7D7D7D7D7D7D7D7D70000D7D7D7D7D7D7D7D7D7D7
310
D7D7D7D7D7D7D7D7D7D7D7D7D7D7D7D7D7D7D7D7D7D7D7D7D7D7D7D7D7D7D7D7D7D7D7D7D7D7D7D7D7D7D7D7D7D7D7D7D7D7D7D7D7D7D7D7D7D7D7D7D7D7D7D7D7D7D7D7D7D7D7D7D7D7D7D7D7D7D7D7D7D7D7D7D7D7D7D7D7D7D7D7D7D7D7D7D7D7D7D7D7D7D7D7D7D7D7D7D7D7D7D7D7D7D7D7D7D7D7D7D7D7D7D7D7D7D7
310
D7D7D7D7D7D7D7D7D7D7D7D7D7D7D7D7D7D7D7D7D7D7D7D7D7D7D7D7D7D7D7D7D7D7D7D7D7D7D7D7D7D7D7D7D7D7D7D7D7D7D7D7D7D7D7D7D7D7D7D7D7D7D7D7D7D7D7D7D7D7D7D7D70000D7D7D7D7D7D7D7D7D7D7D7D7D7D7D7D7D7D7D7D7D7D7D7D7D7D7D7D7D7D7D7D7D7D7D7D7D7D7D7D7D7D7D7D7D7D7D7D7D7D7D7D7
310
D7D7D7D7D7D7D7D7D7D7D7D7D7D7D7D7D7D7D7D7D7D7D7D7D7D7D7D7D7D7D7D7D7D7D7D7D7D7D7D7D7D7D7D7D7D7D7D7D7D7D7D7D7D7D7D7D7D7D7D7D7D7D7D7D7D7D7D7D7D7D7D7D7D7D7D7D7D7D7D7D7D7D7D7D7D7D7D7D7D7D7D7D7D7D7D7D7D7D7D7D7D7D7D7D7D7D7D7D7D7D7D7D7D7D7D7D7D7D7D7D7D7D7D7D7D7D7
310
D7D7D7D7D7D7D7D7D7D7D7D7D7D7D7D7D7D7D7D7D7D7D7D7D7D7D7D7D7D7D700000000000000000000000000000000
  0
ENDSEC
  0
EOF
