  0
SECTION
  2
HEADER
  9
$ACADVER
  1
AC1014
  9
$ACADMAINTVER
 70
     9
  9
$DWGCODEPAGE
  3
ANSI_1252
  9
$INSBASE
 10
0.0
 20
0.0
 30
0.0
  9
$EXTMIN
 10
-0.0000029464830931
 20
-0.000000535957497
 30
0.0
  9
$EXTMAX
 10
52.80479652546887
 20
52.76612325217683
 30
0.0015258207003583
  9
$LIMMIN
 10
0.0
 20
0.0
  9
$LIMMAX
 10
12.0
 20
9.0
  9
$ORTHOMODE
 70
     0
  9
$REGENMODE
 70
     1
  9
$FILLMODE
 70
     1
  9
$QTEXTMODE
 70
     0
  9
$MIRRTEXT
 70
     1
  9
$DRAGMODE
 70
     2
  9
$LTSCALE
 40
1.0
  9
$OSMODE
 70
    37
  9
$ATTMODE
 70
     1
  9
$TEXTSIZE
 40
0.2
  9
$TRACEWID
 40
0.05
  9
$TEXTSTYLE
  7
STANDARD
  9
$CLAYER
  8
0
  9
$CELTYPE
  6
BYLAYER
  9
$CECOLOR
 62
   256
  9
$CELTSCALE
 40
1.0
  9
$DELOBJ
 70
     1
  9
$DISPSILH
 70
     0
  9
$DIMSCALE
 40
1.0
  9
$DIMASZ
 40
0.18
  9
$DIMEXO
 40
0.0625
  9
$DIMDLI
 40
0.38
  9
$DIMRND
 40
0.0
  9
$DIMDLE
 40
0.0
  9
$DIMEXE
 40
0.18
  9
$DIMTP
 40
0.0
  9
$DIMTM
 40
0.0
  9
$DIMTXT
 40
0.18
  9
$DIMCEN
 40
0.09
  9
$DIMTSZ
 40
0.0
  9
$DIMTOL
 70
     0
  9
$DIMLIM
 70
     0
  9
$DIMTIH
 70
     1
  9
$DIMTOH
 70
     1
  9
$DIMSE1
 70
     0
  9
$DIMSE2
 70
     0
  9
$DIMTAD
 70
     0
  9
$DIMZIN
 70
     0
  9
$DIMBLK
  1

  9
$DIMASO
 70
     1
  9
$DIMSHO
 70
     1
  9
$DIMPOST
  1

  9
$DIMAPOST
  1

  9
$DIMALT
 70
     0
  9
$DIMALTD
 70
     2
  9
$DIMALTF
 40
25.4
  9
$DIMLFAC
 40
1.0
  9
$DIMTOFL
 70
     0
  9
$DIMTVP
 40
0.0
  9
$DIMTIX
 70
     0
  9
$DIMSOXD
 70
     0
  9
$DIMSAH
 70
     0
  9
$DIMBLK1
  1

  9
$DIMBLK2
  1

  9
$DIMSTYLE
  2
STANDARD
  9
$DIMCLRD
 70
     0
  9
$DIMCLRE
 70
     0
  9
$DIMCLRT
 70
     0
  9
$DIMTFAC
 40
1.0
  9
$DIMGAP
 40
0.09
  9
$DIMJUST
 70
     0
  9
$DIMSD1
 70
     0
  9
$DIMSD2
 70
     0
  9
$DIMTOLJ
 70
     1
  9
$DIMTZIN
 70
     0
  9
$DIMALTZ
 70
     0
  9
$DIMALTTZ
 70
     0
  9
$DIMFIT
 70
     3
  9
$DIMUPT
 70
     0
  9
$DIMUNIT
 70
     2
  9
$DIMDEC
 70
     4
  9
$DIMTDEC
 70
     4
  9
$DIMALTU
 70
     2
  9
$DIMALTTD
 70
     2
  9
$DIMTXSTY
  7
STANDARD
  9
$DIMAUNIT
 70
     0
  9
$LUNITS
 70
     2
  9
$LUPREC
 70
     4
  9
$SKETCHINC
 40
0.1
  9
$FILLETRAD
 40
0.5
  9
$AUNITS
 70
     0
  9
$AUPREC
 70
     0
  9
$MENU
  1
.
  9
$ELEVATION
 40
0.0
  9
$PELEVATION
 40
0.0
  9
$THICKNESS
 40
0.0
  9
$LIMCHECK
 70
     0
  9
$BLIPMODE
 70
     0
  9
$CHAMFERA
 40
0.5
  9
$CHAMFERB
 40
0.5
  9
$CHAMFERC
 40
1.0
  9
$CHAMFERD
 40
0.0
  9
$SKPOLY
 70
     0
  9
$TDCREATE
 40
2453032.595397013
  9
$TDUPDATE
 40
2453080.640049490
  9
$TDINDWG
 40
0.0007299884
  9
$TDUSRTIMER
 40
0.0007298032
  9
$USRTIMER
 70
     1
  9
$ANGBASE
 50
0.0
  9
$ANGDIR
 70
     0
  9
$PDMODE
 70
     0
  9
$PDSIZE
 40
0.0
  9
$PLINEWID
 40
0.0
  9
$COORDS
 70
     1
  9
$SPLFRAME
 70
     0
  9
$SPLINETYPE
 70
     6
  9
$SPLINESEGS
 70
     8
  9
$ATTDIA
 70
     0
  9
$ATTREQ
 70
     1
  9
$HANDLING
 70
 22529
  9
$HANDSEED
  5
1D8
  9
$SURFTAB1
 70
     6
  9
$SURFTAB2
 70
     6
  9
$SURFTYPE
 70
     6
  9
$SURFU
 70
     6
  9
$SURFV
 70
     6
  9
$UCSNAME
  2

  9
$UCSORG
 10
0.0
 20
0.0
 30
0.0
  9
$UCSXDIR
 10
1.0
 20
0.0
 30
0.0
  9
$UCSYDIR
 10
0.0
 20
1.0
 30
0.0
  9
$PUCSNAME
  2

  9
$PUCSORG
 10
0.0
 20
0.0
 30
0.0
  9
$PUCSXDIR
 10
1.0
 20
0.0
 30
0.0
  9
$PUCSYDIR
 10
0.0
 20
1.0
 30
0.0
  9
$USERI1
 70
     0
  9
$USERI2
 70
     0
  9
$USERI3
 70
     0
  9
$USERI4
 70
     0
  9
$USERI5
 70
     0
  9
$USERR1
 40
0.0
  9
$USERR2
 40
0.0
  9
$USERR3
 40
0.0
  9
$USERR4
 40
0.0
  9
$USERR5
 40
0.0
  9
$WORLDVIEW
 70
     1
  9
$SHADEDGE
 70
     3
  9
$SHADEDIF
 70
    70
  9
$TILEMODE
 70
     1
  9
$MAXACTVP
 70
    64
  9
$PINSBASE
 10
0.0
 20
0.0
 30
0.0
  9
$PLIMCHECK
 70
     0
  9
$PEXTMIN
 10
1.000000000000000E+20
 20
1.000000000000000E+20
 30
1.000000000000000E+20
  9
$PEXTMAX
 10
-1.000000000000000E+20
 20
-1.000000000000000E+20
 30
-1.000000000000000E+20
  9
$PLIMMIN
 10
0.0
 20
0.0
  9
$PLIMMAX
 10
12.0
 20
9.0
  9
$UNITMODE
 70
     0
  9
$VISRETAIN
 70
     1
  9
$PLINEGEN
 70
     0
  9
$PSLTSCALE
 70
     1
  9
$TREEDEPTH
 70
  3020
  9
$PICKSTYLE
 70
     1
  9
$CMLSTYLE
  2
STANDARD
  9
$CMLJUST
 70
     0
  9
$CMLSCALE
 40
1.0
  9
$PROXYGRAPHICS
 70
     1
  9
$MEASUREMENT
 70
     0
  0
ENDSEC
  0
SECTION
  2
CLASSES
  0
CLASS
  1
ACDBDICTIONARYWDFLT
  2
AcDbDictionaryWithDefault
  3
AutoCAD 2000
 90
        0
280
     0
281
     0
  0
CLASS
  1
ACDBPLACEHOLDER
  2
AcDbPlaceHolder
  3
AutoCAD 2000
 90
        0
280
     0
281
     0
  0
CLASS
  1
LAYOUT
  2
AcDbLayout
  3
AutoCAD 2000
 90
        0
280
     0
281
     0
  0
CLASS
  1
DICTIONARYVAR
  2
AcDbDictionaryVar
  3
AutoCAD 2000
 90
        0
280
     0
281
     0
  0
CLASS
  1
LONG_TRANSACTION
  2
AcDbLongTransaction
  3
AutoCAD 2000
 90
        0
280
     0
281
     0
  0
CLASS
  1
LWPOLYLINE
  2
AcDbPolyline
  3
AutoCAD 2000
 90
        0
280
     0
281
     1
  0
CLASS
  1
HATCH
  2
AcDbHatch
  3
AutoCAD 2000
 90
        0
280
     0
281
     1
  0
CLASS
  1
XRECORD
  2
AcDbXrecord
  3
AutoCAD 2000
 90
        0
280
     0
281
     0
  0
ENDSEC
  0
SECTION
  2
TABLES
  0
TABLE
  2
VPORT
  5
8
330
0
100
AcDbSymbolTable
 70
     2
  0
VPORT
  5
1B1
330
8
100
AcDbSymbolTableRecord
100
AcDbViewportTableRecord
  2
*ACTIVE
 70
     0
 10
0.0
 20
0.0
 11
1.0
 21
1.0
 12
27.47244504038488
 22
26.38306135810966
 13
0.0
 23
0.0
 14
0.5
 24
0.5
 15
0.5
 25
0.5
 16
0.0
 26
0.0
 36
1.0
 17
0.0
 27
0.0
 37
0.0
 40
53.32946318800765
 41
1.731751824817518
 42
50.0
 43
0.0
 44
0.0
 50
0.0
 51
0.0
 71
     0
 72
   100
 73
     1
 74
     3
 75
     0
 76
     0
 77
     0
 78
     0
  0
ENDTAB
  0
TABLE
  2
LTYPE
  5
5
330
0
100
AcDbSymbolTable
 70
     1
  0
LTYPE
  5
14
330
5
100
AcDbSymbolTableRecord
100
AcDbLinetypeTableRecord
  2
BYBLOCK
 70
     0
  3

 72
    65
 73
     0
 40
0.0
  0
LTYPE
  5
15
330
5
100
AcDbSymbolTableRecord
100
AcDbLinetypeTableRecord
  2
BYLAYER
 70
     0
  3

 72
    65
 73
     0
 40
0.0
  0
LTYPE
  5
16
330
5
100
AcDbSymbolTableRecord
100
AcDbLinetypeTableRecord
  2
CONTINUOUS
 70
     0
  3
Solid line
 72
    65
 73
     0
 40
0.0
  0
ENDTAB
  0
TABLE
  2
LAYER
  5
2
330
0
100
AcDbSymbolTable
 70
     2
  0
LAYER
  5
10
330
2
100
AcDbSymbolTableRecord
100
AcDbLayerTableRecord
  2
0
 70
     0
 62
     7
  6
CONTINUOUS
  0
LAYER
  5
48
330
2
100
AcDbSymbolTableRecord
100
AcDbLayerTableRecord
  2
DETAILS
 70
     0
 62
     7
  6
CONTINUOUS
  0
ENDTAB
  0
TABLE
  2
STYLE
  5
3
330
0
100
AcDbSymbolTable
 70
     1
  0
STYLE
  5
11
330
3
100
AcDbSymbolTableRecord
100
AcDbTextStyleTableRecord
  2
STANDARD
 70
     0
 40
0.0
 41
1.0
 50
0.0
 71
     0
 42
0.2
  3
txt
  4

  0
ENDTAB
  0
TABLE
  2
VIEW
  5
6
330
0
100
AcDbSymbolTable
 70
     0
  0
ENDTAB
  0
TABLE
  2
UCS
  5
7
330
0
100
AcDbSymbolTable
 70
     0
  0
ENDTAB
  0
TABLE
  2
APPID
  5
9
330
0
100
AcDbSymbolTable
 70
     1
  0
APPID
  5
12
330
9
100
AcDbSymbolTableRecord
100
AcDbRegAppTableRecord
  2
ACAD
 70
     0
  0
ENDTAB
  0
TABLE
  2
DIMSTYLE
  5
A
330
0
100
AcDbSymbolTable
 70
     1
  0
DIMSTYLE
105
27
330
A
100
AcDbSymbolTableRecord
100
AcDbDimStyleTableRecord
  2
STANDARD
 70
     0
  3

  4

  5

  6

  7

 40
1.0
 41
0.18
 42
0.0625
 43
0.38
 44
0.18
 45
0.0
 46
0.0
 47
0.0
 48
0.0
140
0.18
141
0.09
142
0.0
143
25.4
144
1.0
145
0.0
146
1.0
147
0.09
 71
     0
 72
     0
 73
     1
 74
     1
 75
     0
 76
     0
 77
     0
 78
     0
170
     0
171
     2
172
     0
173
     0
174
     0
175
     0
176
     0
177
     0
178
     0
270
     2
271
     4
272
     4
273
     2
274
     2
340
11
275
     0
280
     0
281
     0
282
     0
283
     1
284
     0
285
     0
286
     0
287
     3
288
     0
  0
ENDTAB
  0
TABLE
  2
BLOCK_RECORD
  5
1
330
0
100
AcDbSymbolTable
 70
     1
  0
BLOCK_RECORD
  5
1F
102
{ACAD_XDICTIONARY
360
1D4
102
}
330
1
100
AcDbSymbolTableRecord
100
AcDbBlockTableRecord
  2
*MODEL_SPACE
  0
BLOCK_RECORD
  5
1B
102
{ACAD_XDICTIONARY
360
1D2
102
}
330
1
100
AcDbSymbolTableRecord
100
AcDbBlockTableRecord
  2
*PAPER_SPACE
  0
ENDTAB
  0
ENDSEC
  0
SECTION
  2
BLOCKS
  0
BLOCK
  5
20
330
1F
100
AcDbEntity
  8
0
100
AcDbBlockBegin
  2
*MODEL_SPACE
 70
     0
 10
0.0
 20
0.0
 30
0.0
  3
*MODEL_SPACE
  1

  0
ENDBLK
  5
21
330
1F
100
AcDbEntity
  8
0
100
AcDbBlockEnd
  0
BLOCK
  5
1C
330
1B
100
AcDbEntity
 67
     1
  8
0
100
AcDbBlockBegin
  2
*PAPER_SPACE
 70
     0
 10
0.0
 20
0.0
 30
0.0
  3
*PAPER_SPACE
  1

  0
ENDBLK
  5
1D
330
1B
100
AcDbEntity
 67
     1
  8
0
100
AcDbBlockEnd
  0
ENDSEC
  0
SECTION
  2
ENTITIES
  0
MTEXT
  5
FC
330
1F
100
AcDbEntity
  8
DETAILS
100
AcDbMText
 10
44.12506117282283
 20
33.95014117857954
 30
0.0
 40
1.199999999999999
 41
7.732199999999999
 71
     1
 72
     5
  1
Same depth as I-joist
1001
ACAD
1000
MTEXTBEGIN
1070
    73
1070
     1
1070
    44
1040
1.0
1070
    74
1070
     0
1000
MTEXTEND
  0
LINE
  5
FD
330
1F
100
AcDbEntity
  8
DETAILS
100
AcDbLine
 10
-0.0000029464830931
 20
52.76290802732251
 30
0.0015258207003583
 11
52.80479652546887
 21
52.76290802732251
 31
0.0015258207003583
  0
LINE
  5
FE
330
1F
100
AcDbEntity
  8
DETAILS
100
AcDbLine
 10
52.80479652546887
 20
-0.000000535957497
 30
0.0015258207003583
 11
-0.0000029464830931
 21
-0.000000535957497
 31
0.0015258207003583
  0
LINE
  5
FF
330
1F
100
AcDbEntity
  8
DETAILS
100
AcDbLine
 10
6.314888832690826
 20
20.49806502271349
 30
0.0015258207003583
 11
7.500488820834824
 21
19.36264685224932
 31
0.0015258207003583
  0
LINE
  5
100
330
1F
100
AcDbEntity
  8
DETAILS
100
AcDbLine
 10
7.500488820834824
 20
19.36264685224932
 30
0.0015258207003583
 11
7.101216097554825
 21
19.56599230476149
 31
0.0015258207003583
  0
LINE
  5
101
330
1F
100
AcDbEntity
  8
DETAILS
100
AcDbLine
 10
7.500488820834824
 20
19.36264685224932
 30
0.0015258207003583
 11
7.05757973435482
 21
19.13704685450557
 31
0.0015258207003583
  0
LINE
  5
102
330
1F
100
AcDbEntity
  8
DETAILS
100
AcDbLine
 10
7.05757973435482
 20
22.8347922720734
 30
0.0015258207003583
 11
7.447252457730826
 21
22.63581045588148
 31
0.0015258207003583
  0
LINE
  5
103
330
1F
100
AcDbEntity
  8
DETAILS
100
AcDbLine
 10
6.268197924066825
 20
24.57239225469743
 30
0.0015258207003583
 11
7.447252457730826
 21
23.97151953343359
 31
0.0015258207003583
  0
LINE
  5
104
330
1F
100
AcDbEntity
  8
DETAILS
100
AcDbLine
 10
7.05757973435482
 20
16.14097415719334
 30
0.0015258207003583
 11
7.447252457730826
 21
15.94242870463358
 31
0.0015258207003583
  0
LINE
  5
105
330
1F
100
AcDbEntity
  8
DETAILS
100
AcDbLine
 10
6.268197924066825
 20
15.2071559847136
 30
0.0015258207003583
 11
7.447252457730826
 21
14.60671962708147
 31
0.0015258207003583
  0
SPLINE
  5
106
330
1F
100
AcDbEntity
  8
DETAILS
100
AcDbSpline
210
0.0
220
0.0
230
1.0
 70
     8
 71
     3
 72
     9
 73
     5
 74
     3
 42
0.0000000001
 43
0.0000000001
 44
0.0000000001
 40
0.0
 40
0.0
 40
0.0
 40
0.0
 40
4.586151565019174
 40
8.331884784589675
 40
8.331884784589675
 40
8.331884784589675
 40
8.331884784589675
 10
3.314711679529366
 20
31.00552121976761
 30
0.0015258207003583
 10
4.291603929484228
 20
32.20610946058288
 30
0.0015258207003583
 10
6.066371631377319
 20
34.38727655774228
 30
0.0015258207003583
 10
6.850411191148091
 20
37.08000222579777
 30
0.0015258207003583
 10
7.202888823810823
 20
38.29056049043924
 30
0.0015258207003583
 11
3.314711679529366
 21
31.00552121976761
 31
0.0015258207003583
 11
5.945220150758839
 21
34.76227664967223
 31
0.0015258207003583
 11
7.202888823810823
 21
38.29056049043924
 31
0.0015258207003583
  0
LINE
  5
107
330
1F
100
AcDbEntity
  8
DETAILS
100
AcDbLine
 10
3.314711679529381
 20
31.00552121976761
 30
0.0015258207003583
 11
11.44172514505882
 21
32.06082854344959
 31
0.0015258207003583
  0
LINE
  5
108
330
1F
100
AcDbEntity
  8
DETAILS
100
AcDbLine
 10
3.314711679529366
 20
30.15512858491911
 30
0.0015258207003583
 11
11.44172514505882
 21
31.21166491557755
 31
0.0015258207003583
  0
LINE
  5
109
330
1F
100
AcDbEntity
  8
DETAILS
100
AcDbLine
 10
7.346888822370825
 20
25.12264679464943
 30
0.0015258207003583
 11
3.314711679529374
 21
27.17769930332178
 31
0.0015258207003583
  0
LINE
  5
10A
330
1F
100
AcDbEntity
  8
DETAILS
100
AcDbLine
 10
8.80696153504282
 20
25.86708315084161
 30
0.0015258207003583
 11
3.314711679529338
 21
28.66665840251744
 31
0.0015258207003583
  0
LINE
  5
10B
330
1F
100
AcDbEntity
  8
DETAILS
100
AcDbLine
 10
3.314711679529366
 20
30.15512858491911
 30
0.0015258207003583
 11
10.26703424771482
 21
26.61108314340163
 31
0.0015258207003583
  0
LINE
  5
10C
330
1F
100
AcDbEntity
  8
DETAILS
100
AcDbLine
 10
7.05757973435482
 20
16.14097415719334
 30
0.0015258207003583
 11
22.57816139733082
 21
24.05311953261753
 31
0.0015258207003583
  0
LINE
  5
10D
330
1F
100
AcDbEntity
  8
DETAILS
100
AcDbLine
 10
6.268197924066825
 20
24.57239225469743
 30
0.0015258207003583
 11
16.41757964075482
 21
29.74635583932149
 31
0.0015258207003583
  0
TEXT
  5
10E
330
1F
100
AcDbEntity
  8
DETAILS
100
AcDbText
 10
5.660169282913493
 20
49.85315907227823
 30
0.0015258207003583
 40
1.745454527999999
  1
LP SOLID START RIM BOARD
100
AcDbText
  0
LINE
  5
10F
330
1F
100
AcDbEntity
  8
DETAILS
100
AcDbLine
 10
-0.0000029464830931
 20
-0.000000535957497
 30
0.0015258207003583
 11
-0.0000029464830931
 21
52.76290802732251
 31
0.0015258207003583
  0
TEXT
  5
110
330
1F
100
AcDbEntity
  8
DETAILS
100
AcDbText
 10
1.148422475895131
 20
49.8400538909832
 30
0.0015258207003583
 40
1.7
  1
A1
100
AcDbText
  0
LINE
  5
111
330
1F
100
AcDbEntity
  8
DETAILS
100
AcDbLine
 10
5.103146533424535
 20
48.61674147548888
 30
0.0015258207003583
 11
-0.0000029464830931
 21
48.61674147548865
 31
0.0015258207003583
  0
LINE
  5
112
330
1F
100
AcDbEntity
  8
DETAILS
100
AcDbLine
 10
3.314711679529366
 20
31.00552121976761
 30
0.0015258207003583
 11
3.314711679529366
 21
27.17769930332178
 31
0.0015258207003583
  0
LINE
  5
113
330
1F
100
AcDbEntity
  8
DETAILS
100
AcDbLine
 10
7.05757973435482
 20
22.8347922720734
 30
0.0015258207003583
 11
7.05757973435482
 21
20.8768286552895
 31
0.0015258207003583
  0
LINE
  5
114
330
1F
100
AcDbEntity
  8
DETAILS
100
AcDbLine
 10
6.658307011074821
 20
23.03813772458557
 30
0.0015258207003583
 11
6.658307011074821
 21
21.08017410780143
 31
0.0015258207003583
  0
LINE
  5
115
330
1F
100
AcDbEntity
  8
DETAILS
100
AcDbLine
 10
7.05757973435482
 20
20.8768286552895
 30
0.0015258207003583
 11
6.658307011074821
 21
21.08017410780143
 31
0.0015258207003583
  0
LINE
  5
116
330
1F
100
AcDbEntity
  8
DETAILS
100
AcDbLine
 10
7.05757973435482
 20
20.8768286552895
 30
0.0015258207003583
 11
6.314888832690826
 21
20.49806502271349
 31
0.0015258207003583
  0
LINE
  5
117
330
1F
100
AcDbEntity
  8
DETAILS
100
AcDbLine
 10
6.658307011074821
 20
21.08017410780143
 30
0.0015258207003583
 11
5.915616109410827
 21
20.70184683885759
 31
0.0015258207003583
  0
LINE
  5
118
330
1F
100
AcDbEntity
  8
DETAILS
100
AcDbLine
 10
6.314888832690826
 20
20.49806502271349
 30
0.0015258207003583
 11
5.915616109410827
 21
20.70184683885759
 31
0.0015258207003583
  0
LINE
  5
119
330
1F
100
AcDbEntity
  8
DETAILS
100
AcDbLine
 10
5.915616109410827
 20
20.70184683885759
 30
0.0015258207003583
 11
7.101216097554825
 21
19.56599230476149
 31
0.0015258207003583
  0
LINE
  5
11A
330
1F
100
AcDbEntity
  8
DETAILS
100
AcDbLine
 10
7.101216097554825
 20
19.56599230476149
 30
0.0015258207003583
 11
6.658307011074821
 21
19.33995594338557
 31
0.0015258207003583
  0
LINE
  5
11B
330
1F
100
AcDbEntity
  8
DETAILS
100
AcDbLine
 10
7.05757973435482
 20
19.13704685450557
 30
0.0015258207003583
 11
6.658307011074821
 21
19.33995594338557
 31
0.0015258207003583
  0
LINE
  5
11C
330
1F
100
AcDbEntity
  8
DETAILS
100
AcDbLine
 10
6.268197924066825
 20
23.23668317714555
 30
0.0015258207003583
 11
6.268197924066825
 21
24.57239225469743
 31
0.0015258207003583
  0
LINE
  5
11D
330
1F
100
AcDbEntity
  8
DETAILS
100
AcDbLine
 10
6.268197924066825
 20
23.23668317714555
 30
0.0015258207003583
 11
6.658307011074821
 21
23.03813772458557
 31
0.0015258207003583
  0
LINE
  5
11E
330
1F
100
AcDbEntity
  8
DETAILS
100
AcDbLine
 10
6.658307011074821
 20
23.03813772458557
 30
0.0015258207003583
 11
6.658307011074821
 21
23.60715590071345
 31
0.0015258207003583
  0
LINE
  5
11F
330
1F
100
AcDbEntity
  8
DETAILS
100
AcDbLine
 10
7.05757973435482
 20
22.8347922720734
 30
0.0015258207003583
 11
7.05757973435482
 21
23.40337408456957
 31
0.0015258207003583
  0
LINE
  5
120
330
1F
100
AcDbEntity
  8
DETAILS
100
AcDbLine
 10
6.658307011074821
 20
23.60715590071345
 30
0.0015258207003583
 11
7.05757973435482
 21
23.40337408456957
 31
0.0015258207003583
  0
LINE
  5
121
330
1F
100
AcDbEntity
  8
DETAILS
100
AcDbLine
 10
7.05757973435482
 20
15.57239234469761
 30
0.0015258207003583
 11
7.05757973435482
 21
19.13704685450557
 31
0.0015258207003583
  0
LINE
  5
122
330
1F
100
AcDbEntity
  8
DETAILS
100
AcDbLine
 10
6.658307011074821
 20
15.77573779720933
 30
0.0015258207003583
 11
6.658307011074821
 21
19.33995594338557
 31
0.0015258207003583
  0
LINE
  5
123
330
1F
100
AcDbEntity
  8
DETAILS
100
AcDbLine
 10
6.658307011074821
 20
15.77573779720933
 30
0.0015258207003583
 11
7.05757973435482
 21
15.57239234469761
 31
0.0015258207003583
  0
LINE
  5
124
330
1F
100
AcDbEntity
  8
DETAILS
100
AcDbLine
 10
6.268197924066825
 20
16.54286506226571
 30
0.0015258207003583
 11
6.658307011074821
 21
16.74184687845763
 31
0.0015258207003583
  0
LINE
  5
125
330
1F
100
AcDbEntity
  8
DETAILS
100
AcDbLine
 10
6.268197924066825
 20
15.2071559847136
 30
0.0015258207003583
 11
6.268197924066825
 21
16.54286506226571
 31
0.0015258207003583
  0
LINE
  5
126
330
1F
100
AcDbEntity
  8
DETAILS
100
AcDbLine
 10
6.268197924066825
 20
16.54286506226571
 30
0.0015258207003583
 11
6.658307011074821
 21
16.34475597333767
 31
0.0015258207003583
  0
LINE
  5
127
330
1F
100
AcDbEntity
  8
DETAILS
100
AcDbLine
 10
5.103146533424535
 20
52.76612325217683
 30
0.0015258207003583
 11
5.103146533424535
 21
48.61674147548888
 31
0.0015258207003583
  0
MTEXT
  5
128
330
1F
100
AcDbEntity
  8
DETAILS
100
AcDbMText
 10
23.45905748874702
 20
7.550861082269875
 30
0.0
 40
1.199999999999999
 41
26.1488
 71
     1
 72
     5
  1
10d (3") at 6"oc toe-nailed from outside of building
1001
ACAD
1000
MTEXTBEGIN
1070
    73
1070
     1
1070
    44
1040
1.0
1070
    74
1070
     0
1000
MTEXTEND
  0
MTEXT
  5
129
330
1F
100
AcDbEntity
  8
DETAILS
100
AcDbMText
 10
27.67660780533515
 20
45.18387426369554
 30
0.0
 40
1.199999999999999
 41
23.1965
 71
     1
 72
     5
  1
Fasten rim board to each I-joist using one 8d (2-1/2") or 10d (3") box nail per flange
1001
ACAD
1000
MTEXTBEGIN
1070
    73
1070
     1
1070
    44
1040
1.0
1070
    74
1070
     0
1000
MTEXTEND
  0
LINE
  5
12A
330
1F
100
AcDbEntity
  8
DETAILS
100
AcDbLine
 10
19.20332506744283
 20
8.800028776057388
 30
0.0015258207003583
 11
34.54019764134683
 21
16.61922869786531
 31
0.0015258207003583
  0
LINE
  5
12B
330
1F
100
AcDbEntity
  8
DETAILS
100
AcDbLine
 10
19.20332506744283
 20
10.13573785360949
 30
0.0015258207003583
 11
34.54019764134683
 21
17.95493777541742
 31
0.0015258207003583
  0
LINE
  5
12C
330
1F
100
AcDbEntity
  8
DETAILS
100
AcDbLine
 10
19.20332506744283
 20
18.1657014096736
 30
0.0015258207003583
 11
34.54019764134683
 21
25.98402860421742
 31
0.0015258207003583
  0
LINE
  5
12D
330
1F
100
AcDbEntity
  8
DETAILS
100
AcDbLine
 10
18.02427053377882
 20
18.76657413093744
 30
0.0015258207003583
 11
33.36157947131482
 21
26.58490132548149
 31
0.0015258207003583
  0
LINE
  5
12E
330
1F
100
AcDbEntity
  8
DETAILS
100
AcDbLine
 10
19.20332506744283
 20
16.82999233212149
 30
0.0015258207003583
 11
34.54019764134683
 21
24.64788316303361
 31
0.0015258207003583
  0
LINE
  5
12F
330
1F
100
AcDbEntity
  8
DETAILS
100
AcDbLine
 10
36.70456125606682
 20
24.88090134252161
 30
0.0015258207003583
 11
27.00987044392282
 21
29.82271947492154
 31
0.0015258207003583
  0
LINE
  5
130
330
1F
100
AcDbEntity
  8
DETAILS
100
AcDbLine
 10
37.49219761182682
 20
25.2823558839616
 30
0.0015258207003583
 11
28.14397952349082
 21
30.04788310903359
 31
0.0015258207003583
  0
LINE
  5
131
330
1F
100
AcDbEntity
  8
DETAILS
100
AcDbLine
 10
18.81321598043482
 20
10.33471966980141
 30
0.0015258207003583
 11
34.14638520631261
 21
18.14056952402825
 31
0.0015258207003583
  0
LINE
  5
132
330
1F
100
AcDbEntity
  8
DETAILS
100
AcDbLine
 10
17.67125235549082
 20
14.89559235146543
 30
0.0015258207003583
 11
18.85685234363482
 21
13.75973781736957
 31
0.0015258207003583
  0
LINE
  5
133
330
1F
100
AcDbEntity
  8
DETAILS
100
AcDbLine
 10
18.07052507877082
 20
14.69181053532156
 30
0.0015258207003583
 11
17.67125235549082
 21
14.89559235146543
 31
0.0015258207003583
  0
LINE
  5
134
330
1F
100
AcDbEntity
  8
DETAILS
100
AcDbLine
 10
18.41394325715482
 20
15.27391962040974
 30
0.0015258207003583
 11
17.67125235549082
 21
14.89559235146543
 31
0.0015258207003583
  0
LINE
  5
135
330
1F
100
AcDbEntity
  8
DETAILS
100
AcDbLine
 10
15.88608873697882
 20
41.23624663351347
 30
0.0015258207003583
 11
20.40812505539482
 21
42.19884846638774
 31
0.0015258207003583
  0
LINE
  5
136
330
1F
100
AcDbEntity
  8
DETAILS
100
AcDbLine
 10
17.20259781472282
 20
40.56510302817969
 30
0.0015258207003583
 11
19.09161597765088
 21
42.86999207172152
 31
0.0015258207003583
  0
LINE
  5
137
330
1F
100
AcDbEntity
  8
DETAILS
100
AcDbLine
 10
15.88608873697888
 20
41.23624663351347
 30
0.0015258207003583
 11
19.09161597765088
 21
42.86999207172152
 31
0.0015258207003583
  0
LINE
  5
138
330
1F
100
AcDbEntity
  8
DETAILS
100
AcDbLine
 10
17.20259781472282
 20
40.56510302817969
 30
0.0015258207003583
 11
20.40812505539482
 21
42.19884846638774
 31
0.0015258207003583
  0
LINE
  5
139
330
1F
100
AcDbEntity
  8
DETAILS
100
AcDbLine
 10
17.20259781472282
 20
34.68206488087344
 30
0.0015258207003583
 11
20.40812505539482
 21
36.31581031908149
 31
0.0015258207003583
  0
LINE
  5
13A
330
1F
100
AcDbEntity
  8
DETAILS
100
AcDbLine
 10
7.447252457730826
 20
22.63581045588148
 30
0.0015258207003583
 11
19.56288870021082
 21
28.8121013032096
 31
0.0015258207003583
  0
LINE
  5
13B
330
1F
100
AcDbEntity
  8
DETAILS
100
AcDbLine
 10
7.447252457730826
 20
23.97151953343359
 30
0.0015258207003583
 11
17.90776144403482
 21
29.30388311647357
 31
0.0015258207003583
  0
LINE
  5
13C
330
1F
100
AcDbEntity
  8
DETAILS
100
AcDbLine
 10
7.447252457730826
 20
15.94242870463358
 30
0.0015258207003583
 11
22.96739775707481
 21
23.85413771642561
 31
0.0015258207003583
  0
LINE
  5
13D
330
1F
100
AcDbEntity
  8
DETAILS
100
AcDbLine
 10
7.447252457730826
 20
14.60671962708147
 30
0.0015258207003583
 11
22.96739775707481
 21
22.5184286388735
 31
0.0015258207003583
  0
LINE
  5
13E
330
1F
100
AcDbEntity
  8
DETAILS
100
AcDbLine
 10
7.202888823810823
 20
39.77922846626552
 30
0.0015258207003583
 11
21.68841595168282
 21
32.39464672192957
 31
0.0015258207003583
  0
LINE
  5
13F
330
1F
100
AcDbEntity
  8
DETAILS
100
AcDbLine
 10
21.68841595168282
 20
30.90577400954543
 30
0.0015258207003583
 11
7.20288882381083
 21
38.29056049043924
 31
0.0015258207003583
  0
LINE
  5
140
330
1F
100
AcDbEntity
  8
DETAILS
100
AcDbLine
 10
11.44172514505882
 20
32.06082854344959
 30
0.0015258207003583
 11
20.11837960374683
 21
29.49806493271353
 31
0.0015258207003583
  0
LINE
  5
141
330
1F
100
AcDbEntity
  8
DETAILS
100
AcDbLine
 10
11.44172514505882
 20
31.21166491557755
 30
0.0015258207003583
 11
20.11837960374683
 21
28.64759221394547
 31
0.0015258207003583
  0
LINE
  5
142
330
1F
100
AcDbEntity
  8
DETAILS
100
AcDbLine
 10
7.527150829217998
 20
30.70275841489433
 30
0.0015258207003583
 11
12.91052513037082
 21
27.95813767538561
 31
0.0015258207003583
  0
LINE
  5
143
330
1F
100
AcDbEntity
  8
DETAILS
100
AcDbLine
 10
15.88608873697882
 20
38.62068302330544
 30
0.0015258207003583
 11
10.96766265105854
 21
41.12850529034631
 31
0.0015258207003583
  0
LINE
  5
144
330
1F
100
AcDbEntity
  8
DETAILS
100
AcDbLine
 10
7.447252457730826
 20
22.63581045588148
 30
0.0015258207003583
 11
7.447252457730826
 21
23.97151953343359
 31
0.0015258207003583
  0
LINE
  5
145
330
1F
100
AcDbEntity
  8
DETAILS
100
AcDbLine
 10
7.447252457730826
 20
14.60671962708147
 30
0.0015258207003583
 11
7.447252457730826
 21
15.94242870463358
 31
0.0015258207003583
  0
LINE
  5
146
330
1F
100
AcDbEntity
  8
DETAILS
100
AcDbLine
 10
11.44172514505882
 20
31.21166491557755
 30
0.0015258207003583
 11
11.44172514505882
 21
32.06082854344959
 31
0.0015258207003583
  0
LINE
  5
147
330
1F
100
AcDbEntity
  8
DETAILS
100
AcDbLine
 10
7.523616093330826
 20
40.57166482197771
 30
0.0015258207003583
 11
9.938452432818824
 21
40.65151936663369
 31
0.0015258207003583
  0
LINE
  5
148
330
1F
100
AcDbEntity
  8
DETAILS
100
AcDbLine
 10
7.202888823810823
 20
39.77922846626552
 30
0.0015258207003583
 11
8.149361541618823
 21
40.25573755240976
 31
0.0015258207003583
  0
LINE
  5
149
330
1F
100
AcDbEntity
  8
DETAILS
100
AcDbLine
 10
7.523616093330826
 20
40.57166482197771
 30
0.0015258207003583
 11
7.523616093330826
 21
39.9402466464735
 31
0.0015258207003583
  0
LINE
  5
14A
330
1F
100
AcDbEntity
  8
DETAILS
100
AcDbLine
 10
8.149361541618823
 20
40.25573755240976
 30
0.0015258207003583
 11
7.523616093330826
 21
40.57166482197771
 31
0.0015258207003583
  0
LINE
  5
14B
330
1F
100
AcDbEntity
  8
DETAILS
100
AcDbLine
 10
7.202888823810823
 20
39.77922846626552
 30
0.0015258207003583
 11
7.202888823810823
 21
38.29056049043924
 31
0.0015258207003583
  0
LINE
  5
14C
330
1F
100
AcDbEntity
  8
DETAILS
100
AcDbLine
 10
10.9676626510584
 20
41.12850529034631
 30
0.0015258207003583
 11
9.938452432818824
 21
40.65151936663369
 31
0.0015258207003583
  0
LINE
  5
14D
330
1F
100
AcDbEntity
  8
DETAILS
100
AcDbLine
 10
15.88608873697882
 20
41.23624663351347
 30
0.0015258207003583
 11
15.88608873697882
 21
35.35231941962547
 31
0.0015258207003583
  0
LINE
  5
14E
330
1F
100
AcDbEntity
  8
DETAILS
100
AcDbLine
 10
17.20259781472282
 20
34.68206488087344
 30
0.0015258207003583
 11
17.20259781472282
 21
40.56510302817969
 31
0.0015258207003583
  0
LINE
  5
14F
330
1F
100
AcDbEntity
  8
DETAILS
100
AcDbLine
 10
15.88608873697888
 20
41.23624663351347
 30
0.0015258207003583
 11
17.20259781472282
 21
40.56510302817969
 31
0.0015258207003583
  0
LINE
  5
150
330
1F
100
AcDbEntity
  8
DETAILS
100
AcDbLine
 10
22.96739775707481
 20
22.5184286388735
 30
0.0015258207003583
 11
24.17568865408283
 21
21.90228319048947
 31
0.0015258207003583
  0
LINE
  5
151
330
1F
100
AcDbEntity
  8
DETAILS
100
AcDbLine
 10
20.11837960374683
 20
29.49806493271353
 30
0.0015258207003583
 11
28.14397952349082
 21
30.86606491903353
 31
0.0015258207003583
  0
LINE
  5
152
330
1F
100
AcDbEntity
  8
DETAILS
100
AcDbLine
 10
20.11837960374683
 20
28.64759221394547
 30
0.0015258207003583
 11
28.14397952349082
 21
30.01602856389763
 31
0.0015258207003583
  0
LINE
  5
153
330
1F
100
AcDbEntity
  8
DETAILS
100
AcDbLine
 10
21.68841595168282
 20
30.90577400954543
 30
0.0015258207003583
 11
24.89437955598682
 21
34.02926488740149
 31
0.0015258207003583
  0
LINE
  5
154
330
1F
100
AcDbEntity
  8
DETAILS
100
AcDbLine
 10
24.89437955598682
 20
32.54039217501758
 30
0.0015258207003583
 11
21.68841595168282
 21
32.39464672192957
 31
0.0015258207003583
  0
LINE
  5
155
330
1F
100
AcDbEntity
  8
DETAILS
100
AcDbLine
 10
21.68841595168282
 20
30.90577400954543
 30
0.0015258207003583
 11
24.89437955598682
 21
32.54039217501758
 31
0.0015258207003583
  0
LINE
  5
156
330
1F
100
AcDbEntity
  8
DETAILS
100
AcDbLine
 10
21.68841595168282
 20
32.39464672192957
 30
0.0015258207003583
 11
24.89437955598682
 21
34.02926488740149
 31
0.0015258207003583
  0
LINE
  5
157
330
1F
100
AcDbEntity
  8
DETAILS
100
AcDbLine
 10
24.89437955598682
 20
34.02926488740149
 30
0.0015258207003583
 11
20.40812505539482
 21
36.31581031908149
 31
0.0015258207003583
  0
LINE
  5
158
330
1F
100
AcDbEntity
  8
DETAILS
100
AcDbLine
 10
20.40812505539482
 20
42.19884846638774
 30
0.0015258207003583
 11
20.40812505539482
 21
36.31581031908149
 31
0.0015258207003583
  0
LINE
  5
159
330
1F
100
AcDbEntity
  8
DETAILS
100
AcDbLine
 10
20.37976141931482
 20
19.96701048256954
 30
0.0015258207003583
 11
19.17147052230682
 21
20.58315593095358
 31
0.0015258207003583
  0
LINE
  5
15A
330
1F
100
AcDbEntity
  8
DETAILS
100
AcDbLine
 10
18.02427053377882
 20
9.40133786095339
 30
0.0015258207003583
 11
19.20332506744283
 21
8.800028776057388
 31
0.0015258207003583
  0
LINE
  5
15B
330
1F
100
AcDbEntity
  8
DETAILS
100
AcDbLine
 10
18.02427053377882
 20
10.7370469385055
 30
0.0015258207003583
 11
18.41394325715482
 21
10.53806512231358
 31
0.0015258207003583
  0
LINE
  5
15C
330
1F
100
AcDbEntity
  8
DETAILS
100
AcDbLine
 10
19.20332506744283
 20
8.800028776057388
 30
0.0015258207003583
 11
19.20332506744283
 21
10.13573785360949
 31
0.0015258207003583
  0
LINE
  5
15D
330
1F
100
AcDbEntity
  8
DETAILS
100
AcDbLine
 10
18.02427053377882
 20
9.40133786095339
 30
0.0015258207003583
 11
18.02427053377882
 21
10.7370469385055
 31
0.0015258207003583
  0
LINE
  5
15E
330
1F
100
AcDbEntity
  8
DETAILS
100
AcDbLine
 10
18.02427053377882
 20
10.7370469385055
 30
0.0015258207003583
 11
18.41394325715482
 21
10.93602875469741
 31
0.0015258207003583
  0
LINE
  5
15F
330
1F
100
AcDbEntity
  8
DETAILS
100
AcDbLine
 10
18.41394325715482
 20
9.969483309817405
 30
0.0015258207003583
 11
18.81321598043482
 21
9.766137857305693
 31
0.0015258207003583
  0
LINE
  5
160
330
1F
100
AcDbEntity
  8
DETAILS
100
AcDbLine
 10
18.41394325715482
 20
9.969483309817405
 30
0.0015258207003583
 11
18.41394325715482
 21
13.53413781962535
 31
0.0015258207003583
  0
LINE
  5
161
330
1F
100
AcDbEntity
  8
DETAILS
100
AcDbLine
 10
18.81321598043482
 20
9.766137857305693
 30
0.0015258207003583
 11
18.81321598043482
 21
13.33035600348148
 31
0.0015258207003583
  0
LINE
  5
162
330
1F
100
AcDbEntity
  8
DETAILS
100
AcDbLine
 10
18.81321598043482
 20
10.33471966980141
 30
0.0015258207003583
 11
19.20332506744283
 21
10.13573785360949
 31
0.0015258207003583
  0
LINE
  5
163
330
1F
100
AcDbEntity
  8
DETAILS
100
AcDbLine
 10
18.02427053377882
 20
18.76657413093744
 30
0.0015258207003583
 11
19.20332506744283
 21
18.1657014096736
 31
0.0015258207003583
  0
LINE
  5
164
330
1F
100
AcDbEntity
  8
DETAILS
100
AcDbLine
 10
19.20332506744283
 20
16.82999233212149
 30
0.0015258207003583
 11
19.20332506744283
 21
18.1657014096736
 31
0.0015258207003583
  0
LINE
  5
165
330
1F
100
AcDbEntity
  8
DETAILS
100
AcDbLine
 10
18.41394325715482
 20
17.80046504968959
 30
0.0015258207003583
 11
18.81321598043482
 21
17.59755596080958
 31
0.0015258207003583
  0
LINE
  5
166
330
1F
100
AcDbEntity
  8
DETAILS
100
AcDbLine
 10
18.81321598043482
 20
17.0285377846817
 30
0.0015258207003583
 11
18.81321598043482
 21
17.59755596080958
 31
0.0015258207003583
  0
LINE
  5
167
330
1F
100
AcDbEntity
  8
DETAILS
100
AcDbLine
 10
18.41394325715482
 20
17.23188323719341
 30
0.0015258207003583
 11
18.41394325715482
 21
17.80046504968959
 31
0.0015258207003583
  0
LINE
  5
168
330
1F
100
AcDbEntity
  8
DETAILS
100
AcDbLine
 10
18.02427053377882
 20
17.43086505338533
 30
0.0015258207003583
 11
18.41394325715482
 21
17.23188323719341
 31
0.0015258207003583
  0
LINE
  5
169
330
1F
100
AcDbEntity
  8
DETAILS
100
AcDbLine
 10
18.81321598043482
 20
17.0285377846817
 30
0.0015258207003583
 11
19.20332506744283
 21
16.82999233212149
 31
0.0015258207003583
  0
LINE
  5
16A
330
1F
100
AcDbEntity
  8
DETAILS
100
AcDbLine
 10
18.02427053377882
 20
17.43086505338533
 30
0.0015258207003583
 11
18.02427053377882
 21
18.76657413093744
 31
0.0015258207003583
  0
LINE
  5
16B
330
1F
100
AcDbEntity
  8
DETAILS
100
AcDbLine
 10
18.81321598043482
 20
13.33035600348148
 30
0.0015258207003583
 11
18.41394325715482
 21
13.53413781962535
 31
0.0015258207003583
  0
LINE
  5
16C
330
1F
100
AcDbEntity
  8
DETAILS
100
AcDbLine
 10
18.85685234363482
 20
13.75973781736957
 30
0.0015258207003583
 11
18.41394325715482
 21
13.53413781962535
 31
0.0015258207003583
  0
LINE
  5
16D
330
1F
100
AcDbEntity
  8
DETAILS
100
AcDbLine
 10
19.25612506691482
 20
13.5563923648574
 30
0.0015258207003583
 11
18.81321598043482
 21
13.33035600348148
 31
0.0015258207003583
  0
LINE
  5
16E
330
1F
100
AcDbEntity
  8
DETAILS
100
AcDbLine
 10
19.25612506691482
 20
13.5563923648574
 30
0.0015258207003583
 11
18.85685234363482
 21
13.75973781736957
 31
0.0015258207003583
  0
LINE
  5
16F
330
1F
100
AcDbEntity
  8
DETAILS
100
AcDbLine
 10
18.07052507877082
 20
14.69181053532156
 30
0.0015258207003583
 11
19.25612506691482
 21
13.5563923648574
 31
0.0015258207003583
  0
LINE
  5
170
330
1F
100
AcDbEntity
  8
DETAILS
100
AcDbLine
 10
18.81321598043482
 20
15.07101053152973
 30
0.0015258207003583
 11
18.07052507877082
 21
14.69181053532156
 31
0.0015258207003583
  0
LINE
  5
171
330
1F
100
AcDbEntity
  8
DETAILS
100
AcDbLine
 10
18.81321598043482
 20
15.07101053152973
 30
0.0015258207003583
 11
18.41394325715482
 21
15.27391962040974
 31
0.0015258207003583
  0
LINE
  5
172
330
1F
100
AcDbEntity
  8
DETAILS
100
AcDbLine
 10
18.41394325715482
 20
17.23188323719341
 30
0.0015258207003583
 11
18.41394325715482
 21
15.27391962040974
 31
0.0015258207003583
  0
LINE
  5
173
330
1F
100
AcDbEntity
  8
DETAILS
100
AcDbLine
 10
18.81321598043482
 20
17.0285377846817
 30
0.0015258207003583
 11
18.81321598043482
 21
15.07101053152973
 31
0.0015258207003583
  0
LINE
  5
174
330
1F
100
AcDbEntity
  8
DETAILS
100
AcDbLine
 10
18.91925234301082
 20
19.22257412637736
 30
0.0015258207003583
 11
17.71096144600281
 21
19.83871957476139
 31
0.0015258207003583
  0
LINE
  5
175
330
1F
100
AcDbEntity
  8
DETAILS
100
AcDbLine
 10
20.11837960374683
 20
29.49806493271353
 30
0.0015258207003583
 11
20.11837960374683
 21
28.64759221394547
 31
0.0015258207003583
  0
LINE
  5
176
330
1F
100
AcDbEntity
  8
DETAILS
100
AcDbLine
 10
22.96739775707481
 20
22.5184286388735
 30
0.0015258207003583
 11
22.96739775707481
 21
23.85413771642561
 31
0.0015258207003583
  0
LINE
  5
177
330
1F
100
AcDbEntity
  8
DETAILS
100
AcDbLine
 10
22.96739775707481
 20
23.85413771642561
 30
0.0015258207003583
 11
22.57816139733082
 21
24.05311953261753
 31
0.0015258207003583
  0
LINE
  5
178
330
1F
100
AcDbEntity
  8
DETAILS
100
AcDbLine
 10
22.57816139733082
 20
24.05311953261753
 30
0.0015258207003583
 11
22.57816139733082
 21
29.06737402792941
 31
0.0015258207003583
  0
LINE
  5
179
330
1F
100
AcDbEntity
  8
DETAILS
100
AcDbLine
 10
20.63154323497882
 20
21.32759228714553
 30
0.0015258207003583
 11
21.83983413198682
 21
20.7114468387615
 31
0.0015258207003583
  0
LINE
  5
17A
330
1F
100
AcDbEntity
  8
DETAILS
100
AcDbLine
 10
21.68841595168282
 20
32.39464672192957
 30
0.0015258207003583
 11
21.68841595168282
 21
30.90577400954543
 31
0.0015258207003583
  0
LINE
  5
17B
330
1F
100
AcDbEntity
  8
DETAILS
100
AcDbLine
 10
19.09161597765088
 20
42.86999207172152
 30
0.0015258207003583
 11
20.40812505539482
 21
42.19884846638774
 31
0.0015258207003583
  0
LINE
  5
17C
330
1F
100
AcDbEntity
  8
DETAILS
100
AcDbLine
 10
28.14397952349082
 20
30.86606491903353
 30
0.0015258207003583
 11
24.87736137433882
 21
32.53166490237754
 31
0.0015258207003583
  0
LINE
  5
17D
330
1F
100
AcDbEntity
  8
DETAILS
100
AcDbLine
 10
24.89437955598682
 20
32.54039217501758
 30
0.0015258207003583
 11
24.89437955598682
 21
34.02926488740149
 31
0.0015258207003583
  0
LINE
  5
17E
330
1F
100
AcDbEntity
  8
DETAILS
100
AcDbLine
 10
28.14397952349082
 20
30.86606491903353
 30
0.0015258207003583
 11
28.14397952349082
 21
30.01602856389763
 31
0.0015258207003583
  0
LINE
  5
17F
330
1F
100
AcDbEntity
  8
DETAILS
100
AcDbLine
 10
40.80856121502683
 20
12.82155600856958
 30
0.0015258207003583
 11
37.60259761072283
 21
9.698937857977398
 31
0.0015258207003583
  0
LINE
  5
180
330
1F
100
AcDbEntity
  8
DETAILS
100
AcDbLine
 10
37.60259761072283
 20
9.698937857977398
 30
0.0015258207003583
 11
40.80856121502683
 21
11.33268329618567
 31
0.0015258207003583
  0
LINE
  5
181
330
1F
100
AcDbEntity
  8
DETAILS
100
AcDbLine
 10
37.60259761072283
 20
12.6762469191135
 30
0.0015258207003583
 11
40.80856121502683
 21
14.31042872095349
 31
0.0015258207003583
  0
LINE
  5
182
330
1F
100
AcDbEntity
  8
DETAILS
100
AcDbLine
 10
40.80856121502683
 20
14.31042872095349
 30
0.0015258207003583
 11
37.49219761182682
 21
16.00090143132138
 31
0.0015258207003583
  0
LINE
  5
183
330
1F
100
AcDbEntity
  8
DETAILS
100
AcDbLine
 10
37.60259761072283
 20
11.1878105703613
 30
0.0015258207003583
 11
40.80856121502683
 21
12.82155600856958
 31
0.0015258207003583
  0
LINE
  5
184
330
1F
100
AcDbEntity
  8
DETAILS
100
AcDbLine
 10
40.80856121502683
 20
12.82155600856958
 30
0.0015258207003583
 11
37.60259761072283
 21
12.6762469191135
 31
0.0015258207003583
  0
LINE
  5
185
330
1F
100
AcDbEntity
  8
DETAILS
100
AcDbLine
 10
40.80856121502683
 20
11.33268329618567
 30
0.0015258207003583
 11
37.60259761072283
 21
11.1878105703613
 31
0.0015258207003583
  0
LINE
  5
186
330
1F
100
AcDbEntity
  8
DETAILS
100
AcDbLine
 10
37.60259761072283
 20
11.1878105703613
 30
0.0015258207003583
 11
40.80856121502683
 21
14.31042872095349
 31
0.0015258207003583
  0
LINE
  5
187
330
1F
100
AcDbEntity
  8
DETAILS
100
AcDbLine
 10
38.1393248780828
 20
24.95246497816947
 30
0.0015258207003583
 11
43.75183391286681
 21
22.09122864314554
 31
0.0015258207003583
  0
LINE
  5
188
330
1F
100
AcDbEntity
  8
DETAILS
100
AcDbLine
 10
33.36157947131482
 20
26.58490132548149
 30
0.0015258207003583
 11
35.29264316870856
 21
37.53650776503445
 31
0.0015258207003583
  0
LINE
  5
189
330
1F
100
AcDbEntity
  8
DETAILS
100
AcDbLine
 10
32.20434311925083
 20
15.42839234613757
 30
0.0015258207003583
 11
37.60259761072283
 21
12.6762469191135
 31
0.0015258207003583
  0
LINE
  5
18A
330
1F
100
AcDbEntity
  8
DETAILS
100
AcDbLine
 10
37.60259761072283
 20
9.698937857977398
 30
0.0015258207003583
 11
29.28376133027482
 21
13.93951963375366
 31
0.0015258207003583
  0
LINE
  5
18B
330
1F
100
AcDbEntity
  8
DETAILS
100
AcDbLine
 10
37.60259761072283
 20
11.1878105703613
 30
0.0015258207003583
 11
30.74427040657883
 21
14.68395598994538
 31
0.0015258207003583
  0
LINE
  5
18C
330
1F
100
AcDbEntity
  8
DETAILS
100
AcDbLine
 10
35.90208853681882
 20
17.04075596637767
 30
0.0015258207003583
 11
30.29830677467481
 21
9.835956038425592
 31
0.0015258207003583
  0
LINE
  5
18D
330
1F
100
AcDbEntity
  8
DETAILS
100
AcDbLine
 10
34.54019764134683
 20
16.61922869786531
 30
0.0015258207003583
 11
36.70456125606682
 21
15.59901052624945
 31
0.0015258207003583
  0
LINE
  5
18E
330
1F
100
AcDbEntity
  8
DETAILS
100
AcDbLine
 10
34.14638520631261
 20
18.1405695240287
 30
0.0015258207003583
 11
34.14638520631261
 21
24.44713932754075
 31
0.0015258207003583
  0
LINE
  5
18F
330
1F
100
AcDbEntity
  8
DETAILS
100
AcDbLine
 10
34.14638520631261
 20
18.1405695240287
 30
0.0015258207003583
 11
34.54019764134683
 21
17.95493777541787
 31
0.0015258207003583
  0
LINE
  5
190
330
1F
100
AcDbEntity
  8
DETAILS
100
AcDbLine
 10
34.54019764134683
 20
16.61922869786531
 30
0.0015258207003583
 11
34.54019764134683
 21
17.95493777541742
 31
0.0015258207003583
  0
LINE
  5
191
330
1F
100
AcDbEntity
  8
DETAILS
100
AcDbLine
 10
34.54019764134683
 20
24.64788316303361
 30
0.0015258207003583
 11
34.54019764134683
 21
25.98402860421742
 31
0.0015258207003583
  0
LINE
  5
192
330
1F
100
AcDbEntity
  8
DETAILS
100
AcDbLine
 10
36.70456125606682
 20
15.59901052624945
 30
0.0015258207003583
 11
37.49219761182682
 21
16.00090143132138
 31
0.0015258207003583
  0
LINE
  5
193
330
1F
100
AcDbEntity
  8
DETAILS
100
AcDbLine
 10
36.70456125606682
 20
24.88090134252161
 30
0.0015258207003583
 11
37.49219761182682
 21
25.2823558839616
 31
0.0015258207003583
  0
LINE
  5
194
330
1F
100
AcDbEntity
  8
DETAILS
100
AcDbLine
 10
37.60259761072283
 20
12.6762469191135
 30
0.0015258207003583
 11
37.60259761072283
 21
9.698937857977398
 31
0.0015258207003583
  0
LINE
  5
195
330
1F
100
AcDbEntity
  8
DETAILS
100
AcDbLine
 10
36.70456125606682
 20
21.7643922827774
 30
0.0015258207003583
 11
37.49219761182682
 21
22.16584682421762
 31
0.0015258207003583
  0
LINE
  5
196
330
1F
100
AcDbEntity
  8
DETAILS
100
AcDbLine
 10
36.26121580595482
 20
20.24933775247359
 30
0.0015258207003583
 11
37.04928852534679
 21
20.65166502117745
 31
0.0015258207003583
  0
LINE
  5
197
330
1F
100
AcDbEntity
  8
DETAILS
100
AcDbLine
 10
36.70456125606682
 20
20.02417411836154
 30
0.0015258207003583
 11
37.49219761182682
 21
20.42562865980153
 31
0.0015258207003583
  0
LINE
  5
198
330
1F
100
AcDbEntity
  8
DETAILS
100
AcDbLine
 10
37.44768852136279
 20
21.38519228656946
 30
0.0015258207003583
 11
38.2348885134908
 21
21.78664682800945
 31
0.0015258207003583
  0
LINE
  5
199
330
1F
100
AcDbEntity
  8
DETAILS
100
AcDbLine
 10
36.26121580595482
 20
20.24933775247359
 30
0.0015258207003583
 11
36.70456125606682
 21
20.02417411836154
 31
0.0015258207003583
  0
LINE
  5
19A
330
1F
100
AcDbEntity
  8
DETAILS
100
AcDbLine
 10
37.44768852136279
 20
21.38519228656946
 30
0.0015258207003583
 11
36.26121580595482
 21
20.24933775247359
 31
0.0015258207003583
  0
LINE
  5
19B
330
1F
100
AcDbEntity
  8
DETAILS
100
AcDbLine
 10
36.70456125606682
 20
21.7643922827774
 30
0.0015258207003583
 11
37.44768852136279
 21
21.38519228656946
 31
0.0015258207003583
  0
LINE
  5
19C
330
1F
100
AcDbEntity
  8
DETAILS
100
AcDbLine
 10
37.04928852534679
 20
20.65166502117745
 30
0.0015258207003583
 11
37.49219761182682
 21
20.42562865980153
 31
0.0015258207003583
  0
LINE
  5
19D
330
1F
100
AcDbEntity
  8
DETAILS
100
AcDbLine
 10
38.2348885134908
 20
21.78664682800945
 30
0.0015258207003583
 11
37.04928852534679
 21
20.65166502117745
 31
0.0015258207003583
  0
LINE
  5
19E
330
1F
100
AcDbEntity
  8
DETAILS
100
AcDbLine
 10
37.49219761182682
 20
22.16584682421762
 30
0.0015258207003583
 11
38.2348885134908
 21
21.78664682800945
 31
0.0015258207003583
  0
LINE
  5
19F
330
1F
100
AcDbEntity
  8
DETAILS
100
AcDbLine
 10
36.70456125606682
 20
24.88090134252161
 30
0.0015258207003583
 11
36.70456125606682
 21
21.7643922827774
 31
0.0015258207003583
  0
LINE
  5
1A0
330
1F
100
AcDbEntity
  8
DETAILS
100
AcDbLine
 10
37.49219761182682
 20
25.2823558839616
 30
0.0015258207003583
 11
37.49219761182682
 21
22.16584682421762
 31
0.0015258207003583
  0
LINE
  5
1A1
330
1F
100
AcDbEntity
  8
DETAILS
100
AcDbLine
 10
36.70456125606682
 20
15.59901052624945
 30
0.0015258207003583
 11
36.70456125606682
 21
20.02417411836154
 31
0.0015258207003583
  0
LINE
  5
1A2
330
1F
100
AcDbEntity
  8
DETAILS
100
AcDbLine
 10
37.49219761182682
 20
16.00090143132138
 30
0.0015258207003583
 11
37.49219761182682
 21
20.42562865980153
 31
0.0015258207003583
  0
LINE
  5
1A3
330
1F
100
AcDbEntity
  8
DETAILS
100
AcDbLine
 10
46.19192235722852
 20
25.54123363550115
 30
0.0015258207003583
 11
43.06723734679926
 21
18.2569658037014
 31
0.0015258207003583
  0
LINE
  5
1A4
330
1F
100
AcDbEntity
  8
DETAILS
100
AcDbLine
 10
41.22354302905878
 20
14.12148326829765
 30
0.0015258207003583
 11
43.75183391286681
 21
12.83290146300169
 31
0.0015258207003583
  0
LINE
  5
1A5
330
1F
100
AcDbEntity
  8
DETAILS
100
AcDbLine
 10
40.80856121502683
 20
11.33268329618567
 30
0.0015258207003583
 11
40.80856121502683
 21
14.31042872095349
 31
0.0015258207003583
  0
LINE
  5
1A6
330
1F
100
AcDbEntity
  8
DETAILS
100
AcDbLine
 10
42.55445210665879
 20
22.66373772832957
 30
0.0015258207003583
 11
42.55445210665879
 21
23.63726499132144
 31
0.0015258207003583
  0
LINE
  5
1A7
330
1F
100
AcDbEntity
  8
DETAILS
100
AcDbLine
 10
42.55445210665879
 20
12.29486510474544
 30
0.0015258207003583
 11
42.55445210665879
 21
22.66373772832957
 31
0.0015258207003583
  0
LINE
  5
1A8
330
1F
100
AcDbEntity
  8
DETAILS
100
AcDbLine
 10
43.3957611891548
 20
23.13064681456944
 30
0.0015258207003583
 11
41.71314302416279
 21
22.27319227768953
 31
0.0015258207003583
  0
LINE
  5
1A9
330
1F
100
AcDbEntity
  8
DETAILS
100
AcDbLine
 10
43.3957611891548
 20
13.87188327079366
 30
0.0015258207003583
 11
41.71314302416279
 21
13.01399237028135
 31
0.0015258207003583
  0
LINE
  5
1AA
330
1F
100
AcDbEntity
  8
DETAILS
100
AcDbLine
 10
52.80479652546887
 20
52.76290802732251
 30
0.0015258207003583
 11
52.80479652546887
 21
-0.000000535957497
 31
0.0015258207003583
  0
ENDSEC
  0
SECTION
  2
OBJECTS
  0
DICTIONARY
  5
C
330
0
100
AcDbDictionary
  3
ACAD_GROUP
350
D
  3
ACAD_LAYOUT
350
1A
  3
ACAD_MLINESTYLE
350
17
  3
ACAD_PLOTSETTINGS
350
19
  3
ACAD_PLOTSTYLENAME
350
E
  3
ACDBHEADERROUNDTRIPXREC
350
1B2
  3
ACDBVARIABLEDICTIONARY
350
1AF
  0
DICTIONARY
  5
1D4
330
1F
100
AcDbDictionary
280
     1
  3
ACAD_LAYOUTSELFREF
360
1D5
  0
DICTIONARY
  5
1D2
330
1B
100
AcDbDictionary
280
     1
  3
ACAD_LAYOUTSELFREF
360
1D3
  0
DICTIONARY
  5
D
102
{ACAD_REACTORS
330
C
102
}
330
C
100
AcDbDictionary
  0
DICTIONARY
  5
1A
102
{ACAD_REACTORS
330
C
102
}
330
C
100
AcDbDictionary
  0
DICTIONARY
  5
17
102
{ACAD_REACTORS
330
C
102
}
330
C
100
AcDbDictionary
  3
STANDARD
350
18
  0
DICTIONARY
  5
19
102
{ACAD_REACTORS
330
C
102
}
330
C
100
AcDbDictionary
  0
ACDBDICTIONARYWDFLT
  5
E
102
{ACAD_REACTORS
330
C
102
}
330
C
100
AcDbDictionary
281
     1
  3
Normal
350
F
100
AcDbDictionaryWithDefault
340
F
  0
DICTIONARY
  5
1B2
102
{ACAD_REACTORS
330
C
102
}
330
C
100
AcDbDictionary
  3
CEPSNTYPE
350
1BC
  3
FINGERPRINTGUID
350
1BD
  3
HYPERLINKBASE
350
1B5
  3
INSUNITS
350
1BB
  3
LAYOUTDICT
350
1B7
  3
LWETCUNION
350
1BA
  3
PLOTSETDICT
350
1B8
  3
PLOTSTYLNAMDICT
350
1B9
  3
PSVPSCALE
350
1BF
  3
PUCSBASE
350
1C2
  3
PUCSORGBACK
350
1C8
  3
PUCSORGBOTTOM
350
1C4
  3
PUCSORGFRONT
350
1C7
  3
PUCSORGLEFT
350
1C5
  3
PUCSORGRIGHT
350
1C6
  3
PUCSORGTOP
350
1C3
  3
PUCSORTHOREF
350
1C0
  3
PUCSORTHOVIEW
350
1C1
  3
STYLESHEET
350
1B6
  3
TSTACKALIGN
350
1B3
  3
TSTACKSIZE
350
1B4
  3
UCSBASE
350
1CB
  3
UCSORGBACK
350
1D1
  3
UCSORGBOTTOM
350
1CD
  3
UCSORGFRONT
350
1D0
  3
UCSORGLEFT
350
1CE
  3
UCSORGRIGHT
350
1CF
  3
UCSORGTOP
350
1CC
  3
UCSORTHOREF
350
1C9
  3
UCSORTHOVIEW
350
1CA
  3
VERSIONGUID
350
1BE
  0
DICTIONARY
  5
1AF
102
{ACAD_REACTORS
330
C
102
}
330
C
100
AcDbDictionary
  3
DIMASSOC
350
1B0
  0
XRECORD
  5
1D5
102
{ACAD_REACTORS
330
1D4
102
}
330
1D4
100
AcDbXrecord
340
1F
  0
XRECORD
  5
1D3
102
{ACAD_REACTORS
330
1D2
102
}
330
1D2
100
AcDbXrecord
340
1B
  0
MLINESTYLE
  5
18
102
{ACAD_REACTORS
330
17
102
}
330
17
100
AcDbMlineStyle
  2
STANDARD
 70
     0
  3

 62
   256
 51
90.0
 52
90.0
 71
     2
 49
0.5
 62
   256
  6
BYLAYER
 49
-0.5
 62
   256
  6
BYLAYER
  0
ACDBPLACEHOLDER
  5
F
102
{ACAD_REACTORS
330
E
102
}
330
E
100
AcDbPlaceHolder
280
     0
  0
XRECORD
  5
1BC
102
{ACAD_REACTORS
330
1B2
102
}
330
1B2
100
AcDbXrecord
 90
        0
  0
XRECORD
  5
1BD
102
{ACAD_REACTORS
330
1B2
102
}
330
1B2
100
AcDbXrecord
  1
{FDEAD576-A652-11D2-9A35-0060089B3A3F}
  0
XRECORD
  5
1B5
102
{ACAD_REACTORS
330
1B2
102
}
330
1B2
100
AcDbXrecord
  1

  0
XRECORD
  5
1BB
102
{ACAD_REACTORS
330
1B2
102
}
330
1B2
100
AcDbXrecord
 90
        1
  0
XRECORD
  5
1B7
102
{ACAD_REACTORS
330
1B2
102
}
330
1B2
100
AcDbXrecord
340
1A
  0
XRECORD
  5
1BA
102
{ACAD_REACTORS
330
1B2
102
}
330
1B2
100
AcDbXrecord
 90
    10781
  0
XRECORD
  5
1B8
102
{ACAD_REACTORS
330
1B2
102
}
330
1B2
100
AcDbXrecord
340
19
  0
XRECORD
  5
1B9
102
{ACAD_REACTORS
330
1B2
102
}
330
1B2
100
AcDbXrecord
340
E
  0
XRECORD
  5
1BF
102
{ACAD_REACTORS
330
1B2
102
}
330
1B2
100
AcDbXrecord
 40
0.0
  0
XRECORD
  5
1C2
102
{ACAD_REACTORS
330
1B2
102
}
330
1B2
100
AcDbXrecord
340
0
  0
XRECORD
  5
1C8
102
{ACAD_REACTORS
330
1B2
102
}
330
1B2
100
AcDbXrecord
 10
0.0
 20
0.0
 30
0.0
  0
XRECORD
  5
1C4
102
{ACAD_REACTORS
330
1B2
102
}
330
1B2
100
AcDbXrecord
 10
0.0
 20
0.0
 30
0.0
  0
XRECORD
  5
1C7
102
{ACAD_REACTORS
330
1B2
102
}
330
1B2
100
AcDbXrecord
 10
0.0
 20
0.0
 30
0.0
  0
XRECORD
  5
1C5
102
{ACAD_REACTORS
330
1B2
102
}
330
1B2
100
AcDbXrecord
 10
0.0
 20
0.0
 30
0.0
  0
XRECORD
  5
1C6
102
{ACAD_REACTORS
330
1B2
102
}
330
1B2
100
AcDbXrecord
 10
0.0
 20
0.0
 30
0.0
  0
XRECORD
  5
1C3
102
{ACAD_REACTORS
330
1B2
102
}
330
1B2
100
AcDbXrecord
 10
0.0
 20
0.0
 30
0.0
  0
XRECORD
  5
1C0
102
{ACAD_REACTORS
330
1B2
102
}
330
1B2
100
AcDbXrecord
340
0
  0
XRECORD
  5
1C1
102
{ACAD_REACTORS
330
1B2
102
}
330
1B2
100
AcDbXrecord
 70
     0
  0
XRECORD
  5
1B6
102
{ACAD_REACTORS
330
1B2
102
}
330
1B2
100
AcDbXrecord
  1

  0
XRECORD
  5
1B3
102
{ACAD_REACTORS
330
1B2
102
}
330
1B2
100
AcDbXrecord
 90
        1
  0
XRECORD
  5
1B4
102
{ACAD_REACTORS
330
1B2
102
}
330
1B2
100
AcDbXrecord
 90
       70
  0
XRECORD
  5
1CB
102
{ACAD_REACTORS
330
1B2
102
}
330
1B2
100
AcDbXrecord
340
0
  0
XRECORD
  5
1D1
102
{ACAD_REACTORS
330
1B2
102
}
330
1B2
100
AcDbXrecord
 10
0.0
 20
0.0
 30
0.0
  0
XRECORD
  5
1CD
102
{ACAD_REACTORS
330
1B2
102
}
330
1B2
100
AcDbXrecord
 10
0.0
 20
0.0
 30
0.0
  0
XRECORD
  5
1D0
102
{ACAD_REACTORS
330
1B2
102
}
330
1B2
100
AcDbXrecord
 10
0.0
 20
0.0
 30
0.0
  0
XRECORD
  5
1CE
102
{ACAD_REACTORS
330
1B2
102
}
330
1B2
100
AcDbXrecord
 10
0.0
 20
0.0
 30
0.0
  0
XRECORD
  5
1CF
102
{ACAD_REACTORS
330
1B2
102
}
330
1B2
100
AcDbXrecord
 10
0.0
 20
0.0
 30
0.0
  0
XRECORD
  5
1CC
102
{ACAD_REACTORS
330
1B2
102
}
330
1B2
100
AcDbXrecord
 10
0.0
 20
0.0
 30
0.0
  0
XRECORD
  5
1C9
102
{ACAD_REACTORS
330
1B2
102
}
330
1B2
100
AcDbXrecord
340
0
  0
XRECORD
  5
1CA
102
{ACAD_REACTORS
330
1B2
102
}
330
1B2
100
AcDbXrecord
 70
     0
  0
XRECORD
  5
1BE
102
{ACAD_REACTORS
330
1B2
102
}
330
1B2
100
AcDbXrecord
  1
{A336DFD6-5705-45B5-927B-802EAAA6C510}
  0
DICTIONARYVAR
  5
1B0
102
{ACAD_REACTORS
330
1AF
102
}
330
1AF
100
DictionaryVariables
280
     0
  1
1
  0
ENDSEC
  0
EOF
