  0
SECTION
  2
HEADER
  9
$ACADVER
  1
AC1015
  9
$ACADMAINTVER
 70
     6
  9
$DWGCODEPAGE
  3
ANSI_1252
  9
$INSBASE
 10
0.0
 20
0.0
 30
0.0
  9
$EXTMIN
 10
-7.381308695709634
 20
-159.63615
 30
0.0
  9
$EXTMAX
 10
152.4796051759862
 20
159.60915
 30
0.0
  9
$LIMMIN
 10
-7.381308695709634
 20
-159.63615
  9
$LIMMAX
 10
152.4796051759862
 20
159.60915
  9
$ORTHOMODE
 70
     0
  9
$REGENMODE
 70
     1
  9
$FILLMODE
 70
     1
  9
$QTEXTMODE
 70
     0
  9
$MIRRTEXT
 70
     1
  9
$LTSCALE
 40
1.0
  9
$ATTMODE
 70
     1
  9
$TEXTSIZE
 40
0.2
  9
$TRACEWID
 40
0.05
  9
$TEXTSTYLE
  7
Standard
  9
$CLAYER
  8
0
  9
$CELTYPE
  6
ByLayer
  9
$CECOLOR
 62
   256
  9
$CELTSCALE
 40
1.0
  9
$DISPSILH
 70
     0
  9
$DIMSCALE
 40
1.0
  9
$DIMASZ
 40
0.18
  9
$DIMEXO
 40
0.0625
  9
$DIMDLI
 40
0.38
  9
$DIMRND
 40
0.0
  9
$DIMDLE
 40
0.0
  9
$DIMEXE
 40
0.18
  9
$DIMTP
 40
0.0
  9
$DIMTM
 40
0.0
  9
$DIMTXT
 40
0.18
  9
$DIMCEN
 40
0.09
  9
$DIMTSZ
 40
0.0
  9
$DIMTOL
 70
     0
  9
$DIMLIM
 70
     0
  9
$DIMTIH
 70
     1
  9
$DIMTOH
 70
     1
  9
$DIMSE1
 70
     0
  9
$DIMSE2
 70
     0
  9
$DIMTAD
 70
     0
  9
$DIMZIN
 70
     0
  9
$DIMBLK
  1

  9
$DIMASO
 70
     1
  9
$DIMSHO
 70
     1
  9
$DIMPOST
  1

  9
$DIMAPOST
  1

  9
$DIMALT
 70
     0
  9
$DIMALTD
 70
     2
  9
$DIMALTF
 40
25.4
  9
$DIMLFAC
 40
1.0
  9
$DIMTOFL
 70
     0
  9
$DIMTVP
 40
0.0
  9
$DIMTIX
 70
     0
  9
$DIMSOXD
 70
     0
  9
$DIMSAH
 70
     0
  9
$DIMBLK1
  1

  9
$DIMBLK2
  1

  9
$DIMSTYLE
  2
Standard
  9
$DIMCLRD
 70
     0
  9
$DIMCLRE
 70
     0
  9
$DIMCLRT
 70
     0
  9
$DIMTFAC
 40
1.0
  9
$DIMGAP
 40
0.09
  9
$DIMJUST
 70
     0
  9
$DIMSD1
 70
     0
  9
$DIMSD2
 70
     0
  9
$DIMTOLJ
 70
     1
  9
$DIMTZIN
 70
     0
  9
$DIMALTZ
 70
     0
  9
$DIMALTTZ
 70
     0
  9
$DIMUPT
 70
     0
  9
$DIMDEC
 70
     4
  9
$DIMTDEC
 70
     4
  9
$DIMALTU
 70
     2
  9
$DIMALTTD
 70
     2
  9
$DIMTXSTY
  7
Standard
  9
$DIMAUNIT
 70
     0
  9
$DIMADEC
 70
     0
  9
$DIMALTRND
 40
0.0
  9
$DIMAZIN
 70
     0
  9
$DIMDSEP
 70
    46
  9
$DIMATFIT
 70
     3
  9
$DIMFRAC
 70
     0
  9
$DIMLDRBLK
  1

  9
$DIMLUNIT
 70
     2
  9
$DIMLWD
 70
    -2
  9
$DIMLWE
 70
    -2
  9
$DIMTMOVE
 70
     0
  9
$LUNITS
 70
     2
  9
$LUPREC
 70
     4
  9
$SKETCHINC
 40
0.1
  9
$FILLETRAD
 40
0.5
  9
$AUNITS
 70
     0
  9
$AUPREC
 70
     0
  9
$MENU
  1
.
  9
$ELEVATION
 40
0.0
  9
$PELEVATION
 40
0.0
  9
$THICKNESS
 40
0.0
  9
$LIMCHECK
 70
     0
  9
$CHAMFERA
 40
0.5
  9
$CHAMFERB
 40
0.5
  9
$CHAMFERC
 40
1.0
  9
$CHAMFERD
 40
0.0
  9
$SKPOLY
 70
     0
  9
$TDCREATE
 40
2456024.660159931
  9
$TDUCREATE
 40
2456024.910159931
  9
$TDUPDATE
 40
2456024.660159942
  9
$TDUUPDATE
 40
2456024.910159942
  9
$TDINDWG
 40
0.0000000116
  9
$TDUSRTIMER
 40
0.0000000116
  9
$USRTIMER
 70
     1
  9
$ANGBASE
 50
0.0
  9
$ANGDIR
 70
     0
  9
$PDMODE
 70
     0
  9
$PDSIZE
 40
0.0
  9
$PLINEWID
 40
0.0
  9
$SPLFRAME
 70
     0
  9
$SPLINETYPE
 70
     6
  9
$SPLINESEGS
 70
     8
  9
$HANDSEED
  5
294
  9
$SURFTAB1
 70
     6
  9
$SURFTAB2
 70
     6
  9
$SURFTYPE
 70
     6
  9
$SURFU
 70
     6
  9
$SURFV
 70
     6
  9
$UCSBASE
  2

  9
$UCSNAME
  2

  9
$UCSORG
 10
0.0
 20
0.0
 30
0.0
  9
$UCSXDIR
 10
1.0
 20
0.0
 30
0.0
  9
$UCSYDIR
 10
0.0
 20
1.0
 30
0.0
  9
$UCSORTHOREF
  2

  9
$UCSORTHOVIEW
 70
     0
  9
$UCSORGTOP
 10
0.0
 20
0.0
 30
0.0
  9
$UCSORGBOTTOM
 10
0.0
 20
0.0
 30
0.0
  9
$UCSORGLEFT
 10
0.0
 20
0.0
 30
0.0
  9
$UCSORGRIGHT
 10
0.0
 20
0.0
 30
0.0
  9
$UCSORGFRONT
 10
0.0
 20
0.0
 30
0.0
  9
$UCSORGBACK
 10
0.0
 20
0.0
 30
0.0
  9
$PUCSBASE
  2

  9
$PUCSNAME
  2

  9
$PUCSORG
 10
0.0
 20
0.0
 30
0.0
  9
$PUCSXDIR
 10
1.0
 20
0.0
 30
0.0
  9
$PUCSYDIR
 10
0.0
 20
1.0
 30
0.0
  9
$PUCSORTHOREF
  2

  9
$PUCSORTHOVIEW
 70
     0
  9
$PUCSORGTOP
 10
0.0
 20
0.0
 30
0.0
  9
$PUCSORGBOTTOM
 10
0.0
 20
0.0
 30
0.0
  9
$PUCSORGLEFT
 10
0.0
 20
0.0
 30
0.0
  9
$PUCSORGRIGHT
 10
0.0
 20
0.0
 30
0.0
  9
$PUCSORGFRONT
 10
0.0
 20
0.0
 30
0.0
  9
$PUCSORGBACK
 10
0.0
 20
0.0
 30
0.0
  9
$USERI1
 70
     0
  9
$USERI2
 70
     0
  9
$USERI3
 70
     0
  9
$USERI4
 70
     0
  9
$USERI5
 70
     0
  9
$USERR1
 40
0.0
  9
$USERR2
 40
0.0
  9
$USERR3
 40
0.0
  9
$USERR4
 40
0.0
  9
$USERR5
 40
0.0
  9
$WORLDVIEW
 70
     1
  9
$SHADEDGE
 70
     3
  9
$SHADEDIF
 70
    70
  9
$TILEMODE
 70
     1
  9
$MAXACTVP
 70
    64
  9
$PINSBASE
 10
0.0
 20
0.0
 30
0.0
  9
$PLIMCHECK
 70
     0
  9
$PEXTMIN
 10
1.000000000000000E+20
 20
1.000000000000000E+20
 30
1.000000000000000E+20
  9
$PEXTMAX
 10
-1.000000000000000E+20
 20
-1.000000000000000E+20
 30
-1.000000000000000E+20
  9
$PLIMMIN
 10
0.0
 20
0.0
  9
$PLIMMAX
 10
12.0
 20
9.0
  9
$UNITMODE
 70
     0
  9
$VISRETAIN
 70
     1
  9
$PLINEGEN
 70
     0
  9
$PSLTSCALE
 70
     1
  9
$TREEDEPTH
 70
  3020
  9
$CMLSTYLE
  2
Standard
  9
$CMLJUST
 70
     0
  9
$CMLSCALE
 40
1.0
  9
$PROXYGRAPHICS
 70
     1
  9
$MEASUREMENT
 70
     0
  9
$CELWEIGHT
370
    -1
  9
$ENDCAPS
280
     0
  9
$JOINSTYLE
280
     0
  9
$LWDISPLAY
290
     0
  9
$INSUNITS
 70
     4
  9
$HYPERLINKBASE
  1

  9
$STYLESHEET
  1

  9
$XEDIT
290
     1
  9
$CEPSNTYPE
380
     0
  9
$PSTYLEMODE
290
     1
  9
$FINGERPRINTGUID
  2
{4ED58864-E337-44A9-B652-A2BE73FE1C6E}
  9
$VERSIONGUID
  2
{FAEB1C32-E019-11D5-929B-00C0DF256EC4}
  9
$EXTNAMES
290
     1
  9
$PSVPSCALE
 40
0.0
  9
$OLESTARTUP
290
     0
  0
ENDSEC
  0
SECTION
  2
CLASSES
  0
CLASS
  1
ACDBDICTIONARYWDFLT
  2
AcDbDictionaryWithDefault
  3
ObjectDBX Classes
 90
        0
280
     0
281
     0
  0
CLASS
  1
VISUALSTYLE
  2
AcDbVisualStyle
  3
ObjectDBX Classes
 90
     4095
280
     0
281
     0
  0
CLASS
  1
SCALE
  2
AcDbScale
  3
ObjectDBX Classes
 90
     1153
280
     0
281
     0
  0
CLASS
  1
DICTIONARYVAR
  2
AcDbDictionaryVar
  3
ObjectDBX Classes
 90
        0
280
     0
281
     0
  0
CLASS
  1
ACDBPLACEHOLDER
  2
AcDbPlaceHolder
  3
ObjectDBX Classes
 90
        0
280
     0
281
     0
  0
CLASS
  1
LAYOUT
  2
AcDbLayout
  3
ObjectDBX Classes
 90
        0
280
     0
281
     0
  0
ENDSEC
  0
SECTION
  2
TABLES
  0
TABLE
  2
VPORT
  5
8
330
0
100
AcDbSymbolTable
 70
     1
  0
VPORT
  5
29
330
8
100
AcDbSymbolTableRecord
100
AcDbViewportTableRecord
  2
*Active
 70
     0
 10
0.0
 20
0.0
 11
1.0
 21
1.0
 12
212.8979483042903
 22
-159.63615
 13
0.0
 23
0.0
 14
0.5
 24
0.5
 15
0.5
 25
0.5
 16
0.0
 26
0.0
 36
1.0
 17
0.0
 27
0.0
 37
0.0
 40
319.2452999999999
 41
0.0556210436164697
 42
50.0
 43
0.0
 44
0.0
 50
0.0
 51
0.0
 71
     0
 72
   100
 73
     1
 74
     3
 75
     0
 76
     0
 77
     0
 78
     0
281
     0
 65
     1
110
0.0
120
0.0
130
0.0
111
1.0
121
0.0
131
0.0
112
0.0
122
1.0
132
0.0
 79
     0
146
0.0
  0
ENDTAB
  0
TABLE
  2
LTYPE
  5
5
330
0
100
AcDbSymbolTable
 70
    10
  0
LTYPE
  5
14
330
5
100
AcDbSymbolTableRecord
100
AcDbLinetypeTableRecord
  2
ByBlock
 70
     0
  3

 72
    65
 73
     0
 40
0.0
  0
LTYPE
  5
15
330
5
100
AcDbSymbolTableRecord
100
AcDbLinetypeTableRecord
  2
ByLayer
 70
     0
  3

 72
    65
 73
     0
 40
0.0
  0
LTYPE
  5
16
330
5
100
AcDbSymbolTableRecord
100
AcDbLinetypeTableRecord
  2
Continuous
 70
     0
  3
Solid line
 72
    65
 73
     0
 40
0.0
  0
LTYPE
  5
4F
330
5
100
AcDbSymbolTableRecord
100
AcDbLinetypeTableRecord
  2
ZIGZAG
 70
     0
  3
/\/\/\/\/\/\/\/\
 72
    65
 73
     4
 40
20.32254
 49
0.00254
 74
     0
 49
-5.08
 74
     4
 75
   131
340
4E
 46
5.08
 50
0.0
 44
-5.08
 45
0.0
 49
-10.16
 74
     4
 75
   131
340
4E
 46
5.08
 50
180.0
 44
5.08
 45
0.0
 49
-5.08
 74
     0
  0
LTYPE
  5
50
330
5
100
AcDbSymbolTableRecord
100
AcDbLinetypeTableRecord
  2
BATTING
 70
     0
  3
 SSSSSSSSSSSSSSSSSSSSSS
 72
    65
 73
     4
 40
10.16254
 49
0.00254
 74
     0
 49
-2.54
 74
     4
 75
   134
340
4E
 46
2.54
 50
0.0
 44
-2.54
 45
0.0
 49
-5.08
 74
     4
 75
   134
340
4E
 46
2.54
 50
180.0
 44
2.54
 45
0.0
 49
-2.54
 74
     0
  0
LTYPE
  5
51
330
5
100
AcDbSymbolTableRecord
100
AcDbLinetypeTableRecord
  2
DASHDOT
 70
     0
  3
DASHDOT
 72
    65
 73
     4
 40
1.0
 49
0.5
 74
     0
 49
-0.25
 74
     0
 49
0.0001
 74
     0
 49
-0.25
 74
     0
  0
LTYPE
  5
52
330
5
100
AcDbSymbolTableRecord
100
AcDbLinetypeTableRecord
  2
DASHDOTX2
 70
     0
  3
DASHDOTX2
 72
    65
 73
     4
 40
1.0
 49
1.0
 74
     0
 49
-0.5
 74
     0
 49
0.0002
 74
     0
 49
-0.5
 74
     0
  0
LTYPE
  5
53
330
5
100
AcDbSymbolTableRecord
100
AcDbLinetypeTableRecord
  2
DASHED
 70
     0
  3
DASHED
 72
    65
 73
     2
 40
0.75
 49
0.5
 74
     0
 49
-0.25
 74
     0
  0
LTYPE
  5
54
330
5
100
AcDbSymbolTableRecord
100
AcDbLinetypeTableRecord
  2
TRACKS
 70
     0
  3
TRACKS
 72
    65
 73
     2
 40
7.62
 49
3.81
 74
     0
 49
3.81
 74
     0
  0
LTYPE
  5
55
330
5
100
AcDbSymbolTableRecord
100
AcDbLinetypeTableRecord
  2
DOT
 70
     0
  3
DOT
 72
    65
 73
     2
 40
0.25
 49
0.0001
 74
     0
 49
-0.25
 74
     0
  0
LTYPE
  5
56
330
5
100
AcDbSymbolTableRecord
100
AcDbLinetypeTableRecord
  2
DIVIDE
 70
     0
  3
DIVIDE
 72
    65
 73
     6
 40
1.25
 49
0.5
 74
     0
 49
-0.25
 74
     0
 49
0.0001
 74
     0
 49
-0.25
 74
     0
 49
0.0001
 74
     0
 49
-0.25
 74
     0
  0
LTYPE
  5
57
330
5
100
AcDbSymbolTableRecord
100
AcDbLinetypeTableRecord
  2
PHANTOM
 70
     0
  3
PHANTOM
 72
    65
 73
     6
 40
2.5
 49
1.25
 74
     0
 49
-0.25
 74
     0
 49
0.25
 74
     0
 49
-0.25
 74
     0
 49
0.25
 74
     0
 49
-0.25
 74
     0
  0
ENDTAB
  0
TABLE
  2
LAYER
  5
2
330
0
100
AcDbSymbolTable
 70
   248
  0
LAYER
  5
10
330
2
100
AcDbSymbolTableRecord
100
AcDbLayerTableRecord
  2
0
 70
     0
 62
     7
  6
Continuous
370
    35
390
F
  0
LAYER
  5
58
330
2
100
AcDbSymbolTableRecord
100
AcDbLayerTableRecord
  2
TEXT
 70
     0
 62
     7
  6
Continuous
370
    35
390
F
  0
LAYER
  5
59
330
2
100
AcDbSymbolTableRecord
100
AcDbLayerTableRecord
  2
2 Drafting Aux Lines
 70
     0
 62
     7
  6
Continuous
370
    35
390
F
  0
LAYER
  5
5A
330
2
100
AcDbSymbolTableRecord
100
AcDbLayerTableRecord
  2
3 Texts
 70
     0
 62
     7
  6
Continuous
370
    35
390
F
  0
LAYER
  5
5B
330
2
100
AcDbSymbolTableRecord
100
AcDbLayerTableRecord
  2
4 Dimensions
 70
     0
 62
     7
  6
Continuous
370
    35
390
F
  0
LAYER
  5
5C
330
2
100
AcDbSymbolTableRecord
100
AcDbLayerTableRecord
  2
5 Hatches
 70
     0
 62
     7
  6
Continuous
370
    35
390
F
  0
LAYER
  5
5D
330
2
100
AcDbSymbolTableRecord
100
AcDbLayerTableRecord
  2
6 Drawing Origin Marker
 70
     0
 62
     7
  6
Continuous
370
    35
390
F
  0
LAYER
  5
5E
330
2
100
AcDbSymbolTableRecord
100
AcDbLayerTableRecord
  2
7 Sheet
 70
     0
 62
     7
  6
Continuous
370
    35
390
F
  0
LAYER
  5
5F
330
2
100
AcDbSymbolTableRecord
100
AcDbLayerTableRecord
  2
8 Other
 70
     0
 62
     7
  6
Continuous
370
    35
390
F
  0
LAYER
  5
60
330
2
100
AcDbSymbolTableRecord
100
AcDbLayerTableRecord
  2
9 Never-Hiding Lines
 70
     0
 62
     7
  6
Continuous
370
    35
390
F
  0
LAYER
  5
61
330
2
100
AcDbSymbolTableRecord
100
AcDbLayerTableRecord
  2
10 Raster Images
 70
     0
 62
     7
  6
Continuous
370
    35
390
F
  0
LAYER
  5
62
330
2
100
AcDbSymbolTableRecord
100
AcDbLayerTableRecord
  2
11 Wall Rough Frame
 70
     0
 62
     7
  6
Continuous
370
    35
390
F
  0
LAYER
  5
63
330
2
100
AcDbSymbolTableRecord
100
AcDbLayerTableRecord
  2
12 Wall Ext Surface
 70
     0
 62
     7
  6
Continuous
370
    35
390
F
  0
LAYER
  5
64
330
2
100
AcDbSymbolTableRecord
100
AcDbLayerTableRecord
  2
13 Wall Int Surface
 70
     0
 62
     7
  6
Continuous
370
    35
390
F
  0
LAYER
  5
65
330
2
100
AcDbSymbolTableRecord
100
AcDbLayerTableRecord
  2
14 Wall Other Lines
 70
     0
 62
     7
  6
Continuous
370
    35
390
F
  0
LAYER
  5
66
330
2
100
AcDbSymbolTableRecord
100
AcDbLayerTableRecord
  2
16 Wall Insulation
 70
     0
 62
     7
  6
Continuous
370
    35
390
F
  0
LAYER
  5
67
330
2
100
AcDbSymbolTableRecord
100
AcDbLayerTableRecord
  2
17 Wall Framing Lines
 70
     0
 62
     7
  6
Continuous
370
    35
390
F
  0
LAYER
  5
68
330
2
100
AcDbSymbolTableRecord
100
AcDbLayerTableRecord
  2
18 Wall Bottom Plate
 70
     0
 62
    -7
  6
Continuous
370
    35
390
F
  0
LAYER
  5
69
330
2
100
AcDbSymbolTableRecord
100
AcDbLayerTableRecord
  2
19 Wall Hatch Patterns
 70
     0
 62
     7
  6
Continuous
370
    35
390
F
  0
LAYER
  5
6A
330
2
100
AcDbSymbolTableRecord
100
AcDbLayerTableRecord
  2
20 Wall_ Space Divider
 70
     0
 62
     7
  6
Continuous
370
    35
390
F
  0
LAYER
  5
6B
330
2
100
AcDbSymbolTableRecord
100
AcDbLayerTableRecord
  2
21 Foundation
 70
     0
 62
     7
  6
Continuous
370
    35
390
F
  0
LAYER
  5
6C
330
2
100
AcDbSymbolTableRecord
100
AcDbLayerTableRecord
  2
22 Fill (Color)
 70
     0
 62
     7
  6
Continuous
370
    35
390
F
  0
LAYER
  5
6D
330
2
100
AcDbSymbolTableRecord
100
AcDbLayerTableRecord
  2
23 Foundation Hatch
 70
     0
 62
     7
  6
Continuous
370
    35
390
F
  0
LAYER
  5
6E
330
2
100
AcDbSymbolTableRecord
100
AcDbLayerTableRecord
  2
24 Module lines (grid)
 70
     0
 62
     7
  6
Continuous
370
    35
390
F
  0
LAYER
  5
6F
330
2
100
AcDbSymbolTableRecord
100
AcDbLayerTableRecord
  2
25 Opening Labels
 70
     0
 62
     7
  6
Continuous
370
    35
390
F
  0
LAYER
  5
70
330
2
100
AcDbSymbolTableRecord
100
AcDbLayerTableRecord
  2
26 Openings Windows
 70
     0
 62
     7
  6
Continuous
370
    35
390
F
  0
LAYER
  5
71
330
2
100
AcDbSymbolTableRecord
100
AcDbLayerTableRecord
  2
27 Openings Doors
 70
     0
 62
     7
  6
Continuous
370
    35
390
F
  0
LAYER
  5
72
330
2
100
AcDbSymbolTableRecord
100
AcDbLayerTableRecord
  2
28 Openings Other
 70
     0
 62
     7
  6
Continuous
370
    35
390
F
  0
LAYER
  5
73
330
2
100
AcDbSymbolTableRecord
100
AcDbLayerTableRecord
  2
31 Wall Color Fill
 70
     0
 62
     7
  6
Continuous
370
    35
390
F
  0
LAYER
  5
74
330
2
100
AcDbSymbolTableRecord
100
AcDbLayerTableRecord
  2
32 Wall Center Line
 70
     0
 62
    -7
  6
Continuous
370
    35
390
F
  0
LAYER
  5
75
330
2
100
AcDbSymbolTableRecord
100
AcDbLayerTableRecord
  2
33 Opening Sheet Labels
 70
     0
 62
    -7
  6
Continuous
370
    35
390
F
  0
LAYER
  5
76
330
2
100
AcDbSymbolTableRecord
100
AcDbLayerTableRecord
  2
34 Outdoor Components
 70
     0
 62
     7
  6
Continuous
370
    35
390
F
  0
LAYER
  5
77
330
2
100
AcDbSymbolTableRecord
100
AcDbLayerTableRecord
  2
35 Lawn Furniture
 70
     0
 62
     7
  6
Continuous
370
    35
390
F
  0
LAYER
  5
78
330
2
100
AcDbSymbolTableRecord
100
AcDbLayerTableRecord
  2
36 Furniture
 70
     0
 62
     7
  6
Continuous
370
    35
390
F
  0
LAYER
  5
79
330
2
100
AcDbSymbolTableRecord
100
AcDbLayerTableRecord
  2
37 Extra Materials
 70
     0
 62
     7
  6
Continuous
370
    35
390
F
  0
LAYER
  5
7A
330
2
100
AcDbSymbolTableRecord
100
AcDbLayerTableRecord
  2
38 Furniture markings
 70
     0
 62
    -7
  6
Continuous
370
    35
390
F
  0
LAYER
  5
7B
330
2
100
AcDbSymbolTableRecord
100
AcDbLayerTableRecord
  2
39 Furniture labels
 70
     0
 62
    -7
  6
Continuous
370
    35
390
F
  0
LAYER
  5
7C
330
2
100
AcDbSymbolTableRecord
100
AcDbLayerTableRecord
  2
40 Floor Shape Lines
 70
     0
 62
     7
  6
Continuous
370
    35
390
F
  0
LAYER
  5
7D
330
2
100
AcDbSymbolTableRecord
100
AcDbLayerTableRecord
  2
41 Surface Hatch
 70
     0
 62
     7
  6
Continuous
370
    35
390
F
  0
LAYER
  5
7E
330
2
100
AcDbSymbolTableRecord
100
AcDbLayerTableRecord
  2
42 Framing Pieces
 70
     0
 62
     7
  6
Continuous
370
    35
390
F
  0
LAYER
  5
7F
330
2
100
AcDbSymbolTableRecord
100
AcDbLayerTableRecord
  2
43 Piece Labels
 70
     0
 62
     7
  6
Continuous
370
    35
390
F
  0
LAYER
  5
80
330
2
100
AcDbSymbolTableRecord
100
AcDbLayerTableRecord
  2
44 Piece Schedules
 70
     0
 62
     7
  6
Continuous
370
    35
390
F
  0
LAYER
  5
81
330
2
100
AcDbSymbolTableRecord
100
AcDbLayerTableRecord
  2
45 Pan.Layout Center Lns
 70
     0
 62
     7
  6
Continuous
370
    35
390
F
  0
LAYER
  5
82
330
2
100
AcDbSymbolTableRecord
100
AcDbLayerTableRecord
  2
46 2nd Pan.CL
 70
     0
 62
     7
  6
Continuous
370
    35
390
F
  0
LAYER
  5
83
330
2
100
AcDbSymbolTableRecord
100
AcDbLayerTableRecord
  2
47 Outlines
 70
     0
 62
     7
  6
Continuous
370
    35
390
F
  0
LAYER
  5
84
330
2
100
AcDbSymbolTableRecord
100
AcDbLayerTableRecord
  2
48 Labels
 70
     0
 62
     7
  6
Continuous
370
    35
390
F
  0
LAYER
  5
85
330
2
100
AcDbSymbolTableRecord
100
AcDbLayerTableRecord
  2
49 Assembly
 70
     0
 62
     7
  6
Continuous
370
    35
390
F
  0
LAYER
  5
86
330
2
100
AcDbSymbolTableRecord
100
AcDbLayerTableRecord
  2
50 Ceiling Shape Lines
 70
     0
 62
     7
  6
Continuous
370
    35
390
F
  0
LAYER
  5
87
330
2
100
AcDbSymbolTableRecord
100
AcDbLayerTableRecord
  2
51 Surface Hatch
 70
     0
 62
     7
  6
Continuous
370
    35
390
F
  0
LAYER
  5
88
330
2
100
AcDbSymbolTableRecord
100
AcDbLayerTableRecord
  2
52 Framing Pieces
 70
     0
 62
     7
  6
Continuous
370
    35
390
F
  0
LAYER
  5
89
330
2
100
AcDbSymbolTableRecord
100
AcDbLayerTableRecord
  2
53 Piece Labels
 70
     0
 62
     7
  6
Continuous
370
    35
390
F
  0
LAYER
  5
8A
330
2
100
AcDbSymbolTableRecord
100
AcDbLayerTableRecord
  2
54 Structural Design Labels
 70
     0
 62
    -7
  6
Continuous
370
    35
390
F
  0
LAYER
  5
8B
330
2
100
AcDbSymbolTableRecord
100
AcDbLayerTableRecord
  2
55 Room Labels
 70
     0
 62
     7
  6
Continuous
370
    35
390
F
  0
LAYER
  5
8C
330
2
100
AcDbSymbolTableRecord
100
AcDbLayerTableRecord
  2
56 Room Hatch
 70
     0
 62
     7
  6
Continuous
370
    35
390
F
  0
LAYER
  5
8D
330
2
100
AcDbSymbolTableRecord
100
AcDbLayerTableRecord
  2
57 Floor Area
 70
     0
 62
     7
  6
Continuous
370
    35
390
F
  0
LAYER
  5
8E
330
2
100
AcDbSymbolTableRecord
100
AcDbLayerTableRecord
  2
58 Total Floor Area
 70
     0
 62
     7
  6
Continuous
370
    35
390
F
  0
LAYER
  5
8F
330
2
100
AcDbSymbolTableRecord
100
AcDbLayerTableRecord
  2
59
 70
     0
 62
    -7
  6
Continuous
370
    35
390
F
  0
LAYER
  5
90
330
2
100
AcDbSymbolTableRecord
100
AcDbLayerTableRecord
  2
60 Electrical Symbols
 70
     0
 62
     7
  6
Continuous
370
    35
390
F
  0
LAYER
  5
91
330
2
100
AcDbSymbolTableRecord
100
AcDbLayerTableRecord
  2
61 Cables
 70
     0
 62
     7
  6
Continuous
370
    35
390
F
  0
LAYER
  5
92
330
2
100
AcDbSymbolTableRecord
100
AcDbLayerTableRecord
  2
62 Legend
 70
     0
 62
     7
  6
Continuous
370
    35
390
F
  0
LAYER
  5
93
330
2
100
AcDbSymbolTableRecord
100
AcDbLayerTableRecord
  2
63 Text & Dimensions
 70
     0
 62
     7
  6
Continuous
370
    35
390
F
  0
LAYER
  5
94
330
2
100
AcDbSymbolTableRecord
100
AcDbLayerTableRecord
  2
64 Ceiling Lights
 70
     0
 62
     7
  6
Continuous
370
    35
390
F
  0
LAYER
  5
95
330
2
100
AcDbSymbolTableRecord
100
AcDbLayerTableRecord
  2
65 HVAC Symbols
 70
     0
 62
     7
  6
Continuous
370
    35
390
F
  0
LAYER
  5
96
330
2
100
AcDbSymbolTableRecord
100
AcDbLayerTableRecord
  2
66 Piping
 70
     0
 62
     7
  6
Continuous
370
    35
390
F
  0
LAYER
  5
97
330
2
100
AcDbSymbolTableRecord
100
AcDbLayerTableRecord
  2
67 Legend
 70
     0
 62
     7
  6
Continuous
370
    35
390
F
  0
LAYER
  5
98
330
2
100
AcDbSymbolTableRecord
100
AcDbLayerTableRecord
  2
68 Text & Dimensions
 70
     0
 62
     7
  6
Continuous
370
    35
390
F
  0
LAYER
  5
99
330
2
100
AcDbSymbolTableRecord
100
AcDbLayerTableRecord
  2
69 HVAC fittings and furnitures
 70
     0
 62
    -7
  6
Continuous
370
    35
390
F
  0
LAYER
  5
9A
330
2
100
AcDbSymbolTableRecord
100
AcDbLayerTableRecord
  2
70 Plumbing Symbols
 70
     0
 62
     7
  6
Continuous
370
    35
390
F
  0
LAYER
  5
9B
330
2
100
AcDbSymbolTableRecord
100
AcDbLayerTableRecord
  2
71 Piping
 70
     0
 62
     7
  6
Continuous
370
    35
390
F
  0
LAYER
  5
9C
330
2
100
AcDbSymbolTableRecord
100
AcDbLayerTableRecord
  2
72 Legend
 70
     0
 62
     7
  6
Continuous
370
    35
390
F
  0
LAYER
  5
9D
330
2
100
AcDbSymbolTableRecord
100
AcDbLayerTableRecord
  2
73 Text & Dimensions
 70
     0
 62
     7
  6
Continuous
370
    35
390
F
  0
LAYER
  5
9E
330
2
100
AcDbSymbolTableRecord
100
AcDbLayerTableRecord
  2
74
 70
     0
 62
    -7
  6
Continuous
370
    35
390
F
  0
LAYER
  5
9F
330
2
100
AcDbSymbolTableRecord
100
AcDbLayerTableRecord
  2
75 Appliances
 70
     0
 62
     7
  6
Continuous
370
    35
390
F
  0
LAYER
  5
A0
330
2
100
AcDbSymbolTableRecord
100
AcDbLayerTableRecord
  2
76 Cabinets & Vanities
 70
     0
 62
     7
  6
Continuous
370
    35
390
F
  0
LAYER
  5
A1
330
2
100
AcDbSymbolTableRecord
100
AcDbLayerTableRecord
  2
77 Texts
 70
     0
 62
     7
  6
Continuous
370
    35
390
F
  0
LAYER
  5
A2
330
2
100
AcDbSymbolTableRecord
100
AcDbLayerTableRecord
  2
78 Dimensions
 70
     0
 62
     7
  6
Continuous
370
    35
390
F
  0
LAYER
  5
A3
330
2
100
AcDbSymbolTableRecord
100
AcDbLayerTableRecord
  2
79 Hardware
 70
     0
 62
     7
  6
Continuous
370
    35
390
F
  0
LAYER
  5
A4
330
2
100
AcDbSymbolTableRecord
100
AcDbLayerTableRecord
  2
80 Countertop
 70
     0
 62
     7
  6
Continuous
370
    35
390
F
  0
LAYER
  5
A5
330
2
100
AcDbSymbolTableRecord
100
AcDbLayerTableRecord
  2
81 Countertop Hatch
 70
     0
 62
    -7
  6
Continuous
370
    35
390
F
  0
LAYER
  5
A6
330
2
100
AcDbSymbolTableRecord
100
AcDbLayerTableRecord
  2
82 Stairs
 70
     0
 62
     7
  6
Continuous
370
    35
390
F
  0
LAYER
  5
A7
330
2
100
AcDbSymbolTableRecord
100
AcDbLayerTableRecord
  2
83 Railings
 70
     0
 62
     7
  6
Continuous
370
    35
390
F
  0
LAYER
  5
A8
330
2
100
AcDbSymbolTableRecord
100
AcDbLayerTableRecord
  2
84 Fireplaces
 70
     0
 62
     7
  6
Continuous
370
    35
390
F
  0
LAYER
  5
A9
330
2
100
AcDbSymbolTableRecord
100
AcDbLayerTableRecord
  2
85 Bulkheads
 70
     0
 62
     7
  6
Continuous
370
    35
390
F
  0
LAYER
  5
AA
330
2
100
AcDbSymbolTableRecord
100
AcDbLayerTableRecord
  2
86 Closet Shelving
 70
     0
 62
     7
  6
Continuous
370
    35
390
F
  0
LAYER
  5
AB
330
2
100
AcDbSymbolTableRecord
100
AcDbLayerTableRecord
  2
87 Chimneys
 70
     0
 62
     7
  6
Continuous
370
    35
390
F
  0
LAYER
  5
AC
330
2
100
AcDbSymbolTableRecord
100
AcDbLayerTableRecord
  2
88 Additional components_ decorations etc
 70
     0
 62
    -7
  6
Continuous
370
    35
390
F
  0
LAYER
  5
AD
330
2
100
AcDbSymbolTableRecord
100
AcDbLayerTableRecord
  2
89 Constr.Det.Macros
 70
     0
 62
    -7
  6
Continuous
370
    35
390
F
  0
LAYER
  5
AE
330
2
100
AcDbSymbolTableRecord
100
AcDbLayerTableRecord
  2
90 Section marks
 70
     0
 62
     7
  6
Continuous
370
    35
390
F
  0
LAYER
  5
AF
330
2
100
AcDbSymbolTableRecord
100
AcDbLayerTableRecord
  2
91 Profile Detailing
 70
     0
 62
     7
  6
Continuous
370
    35
390
F
  0
LAYER
  5
B0
330
2
100
AcDbSymbolTableRecord
100
AcDbLayerTableRecord
  2
92
 70
     0
 62
     7
  6
Continuous
370
    35
390
F
  0
LAYER
  5
B1
330
2
100
AcDbSymbolTableRecord
100
AcDbLayerTableRecord
  2
93 Dashing Ground Line
 70
     0
 62
     7
  6
Continuous
370
    35
390
F
  0
LAYER
  5
B2
330
2
100
AcDbSymbolTableRecord
100
AcDbLayerTableRecord
  2
94 Clipping Ground Line
 70
     0
 62
     7
  6
Continuous
370
    35
390
F
  0
LAYER
  5
B3
330
2
100
AcDbSymbolTableRecord
100
AcDbLayerTableRecord
  2
95 Shadows
 70
     0
 62
     7
  6
Continuous
370
    35
390
F
  0
LAYER
  5
B4
330
2
100
AcDbSymbolTableRecord
100
AcDbLayerTableRecord
  2
96 Elev. Color Fill
 70
     0
 62
     7
  6
Continuous
370
    35
390
F
  0
LAYER
  5
B5
330
2
100
AcDbSymbolTableRecord
100
AcDbLayerTableRecord
  2
97 Simplifying lines
 70
     0
 62
     7
  6
Continuous
370
    35
390
F
  0
LAYER
  5
B6
330
2
100
AcDbSymbolTableRecord
100
AcDbLayerTableRecord
  2
98 Floor Area Text
 70
     0
 62
    -7
  6
Continuous
370
    35
390
F
  0
LAYER
  5
B7
330
2
100
AcDbSymbolTableRecord
100
AcDbLayerTableRecord
  2
99
 70
     0
 62
    -7
  6
Continuous
370
    35
390
F
  0
LAYER
  5
B8
330
2
100
AcDbSymbolTableRecord
100
AcDbLayerTableRecord
  2
100
 70
     0
 62
    -7
  6
Continuous
370
    35
390
F
  0
LAYER
  5
B9
330
2
100
AcDbSymbolTableRecord
100
AcDbLayerTableRecord
  2
102
 70
     0
 62
    -7
  6
Continuous
370
    35
390
F
  0
LAYER
  5
BA
330
2
100
AcDbSymbolTableRecord
100
AcDbLayerTableRecord
  2
103 Roof Shape Lines
 70
     0
 62
     7
  6
Continuous
370
    35
390
F
  0
LAYER
  5
BB
330
2
100
AcDbSymbolTableRecord
100
AcDbLayerTableRecord
  2
104 Wall Hatch Patterns
 70
     0
 62
     7
  6
Continuous
370
    35
390
F
  0
LAYER
  5
BC
330
2
100
AcDbSymbolTableRecord
100
AcDbLayerTableRecord
  2
105 Framing Pieces
 70
     0
 62
     7
  6
Continuous
370
    35
390
F
  0
LAYER
  5
BD
330
2
100
AcDbSymbolTableRecord
100
AcDbLayerTableRecord
  2
106 Piece Labels
 70
     0
 62
     7
  6
Continuous
370
    35
390
F
  0
LAYER
  5
BE
330
2
100
AcDbSymbolTableRecord
100
AcDbLayerTableRecord
  2
107 Grilles
 70
     0
 62
     7
  6
Continuous
370
    35
390
F
  0
LAYER
  5
BF
330
2
100
AcDbSymbolTableRecord
100
AcDbLayerTableRecord
  2
108 Eave Lines
 70
     0
 62
     7
  6
Continuous
370
    35
390
F
  0
LAYER
  5
C0
330
2
100
AcDbSymbolTableRecord
100
AcDbLayerTableRecord
  2
109 Soffits
 70
     0
 62
     7
  6
Continuous
370
    35
390
F
  0
LAYER
  5
C1
330
2
100
AcDbSymbolTableRecord
100
AcDbLayerTableRecord
  2
110 Window_Door Trim
 70
     0
 62
     7
  6
Continuous
370
    35
390
F
  0
LAYER
  5
C2
330
2
100
AcDbSymbolTableRecord
100
AcDbLayerTableRecord
  2
111 Window Grilles
 70
     0
 62
    -7
  6
Continuous
370
    35
390
F
  0
LAYER
  5
C3
330
2
100
AcDbSymbolTableRecord
100
AcDbLayerTableRecord
  2
112 Window Shutters
 70
     0
 62
     7
  6
Continuous
370
    35
390
F
  0
LAYER
  5
C4
330
2
100
AcDbSymbolTableRecord
100
AcDbLayerTableRecord
  2
113 Corner Trim
 70
     0
 62
     7
  6
Continuous
370
    35
390
F
  0
LAYER
  5
C5
330
2
100
AcDbSymbolTableRecord
100
AcDbLayerTableRecord
  2
114 Louver Vents
 70
     0
 62
     7
  6
Continuous
370
    35
390
F
  0
LAYER
  5
C6
330
2
100
AcDbSymbolTableRecord
100
AcDbLayerTableRecord
  2
115 Edge Line of 2D-Based Opening Trim
 70
     0
 62
     7
  6
Continuous
370
    35
390
F
  0
LAYER
  5
C7
330
2
100
AcDbSymbolTableRecord
100
AcDbLayerTableRecord
  2
116 Hole Line of 2D-Based Opening Trim
 70
     0
 62
     7
  6
Continuous
370
    35
390
F
  0
LAYER
  5
C8
330
2
100
AcDbSymbolTableRecord
100
AcDbLayerTableRecord
  2
117 Roof Accessories
 70
     0
 62
    -7
  6
Continuous
370
    35
390
F
  0
LAYER
  5
C9
330
2
100
AcDbSymbolTableRecord
100
AcDbLayerTableRecord
  2
118
 70
     0
 62
    -7
  6
Continuous
370
    35
390
F
  0
LAYER
  5
CA
330
2
100
AcDbSymbolTableRecord
100
AcDbLayerTableRecord
  2
119
 70
     0
 62
    -7
  6
Continuous
370
    35
390
F
  0
LAYER
  5
CB
330
2
100
AcDbSymbolTableRecord
100
AcDbLayerTableRecord
  2
120
 70
     0
 62
    -7
  6
Continuous
370
    35
390
F
  0
LAYER
  5
CC
330
2
100
AcDbSymbolTableRecord
100
AcDbLayerTableRecord
  2
121 Beam Pocket Symbols
 70
     0
 62
     7
  6
Continuous
370
    35
390
F
  0
LAYER
  5
CD
330
2
100
AcDbSymbolTableRecord
100
AcDbLayerTableRecord
  2
122 Beam Lines & Labels
 70
     0
 62
     7
  6
Continuous
370
    35
390
F
  0
LAYER
  5
CE
330
2
100
AcDbSymbolTableRecord
100
AcDbLayerTableRecord
  2
123 Column Sym & Labels
 70
     0
 62
     7
  6
Continuous
370
    35
390
F
  0
LAYER
  5
CF
330
2
100
AcDbSymbolTableRecord
100
AcDbLayerTableRecord
  2
124 Beam Center Lines
 70
     0
 62
     7
  6
Continuous
370
    35
390
F
  0
LAYER
  5
D0
330
2
100
AcDbSymbolTableRecord
100
AcDbLayerTableRecord
  2
125 Form Text
 70
     0
 62
     7
  6
Continuous
370
    35
390
F
  0
LAYER
  5
D1
330
2
100
AcDbSymbolTableRecord
100
AcDbLayerTableRecord
  2
126 Form Outer
 70
     0
 62
     7
  6
Continuous
370
    35
390
F
  0
LAYER
  5
D2
330
2
100
AcDbSymbolTableRecord
100
AcDbLayerTableRecord
  2
127 Form Inner
 70
     0
 62
     7
  6
Continuous
370
    35
390
F
  0
LAYER
  5
D3
330
2
100
AcDbSymbolTableRecord
100
AcDbLayerTableRecord
  2
128 Form Name
 70
     0
 62
     7
  6
Continuous
370
    35
390
F
  0
LAYER
  5
D4
330
2
100
AcDbSymbolTableRecord
100
AcDbLayerTableRecord
  2
129
 70
     0
 62
    -7
  6
Continuous
370
    35
390
F
  0
LAYER
  5
D5
330
2
100
AcDbSymbolTableRecord
100
AcDbLayerTableRecord
  2
130
 70
     0
 62
    -7
  6
Continuous
370
    35
390
F
  0
LAYER
  5
D6
330
2
100
AcDbSymbolTableRecord
100
AcDbLayerTableRecord
  2
131 Translation Spanish
 70
     0
 62
    -7
  6
Continuous
370
    35
390
F
  0
LAYER
  5
D7
330
2
100
AcDbSymbolTableRecord
100
AcDbLayerTableRecord
  2
132 Translation French
 70
     0
 62
    -7
  6
Continuous
370
    35
390
F
  0
LAYER
  5
D8
330
2
100
AcDbSymbolTableRecord
100
AcDbLayerTableRecord
  2
133 Translation German
 70
     0
 62
    -7
  6
Continuous
370
    35
390
F
  0
LAYER
  5
D9
330
2
100
AcDbSymbolTableRecord
100
AcDbLayerTableRecord
  2
134 Translation Finnish
 70
     0
 62
    -7
  6
Continuous
370
    35
390
F
  0
LAYER
  5
DA
330
2
100
AcDbSymbolTableRecord
100
AcDbLayerTableRecord
  2
135
 70
     0
 62
    -7
  6
Continuous
370
    35
390
F
  0
LAYER
  5
DB
330
2
100
AcDbSymbolTableRecord
100
AcDbLayerTableRecord
  2
136
 70
     0
 62
    -7
  6
Continuous
370
    35
390
F
  0
LAYER
  5
DC
330
2
100
AcDbSymbolTableRecord
100
AcDbLayerTableRecord
  2
137
 70
     0
 62
    -7
  6
Continuous
370
    35
390
F
  0
LAYER
  5
DD
330
2
100
AcDbSymbolTableRecord
100
AcDbLayerTableRecord
  2
138
 70
     0
 62
    -7
  6
Continuous
370
    35
390
F
  0
LAYER
  5
DE
330
2
100
AcDbSymbolTableRecord
100
AcDbLayerTableRecord
  2
139
 70
     0
 62
    -7
  6
Continuous
370
    35
390
F
  0
LAYER
  5
DF
330
2
100
AcDbSymbolTableRecord
100
AcDbLayerTableRecord
  2
140 Sheet Area Line
 70
     0
 62
     7
  6
Continuous
370
    35
390
F
  0
LAYER
  5
E0
330
2
100
AcDbSymbolTableRecord
100
AcDbLayerTableRecord
  2
141 Sheet Label
 70
     0
 62
     7
  6
Continuous
370
    35
390
F
  0
LAYER
  5
E1
330
2
100
AcDbSymbolTableRecord
100
AcDbLayerTableRecord
  2
142 Sheet Schedule
 70
     0
 62
     7
  6
Continuous
370
    35
390
F
  0
LAYER
  5
E2
330
2
100
AcDbSymbolTableRecord
100
AcDbLayerTableRecord
  2
143
 70
     0
 62
    -7
  6
Continuous
370
    35
390
F
  0
LAYER
  5
E3
330
2
100
AcDbSymbolTableRecord
100
AcDbLayerTableRecord
  2
144
 70
     0
 62
    -7
  6
Continuous
370
    35
390
F
  0
LAYER
  5
E4
330
2
100
AcDbSymbolTableRecord
100
AcDbLayerTableRecord
  2
145
 70
     0
 62
    -7
  6
Continuous
370
    35
390
F
  0
LAYER
  5
E5
330
2
100
AcDbSymbolTableRecord
100
AcDbLayerTableRecord
  2
146
 70
     0
 62
    -7
  6
Continuous
370
    35
390
F
  0
LAYER
  5
E6
330
2
100
AcDbSymbolTableRecord
100
AcDbLayerTableRecord
  2
147
 70
     0
 62
    -7
  6
Continuous
370
    35
390
F
  0
LAYER
  5
E7
330
2
100
AcDbSymbolTableRecord
100
AcDbLayerTableRecord
  2
148
 70
     0
 62
    -7
  6
Continuous
370
    35
390
F
  0
LAYER
  5
E8
330
2
100
AcDbSymbolTableRecord
100
AcDbLayerTableRecord
  2
149
 70
     0
 62
    -7
  6
Continuous
370
    35
390
F
  0
LAYER
  5
E9
330
2
100
AcDbSymbolTableRecord
100
AcDbLayerTableRecord
  2
150 1st Stud Locations
 70
     0
 62
     7
  6
Continuous
370
    35
390
F
  0
LAYER
  5
EA
330
2
100
AcDbSymbolTableRecord
100
AcDbLayerTableRecord
  2
151 Wall Framing Pieces
 70
     0
 62
     7
  6
Continuous
370
    35
390
F
  0
LAYER
  5
EB
330
2
100
AcDbSymbolTableRecord
100
AcDbLayerTableRecord
  2
152 Wall Framing Pieces_Hidden
 70
     0
 62
     7
  6
Continuous
370
    35
390
F
  0
LAYER
  5
EC
330
2
100
AcDbSymbolTableRecord
100
AcDbLayerTableRecord
  2
153 Siding Boards
 70
     0
 62
    -7
  6
Continuous
370
    35
390
F
  0
LAYER
  5
ED
330
2
100
AcDbSymbolTableRecord
100
AcDbLayerTableRecord
  2
154 Openings
 70
     0
 62
     7
  6
Continuous
370
    35
390
F
  0
LAYER
  5
EE
330
2
100
AcDbSymbolTableRecord
100
AcDbLayerTableRecord
  2
155 Internal Sheathing
 70
     0
 62
     7
  6
Continuous
370
    35
390
F
  0
LAYER
  5
EF
330
2
100
AcDbSymbolTableRecord
100
AcDbLayerTableRecord
  2
156 External Sheathing
 70
     0
 62
     7
  6
Continuous
370
    35
390
F
  0
LAYER
  5
F0
330
2
100
AcDbSymbolTableRecord
100
AcDbLayerTableRecord
  2
157 Internal Sec. Sheat.
 70
     0
 62
    -7
  6
Continuous
370
    35
390
F
  0
LAYER
  5
F1
330
2
100
AcDbSymbolTableRecord
100
AcDbLayerTableRecord
  2
158 External Sec. Sheat.
 70
     0
 62
    -7
  6
Continuous
370
    35
390
F
  0
LAYER
  5
F2
330
2
100
AcDbSymbolTableRecord
100
AcDbLayerTableRecord
  2
159 Insulation
 70
     0
 62
     7
  6
Continuous
370
    35
390
F
  0
LAYER
  5
F3
330
2
100
AcDbSymbolTableRecord
100
AcDbLayerTableRecord
  2
160 Loads
 70
     0
 62
     7
  6
Continuous
370
    35
390
F
  0
LAYER
  5
F4
330
2
100
AcDbSymbolTableRecord
100
AcDbLayerTableRecord
  2
161 Loads
 70
     0
 62
     7
  6
Continuous
370
    35
390
F
  0
LAYER
  5
F5
330
2
100
AcDbSymbolTableRecord
100
AcDbLayerTableRecord
  2
162 Dimensions
 70
     0
 62
     7
  6
Continuous
370
    35
390
F
  0
LAYER
  5
F6
330
2
100
AcDbSymbolTableRecord
100
AcDbLayerTableRecord
  2
163 Backer_
 70
     0
 62
    -7
  6
Continuous
370
    35
390
F
  0
LAYER
  5
F7
330
2
100
AcDbSymbolTableRecord
100
AcDbLayerTableRecord
  2
164 Panel Elev._Electr.
 70
     0
 62
    -7
  6
Continuous
370
    35
390
F
  0
LAYER
  5
F8
330
2
100
AcDbSymbolTableRecord
100
AcDbLayerTableRecord
  2
165 Panel Elev._Electr.
 70
     0
 62
    -7
  6
Continuous
370
    35
390
F
  0
LAYER
  5
F9
330
2
100
AcDbSymbolTableRecord
100
AcDbLayerTableRecord
  2
166 Panel Elev._Plmbng
 70
     0
 62
    -7
  6
Continuous
370
    35
390
F
  0
LAYER
  5
FA
330
2
100
AcDbSymbolTableRecord
100
AcDbLayerTableRecord
  2
167 Panel Elev._Plmbng
 70
     0
 62
     7
  6
Continuous
370
    35
390
F
  0
LAYER
  5
FB
330
2
100
AcDbSymbolTableRecord
100
AcDbLayerTableRecord
  2
168 Panel Layout_Backer
 70
     0
 62
     7
  6
Continuous
370
    35
390
F
  0
LAYER
  5
FC
330
2
100
AcDbSymbolTableRecord
100
AcDbLayerTableRecord
  2
169 Studs_ Bearing Walls
 70
     0
 62
     7
  6
Continuous
370
    35
390
F
  0
LAYER
  5
FD
330
2
100
AcDbSymbolTableRecord
100
AcDbLayerTableRecord
  2
170 Elems in Floor Plan
 70
     0
 62
     7
  6
Continuous
370
    35
390
F
  0
LAYER
  5
FE
330
2
100
AcDbSymbolTableRecord
100
AcDbLayerTableRecord
  2
171 Check elem geometry
 70
     0
 62
    -7
  6
Continuous
370
    35
390
F
  0
LAYER
  5
FF
330
2
100
AcDbSymbolTableRecord
100
AcDbLayerTableRecord
  2
172 Studs_ Non-Brg Walls
 70
     0
 62
     7
  6
Continuous
370
    35
390
F
  0
LAYER
  5
100
330
2
100
AcDbSymbolTableRecord
100
AcDbLayerTableRecord
  2
173 Panel Pce Label in FP
 70
     0
 62
     7
  6
Continuous
370
    35
390
F
  0
LAYER
  5
101
330
2
100
AcDbSymbolTableRecord
100
AcDbLayerTableRecord
  2
174
 70
     0
 62
    -7
  6
Continuous
370
    35
390
F
  0
LAYER
  5
102
330
2
100
AcDbSymbolTableRecord
100
AcDbLayerTableRecord
  2
175 Profile Color Fills
 70
     0
 62
     7
  6
Continuous
370
    35
390
F
  0
LAYER
  5
103
330
2
100
AcDbSymbolTableRecord
100
AcDbLayerTableRecord
  2
176
 70
     0
 62
    -7
  6
Continuous
370
    35
390
F
  0
LAYER
  5
104
330
2
100
AcDbSymbolTableRecord
100
AcDbLayerTableRecord
  2
177 Bottom Plate in Floor Plan
 70
     0
 62
     7
  6
Continuous
370
    35
390
F
  0
LAYER
  5
105
330
2
100
AcDbSymbolTableRecord
100
AcDbLayerTableRecord
  2
178 Top Plate in Floor Plan
 70
     0
 62
     7
  6
Continuous
370
    35
390
F
  0
LAYER
  5
106
330
2
100
AcDbSymbolTableRecord
100
AcDbLayerTableRecord
  2
179
 70
     0
 62
    -7
  6
Continuous
370
    35
390
F
  0
LAYER
  5
107
330
2
100
AcDbSymbolTableRecord
100
AcDbLayerTableRecord
  2
180 Int NB Brick Wall
 70
     0
 62
     7
  6
Continuous
370
    35
390
F
  0
LAYER
  5
108
330
2
100
AcDbSymbolTableRecord
100
AcDbLayerTableRecord
  2
181 Int NB Brick Wall Hatch
 70
     0
 62
     7
  6
Continuous
370
    35
390
F
  0
LAYER
  5
109
330
2
100
AcDbSymbolTableRecord
100
AcDbLayerTableRecord
  2
182 Int B Brick Wall
 70
     0
 62
    -7
  6
Continuous
370
    35
390
F
  0
LAYER
  5
10A
330
2
100
AcDbSymbolTableRecord
100
AcDbLayerTableRecord
  2
183 Int B Brick Wall Hatch
 70
     0
 62
    -7
  6
Continuous
370
    35
390
F
  0
LAYER
  5
10B
330
2
100
AcDbSymbolTableRecord
100
AcDbLayerTableRecord
  2
184
 70
     0
 62
    -7
  6
Continuous
370
    35
390
F
  0
LAYER
  5
10C
330
2
100
AcDbSymbolTableRecord
100
AcDbLayerTableRecord
  2
185 Int B Wall Rough Frame
 70
     0
 62
     7
  6
Continuous
370
    35
390
F
  0
LAYER
  5
10D
330
2
100
AcDbSymbolTableRecord
100
AcDbLayerTableRecord
  2
186 Int B Wall Surfaces
 70
     0
 62
     7
  6
Continuous
370
    35
390
F
  0
LAYER
  5
10E
330
2
100
AcDbSymbolTableRecord
100
AcDbLayerTableRecord
  2
187 Int B Wall Other Lines
 70
     0
 62
     7
  6
Continuous
370
    35
390
F
  0
LAYER
  5
10F
330
2
100
AcDbSymbolTableRecord
100
AcDbLayerTableRecord
  2
188 Int B Wall Insulation
 70
     0
 62
     7
  6
Continuous
370
    35
390
F
  0
LAYER
  5
110
330
2
100
AcDbSymbolTableRecord
100
AcDbLayerTableRecord
  2
189 Int B Wall Bottom Plat
 70
     0
 62
    -7
  6
Continuous
370
    35
390
F
  0
LAYER
  5
111
330
2
100
AcDbSymbolTableRecord
100
AcDbLayerTableRecord
  2
190 Int B Wall Hatch Patte
 70
     0
 62
     7
  6
Continuous
370
    35
390
F
  0
LAYER
  5
112
330
2
100
AcDbSymbolTableRecord
100
AcDbLayerTableRecord
  2
191
 70
     0
 62
    -7
  6
Continuous
370
    35
390
F
  0
LAYER
  5
113
330
2
100
AcDbSymbolTableRecord
100
AcDbLayerTableRecord
  2
192
 70
     0
 62
    -7
  6
Continuous
370
    35
390
F
  0
LAYER
  5
114
330
2
100
AcDbSymbolTableRecord
100
AcDbLayerTableRecord
  2
193
 70
     0
 62
    -7
  6
Continuous
370
    35
390
F
  0
LAYER
  5
115
330
2
100
AcDbSymbolTableRecord
100
AcDbLayerTableRecord
  2
194
 70
     0
 62
    -7
  6
Continuous
370
    35
390
F
  0
LAYER
  5
116
330
2
100
AcDbSymbolTableRecord
100
AcDbLayerTableRecord
  2
195 Int NB Wall Rough Frame
 70
     0
 62
     7
  6
Continuous
370
    35
390
F
  0
LAYER
  5
117
330
2
100
AcDbSymbolTableRecord
100
AcDbLayerTableRecord
  2
196 Int NB Wall Surfaces
 70
     0
 62
     7
  6
Continuous
370
    35
390
F
  0
LAYER
  5
118
330
2
100
AcDbSymbolTableRecord
100
AcDbLayerTableRecord
  2
197 Int NB Wall Other Lines
 70
     0
 62
     7
  6
Continuous
370
    35
390
F
  0
LAYER
  5
119
330
2
100
AcDbSymbolTableRecord
100
AcDbLayerTableRecord
  2
198 Int NB Wall Insulation
 70
     0
 62
     7
  6
Continuous
370
    35
390
F
  0
LAYER
  5
11A
330
2
100
AcDbSymbolTableRecord
100
AcDbLayerTableRecord
  2
199 Int NB Wall Bottom Plat
 70
     0
 62
    -7
  6
Continuous
370
    35
390
F
  0
LAYER
  5
11B
330
2
100
AcDbSymbolTableRecord
100
AcDbLayerTableRecord
  2
200 Int NB Wall Hatch Patte
 70
     0
 62
     7
  6
Continuous
370
    35
390
F
  0
LAYER
  5
11C
330
2
100
AcDbSymbolTableRecord
100
AcDbLayerTableRecord
  2
201
 70
     0
 62
    -7
  6
Continuous
370
    35
390
F
  0
LAYER
  5
11D
330
2
100
AcDbSymbolTableRecord
100
AcDbLayerTableRecord
  2
202
 70
     0
 62
    -7
  6
Continuous
370
    35
390
F
  0
LAYER
  5
11E
330
2
100
AcDbSymbolTableRecord
100
AcDbLayerTableRecord
  2
203
 70
     0
 62
    -7
  6
Continuous
370
    35
390
F
  0
LAYER
  5
11F
330
2
100
AcDbSymbolTableRecord
100
AcDbLayerTableRecord
  2
205
 70
     0
 62
    -7
  6
Continuous
370
    35
390
F
  0
LAYER
  5
120
330
2
100
AcDbSymbolTableRecord
100
AcDbLayerTableRecord
  2
206
 70
     0
 62
    -7
  6
Continuous
370
    35
390
F
  0
LAYER
  5
121
330
2
100
AcDbSymbolTableRecord
100
AcDbLayerTableRecord
  2
207
 70
     0
 62
    -7
  6
Continuous
370
    35
390
F
  0
LAYER
  5
122
330
2
100
AcDbSymbolTableRecord
100
AcDbLayerTableRecord
  2
208
 70
     0
 62
    -7
  6
Continuous
370
    35
390
F
  0
LAYER
  5
123
330
2
100
AcDbSymbolTableRecord
100
AcDbLayerTableRecord
  2
210 Joist Hangers
 70
     0
 62
    -7
  6
Continuous
370
    35
390
F
  0
LAYER
  5
124
330
2
100
AcDbSymbolTableRecord
100
AcDbLayerTableRecord
  2
211 Hangers_ Schedule and labels
 70
     0
 62
    -7
  6
Continuous
370
    35
390
F
  0
LAYER
  5
125
330
2
100
AcDbSymbolTableRecord
100
AcDbLayerTableRecord
  2
212
 70
     0
 62
    -7
  6
Continuous
370
    35
390
F
  0
LAYER
  5
126
330
2
100
AcDbSymbolTableRecord
100
AcDbLayerTableRecord
  2
213
 70
     0
 62
    -7
  6
Continuous
370
    35
390
F
  0
LAYER
  5
127
330
2
100
AcDbSymbolTableRecord
100
AcDbLayerTableRecord
  2
214
 70
     0
 62
    -7
  6
Continuous
370
    35
390
F
  0
LAYER
  5
128
330
2
100
AcDbSymbolTableRecord
100
AcDbLayerTableRecord
  2
215 Special Opening Detail Labels
 70
     0
 62
    -7
  6
Continuous
370
    35
390
F
  0
LAYER
  5
129
330
2
100
AcDbSymbolTableRecord
100
AcDbLayerTableRecord
  2
216
 70
     0
 62
    -7
  6
Continuous
370
    35
390
F
  0
LAYER
  5
12A
330
2
100
AcDbSymbolTableRecord
100
AcDbLayerTableRecord
  2
217
 70
     0
 62
    -7
  6
Continuous
370
    35
390
F
  0
LAYER
  5
12B
330
2
100
AcDbSymbolTableRecord
100
AcDbLayerTableRecord
  2
219 Brochure Wall Fill
 70
     0
 62
    -7
  6
Continuous
370
    35
390
F
  0
LAYER
  5
12C
330
2
100
AcDbSymbolTableRecord
100
AcDbLayerTableRecord
  2
220 Framing Detail Symbols
 70
     0
 62
     7
  6
Continuous
370
    35
390
F
  0
LAYER
  5
12D
330
2
100
AcDbSymbolTableRecord
100
AcDbLayerTableRecord
  2
221 Hangers
 70
     0
 62
     7
  6
Continuous
370
    35
390
F
  0
LAYER
  5
12E
330
2
100
AcDbSymbolTableRecord
100
AcDbLayerTableRecord
  2
222 Connectors
 70
     0
 62
     7
  6
Continuous
370
    35
390
F
  0
LAYER
  5
12F
330
2
100
AcDbSymbolTableRecord
100
AcDbLayerTableRecord
  2
223 Fillers_ Stiffeners_ Backers and Blocks
 70
     0
 62
     7
  6
Continuous
370
    35
390
F
  0
LAYER
  5
130
330
2
100
AcDbSymbolTableRecord
100
AcDbLayerTableRecord
  2
224 Engineering Labels
 70
     0
 62
     7
  6
Continuous
370
    35
390
F
  0
LAYER
  5
131
330
2
100
AcDbSymbolTableRecord
100
AcDbLayerTableRecord
  2
225 Custom Layer
 70
     0
 62
    -7
  6
Continuous
370
    35
390
F
  0
LAYER
  5
132
330
2
100
AcDbSymbolTableRecord
100
AcDbLayerTableRecord
  2
226 Custom Layer
 70
     0
 62
    -7
  6
Continuous
370
    35
390
F
  0
LAYER
  5
133
330
2
100
AcDbSymbolTableRecord
100
AcDbLayerTableRecord
  2
227 Custom Layer
 70
     0
 62
    -7
  6
Continuous
370
    35
390
F
  0
LAYER
  5
134
330
2
100
AcDbSymbolTableRecord
100
AcDbLayerTableRecord
  2
228 Custom Layer
 70
     0
 62
    -7
  6
Continuous
370
    35
390
F
  0
LAYER
  5
135
330
2
100
AcDbSymbolTableRecord
100
AcDbLayerTableRecord
  2
229 Custom Layer
 70
     0
 62
    -7
  6
Continuous
370
    35
390
F
  0
LAYER
  5
136
330
2
100
AcDbSymbolTableRecord
100
AcDbLayerTableRecord
  2
230 Custom Layer
 70
     0
 62
    -7
  6
Continuous
370
    35
390
F
  0
LAYER
  5
137
330
2
100
AcDbSymbolTableRecord
100
AcDbLayerTableRecord
  2
231 Custom Layer
 70
     0
 62
    -7
  6
Continuous
370
    35
390
F
  0
LAYER
  5
138
330
2
100
AcDbSymbolTableRecord
100
AcDbLayerTableRecord
  2
232 Custom Layer
 70
     0
 62
    -7
  6
Continuous
370
    35
390
F
  0
LAYER
  5
139
330
2
100
AcDbSymbolTableRecord
100
AcDbLayerTableRecord
  2
233 Custom Layer
 70
     0
 62
    -7
  6
Continuous
370
    35
390
F
  0
LAYER
  5
13A
330
2
100
AcDbSymbolTableRecord
100
AcDbLayerTableRecord
  2
234 Custom Layer
 70
     0
 62
    -7
  6
Continuous
370
    35
390
F
  0
LAYER
  5
13B
330
2
100
AcDbSymbolTableRecord
100
AcDbLayerTableRecord
  2
235 Custom Layer
 70
     0
 62
    -7
  6
Continuous
370
    35
390
F
  0
LAYER
  5
13C
330
2
100
AcDbSymbolTableRecord
100
AcDbLayerTableRecord
  2
236 Custom Layer
 70
     0
 62
    -7
  6
Continuous
370
    35
390
F
  0
LAYER
  5
13D
330
2
100
AcDbSymbolTableRecord
100
AcDbLayerTableRecord
  2
237 Custom Layer
 70
     0
 62
    -7
  6
Continuous
370
    35
390
F
  0
LAYER
  5
13E
330
2
100
AcDbSymbolTableRecord
100
AcDbLayerTableRecord
  2
238 Custom Layer
 70
     0
 62
    -7
  6
Continuous
370
    35
390
F
  0
LAYER
  5
13F
330
2
100
AcDbSymbolTableRecord
100
AcDbLayerTableRecord
  2
239 Custom Layer
 70
     0
 62
    -7
  6
Continuous
370
    35
390
F
  0
LAYER
  5
140
330
2
100
AcDbSymbolTableRecord
100
AcDbLayerTableRecord
  2
240
 70
     0
 62
    -7
  6
Continuous
370
    35
390
F
  0
LAYER
  5
141
330
2
100
AcDbSymbolTableRecord
100
AcDbLayerTableRecord
  2
241
 70
     0
 62
    -7
  6
Continuous
370
    35
390
F
  0
LAYER
  5
142
330
2
100
AcDbSymbolTableRecord
100
AcDbLayerTableRecord
  2
242
 70
     0
 62
    -7
  6
Continuous
370
    35
390
F
  0
LAYER
  5
143
330
2
100
AcDbSymbolTableRecord
100
AcDbLayerTableRecord
  2
243
 70
     0
 62
    -7
  6
Continuous
370
    35
390
F
  0
LAYER
  5
144
330
2
100
AcDbSymbolTableRecord
100
AcDbLayerTableRecord
  2
244
 70
     0
 62
    -7
  6
Continuous
370
    35
390
F
  0
LAYER
  5
145
330
2
100
AcDbSymbolTableRecord
100
AcDbLayerTableRecord
  2
245 Red Pen Markings
 70
     0
 62
    -7
  6
Continuous
370
    35
390
F
  0
LAYER
  5
146
330
2
100
AcDbSymbolTableRecord
100
AcDbLayerTableRecord
  2
246 Red Pen Markings
 70
     0
 62
    -7
  6
Continuous
370
    35
390
F
  0
LAYER
  5
147
330
2
100
AcDbSymbolTableRecord
100
AcDbLayerTableRecord
  2
247 Red Pen Markings
 70
     0
 62
    -7
  6
Continuous
370
    35
390
F
  0
LAYER
  5
148
330
2
100
AcDbSymbolTableRecord
100
AcDbLayerTableRecord
  2
248 Red Pen Markings
 70
     0
 62
    -7
  6
Continuous
370
    35
390
F
  0
LAYER
  5
149
330
2
100
AcDbSymbolTableRecord
100
AcDbLayerTableRecord
  2
249 Red Pen Markings
 70
     0
 62
    -7
  6
Continuous
370
    35
390
F
  0
LAYER
  5
14A
330
2
100
AcDbSymbolTableRecord
100
AcDbLayerTableRecord
  2
250 Red Pen Markings
 70
     0
 62
    -7
  6
Continuous
370
    35
390
F
  0
LAYER
  5
14B
330
2
100
AcDbSymbolTableRecord
100
AcDbLayerTableRecord
  2
251 Red Pen Markings
 70
     0
 62
    -7
  6
Continuous
370
    35
390
F
  0
LAYER
  5
14C
330
2
100
AcDbSymbolTableRecord
100
AcDbLayerTableRecord
  2
252 Red Pen Markings
 70
     0
 62
    -7
  6
Continuous
370
    35
390
F
  0
LAYER
  5
14D
330
2
100
AcDbSymbolTableRecord
100
AcDbLayerTableRecord
  2
253 Red Pen Markings
 70
     0
 62
    -7
  6
Continuous
370
    35
390
F
  0
LAYER
  5
14E
330
2
100
AcDbSymbolTableRecord
100
AcDbLayerTableRecord
  2
254 Red Pen Markings
 70
     0
 62
    -7
  6
Continuous
370
    35
390
F
  0
ENDTAB
  0
TABLE
  2
STYLE
  5
3
330
0
100
AcDbSymbolTable
 70
    11
  0
STYLE
  5
11
330
3
100
AcDbSymbolTableRecord
100
AcDbTextStyleTableRecord
  2
Standard
 70
     0
 40
0.0
 41
1.0
 50
0.0
 71
     0
 42
0.2
  3
txt
  4

  0
STYLE
  5
3C
330
3
100
AcDbSymbolTableRecord
100
AcDbTextStyleTableRecord
  2
Arial
 70
     0
 40
0.0
 41
1.0
 50
0.0
 71
     0
 42
0.2
  3
ARIAL.TTF
  4

1001
ACAD
1000
Arial
1071
       34
  0
STYLE
  5
3D
330
3
100
AcDbSymbolTableRecord
100
AcDbTextStyleTableRecord
  2
Courier New
 70
     0
 40
0.0
 41
1.0
 50
0.0
 71
     0
 42
0.2
  3
COUR.TTF
  4

1001
ACAD
1000
Courier New
1071
       34
  0
STYLE
  5
3E
330
3
100
AcDbSymbolTableRecord
100
AcDbTextStyleTableRecord
  2
Arial Narrow
 70
     0
 40
0.0
 41
1.0
 50
0.0
 71
     0
 42
0.2
  3
ARIALN.TTF
  4

1001
ACAD
1000
Arial Narrow
1071
       34
  0
STYLE
  5
3F
330
3
100
AcDbSymbolTableRecord
100
AcDbTextStyleTableRecord
  2
Times New Roman
 70
     0
 40
0.0
 41
1.0
 50
0.0
 71
     0
 42
0.2
  3
TIMES.TTF
  4

1001
ACAD
1000
Times New Roman
1071
       34
  0
STYLE
  5
40
330
3
100
AcDbSymbolTableRecord
100
AcDbTextStyleTableRecord
  2
Impact
 70
     0
 40
0.0
 41
1.0
 50
0.0
 71
     0
 42
0.2
  3
IMPACT.TTF
  4

1001
ACAD
1000
Impact
1071
       34
  0
STYLE
  5
41
330
3
100
AcDbSymbolTableRecord
100
AcDbTextStyleTableRecord
  2
Arial Black
 70
     0
 40
0.0
 41
1.0
 50
0.0
 71
     0
 42
0.2
  3
ARIBLK.TTF
  4

1001
ACAD
1000
Arial Black
1071
       34
  0
STYLE
  5
42
330
3
100
AcDbSymbolTableRecord
100
AcDbTextStyleTableRecord
  2
Symbol
 70
     0
 40
0.0
 41
1.0
 50
0.0
 71
     0
 42
0.2
  3
SYMBOL.TTF
  4

1001
ACAD
1000
Symbol
1071
       34
  0
STYLE
  5
43
330
3
100
AcDbSymbolTableRecord
100
AcDbTextStyleTableRecord
  2
Comic Sans MS
 70
     0
 40
0.0
 41
1.0
 50
0.0
 71
     0
 42
0.2
  3
COMIC.TTF
  4

1001
ACAD
1000
Comic Sans MS
1071
       34
  0
STYLE
  5
44
330
3
100
AcDbSymbolTableRecord
100
AcDbTextStyleTableRecord
  2
Trebuchet MS
 70
     0
 40
0.0
 41
1.0
 50
0.0
 71
     0
 42
0.2
  3
TREBUC.TTF
  4

1001
ACAD
1000
Trebuchet MS
1071
       34
  0
STYLE
  5
4E
330
3
100
AcDbSymbolTableRecord
100
AcDbTextStyleTableRecord
  2

 70
     1
 40
0.0
 41
1.0
 50
0.0
 71
     0
 42
22.45
  3
ltypeshp.shx
  4

  0
ENDTAB
  0
TABLE
  2
VIEW
  5
6
330
0
100
AcDbSymbolTable
 70
     0
  0
ENDTAB
  0
TABLE
  2
UCS
  5
7
330
0
100
AcDbSymbolTable
 70
     0
  0
ENDTAB
  0
TABLE
  2
APPID
  5
9
330
0
100
AcDbSymbolTable
 70
     2
  0
APPID
  5
12
330
9
100
AcDbSymbolTableRecord
100
AcDbRegAppTableRecord
  2
ACAD
 70
     0
  0
APPID
  5
3B
330
9
100
AcDbSymbolTableRecord
100
AcDbRegAppTableRecord
  2
Vertex
 70
     0
  0
ENDTAB
  0
TABLE
  2
DIMSTYLE
  5
A
330
0
100
AcDbSymbolTable
 70
     3
100
AcDbDimStyleTable
  0
DIMSTYLE
105
27
330
A
100
AcDbSymbolTableRecord
100
AcDbDimStyleTableRecord
  2
Standard
 70
     0
340
11
  0
DIMSTYLE
105
45
330
A
100
AcDbSymbolTableRecord
100
AcDbDimStyleTableRecord
  2
Vertex Style
 70
     0
 41
0.078740157480315
 44
0.0393700787401575
 46
0.0393700787401575
 73
     0
 74
     0
 77
     1
 78
     8
 79
     2
144
25.4
146
0.65
147
0.0669291338582677
172
     1
173
     1
176
   160
177
   160
179
     1
271
     1
340
3C
343
46
344
46
371
    25
372
    25
  0
DIMSTYLE
105
4D
330
A
100
AcDbSymbolTableRecord
100
AcDbDimStyleTableRecord
  2
Vertex Style (Inches)
 70
     0
 41
0.078740157480315
 44
0.0393700787401575
 46
0.0393700787401575
 73
     0
 74
     0
 77
     1
 79
     2
146
0.65
147
0.0669291338582677
172
     1
173
     1
176
   160
177
   160
179
     1
276
     2
277
     4
340
3C
343
46
344
46
371
    25
372
    25
  0
ENDTAB
  0
TABLE
  2
BLOCK_RECORD
  5
1
330
0
100
AcDbSymbolTable
 70
     4
  0
BLOCK_RECORD
  5
1F
330
1
100
AcDbSymbolTableRecord
100
AcDbBlockTableRecord
  2
*Model_Space
340
22
  0
BLOCK_RECORD
  5
1B
330
1
100
AcDbSymbolTableRecord
100
AcDbBlockTableRecord
  2
*Paper_Space
340
1E
  0
BLOCK_RECORD
  5
23
330
1
100
AcDbSymbolTableRecord
100
AcDbBlockTableRecord
  2
*Paper_Space0
340
26
  0
BLOCK_RECORD
  5
46
330
1
100
AcDbSymbolTableRecord
100
AcDbBlockTableRecord
  2
_CLOSED
340
0
  0
BLOCK_RECORD
  5
14F
330
1
100
AcDbSymbolTableRecord
100
AcDbBlockTableRecord
  2
HATCH_0_1333749037
340
0
102
{BLKREFS
331
28E
102
}
  0
BLOCK_RECORD
  5
152
330
1
100
AcDbSymbolTableRecord
100
AcDbBlockTableRecord
  2
HATCH_1_1333749037
340
0
102
{BLKREFS
331
28F
102
}
  0
ENDTAB
  0
ENDSEC
  0
SECTION
  2
BLOCKS
  0
BLOCK
  5
20
330
1F
100
AcDbEntity
  8
0
100
AcDbBlockBegin
  2
*Model_Space
 70
     0
 10
0.0
 20
0.0
 30
0.0
  3
*Model_Space
  1

  0
ENDBLK
  5
21
330
1F
100
AcDbEntity
  8
0
100
AcDbBlockEnd
  0
BLOCK
  5
1C
330
1B
100
AcDbEntity
 67
     1
  8
0
100
AcDbBlockBegin
  2
*Paper_Space
 70
     0
 10
0.0
 20
0.0
 30
0.0
  3
*Paper_Space
  1

  0
ENDBLK
  5
1D
330
1B
100
AcDbEntity
 67
     1
  8
0
100
AcDbBlockEnd
  0
BLOCK
  5
24
330
23
100
AcDbEntity
  8
0
100
AcDbBlockBegin
  2
*Paper_Space0
 70
     0
 10
0.0
 20
0.0
 30
0.0
  3
*Paper_Space0
  1

  0
ENDBLK
  5
25
330
23
100
AcDbEntity
  8
0
100
AcDbBlockEnd
  0
BLOCK
  5
47
330
46
100
AcDbEntity
  8
0
100
AcDbBlockBegin
  2
_CLOSED
 70
     0
 10
0.0
 20
0.0
 30
0.0
  3
_CLOSED
  1

  0
LINE
  5
49
330
46
100
AcDbEntity
  8
0
  6
ByBlock
 62
     0
370
    -2
100
AcDbLine
 10
-1.0
 20
0.166667
 30
0.0
 11
0.0
 21
0.0
 31
0.0
  0
LINE
  5
4A
330
46
100
AcDbEntity
  8
0
  6
ByBlock
 62
     0
370
    -2
100
AcDbLine
 10
0.0
 20
0.0
 30
0.0
 11
-1.0
 21
-0.166667
 31
0.0
  0
LINE
  5
4B
330
46
100
AcDbEntity
  8
0
  6
ByBlock
 62
     0
370
    -2
100
AcDbLine
 10
-1.0
 20
0.166667
 30
0.0
 11
-1.0
 21
-0.166667
 31
0.0
  0
LINE
  5
4C
330
46
100
AcDbEntity
  8
0
  6
ByBlock
 62
     0
370
    -2
100
AcDbLine
 10
0.0
 20
0.0
 30
0.0
 11
-1.0
 21
0.0
 31
0.0
  0
ENDBLK
  5
48
330
46
100
AcDbEntity
  8
0
100
AcDbBlockEnd
  0
BLOCK
  5
150
330
14F
100
AcDbEntity
  8
0
100
AcDbBlockBegin
  2
HATCH_0_1333749037
 70
     0
 10
0.0
 20
0.0
 30
0.0
  3
HATCH_0_1333749037
  1

  0
ENDBLK
  5
151
330
14F
100
AcDbEntity
  8
0
100
AcDbBlockEnd
  0
BLOCK
  5
153
330
152
100
AcDbEntity
  8
0
100
AcDbBlockBegin
  2
HATCH_1_1333749037
 70
     0
 10
0.0
 20
0.0
 30
0.0
  3
HATCH_1_1333749037
  1

  0
ENDBLK
  5
154
330
152
100
AcDbEntity
  8
0
100
AcDbBlockEnd
  0
ENDSEC
  0
SECTION
  2
ENTITIES
  0
LINE
  5
155
330
1F
100
AcDbEntity
  8
0
  6
Continuous
 62
     7
 48
12.0
370
    25
100
AcDbLine
 10
106.4513091778016
 20
61.47950000000003
 30
0.0
 11
93.81872255906326
 21
68.6212715522169
 31
0.0
  0
LINE
  5
156
330
1F
100
AcDbEntity
  8
0
  6
Continuous
 62
     7
 48
12.0
370
    25
100
AcDbLine
 10
106.4513091778016
 20
37.02164070283047
 30
0.0
 11
108.6173091778016
 21
38.12684070283048
 31
0.0
  0
LINE
  5
157
330
1F
100
AcDbEntity
  8
TEXT
  6
Continuous
 62
     7
 48
0.5
370
    25
100
AcDbLine
 10
94.22132804566829
 20
51.79081633087554
 30
0.0
 11
94.6667265555663
 21
50.93805407005154
 31
0.0
  0
LINE
  5
158
330
1F
100
AcDbEntity
  8
0
  6
Continuous
 62
     7
 48
12.0
370
    25
100
AcDbLine
 10
108.6173091778016
 20
38.12564070283046
 30
0.0
 11
110.7833091778016
 21
39.23084070283046
 31
0.0
  0
LINE
  5
159
330
1F
100
AcDbEntity
  8
0
  6
Continuous
 62
     7
 48
12.0
370
    25
100
AcDbLine
 10
47.52035716448335
 20
93.04520973832366
 30
0.0
 11
47.52035716448335
 21
88.95080973832367
 31
0.0
  0
LINE
  5
15A
330
1F
100
AcDbEntity
  8
0
  6
Continuous
 62
     7
 48
12.0
370
    25
100
AcDbLine
 10
68.67379230642268
 20
58.37742636332018
 30
0.0
 11
68.67379230642268
 21
62.05182636332019
 31
0.0
  0
LWPOLYLINE
  5
15B
330
1F
100
AcDbEntity
  8
0
  6
Continuous
 62
     7
 48
12.0
370
    25
100
AcDbPolyline
 90
        4
 70
     0
 43
0.0
 10
0.0
 20
86.60216192988956
 10
19.66925290680182
 20
89.15922429739848
 10
43.53005290680183
 20
82.10802429739847
 10
65.60045290680182
 20
85.87122429739848
  0
LINE
  5
15C
330
1F
100
AcDbEntity
  8
TEXT
  6
Continuous
 62
     7
 48
4.0
370
    25
100
AcDbLine
 10
21.19511999419078
 20
-114.1336654515825
 30
0.0
 11
21.19511999419078
 21
-85.92399999999998
 31
0.0
  0
LINE
  5
15D
330
1F
100
AcDbEntity
  8
0
  6
Continuous
 62
     7
 48
12.0
370
    25
100
AcDbLine
 10
108.6173091778016
 20
38.12684070283048
 30
0.0
 11
108.6173091778016
 21
50.29484070283048
 31
0.0
  0
LINE
  5
15E
330
1F
100
AcDbEntity
  8
0
  6
Continuous
 62
     7
 48
12.0
370
    25
100
AcDbLine
 10
106.4513091778016
 20
37.02164070283047
 30
0.0
 11
106.4513091778016
 21
49.19084070283048
 31
0.0
  0
LINE
  5
15F
330
1F
100
AcDbEntity
  8
0
  6
Continuous
 62
     7
 48
12.0
370
    25
100
AcDbLine
 10
108.6173091778016
 20
61.6676463157895
 30
0.0
 11
108.6173091778016
 21
55.08044070283048
 31
0.0
  0
LINE
  5
160
330
1F
100
AcDbEntity
  8
0
  6
Continuous
 62
     7
 48
12.0
370
    25
100
AcDbLine
 10
106.4513091778016
 20
61.47950000000003
 30
0.0
 11
106.4513091778016
 21
53.97644070283048
 31
0.0
  0
LINE
  5
161
330
1F
100
AcDbEntity
  8
0
  6
Continuous
 62
     7
 48
12.0
370
    25
100
AcDbLine
 10
108.6173091778016
 20
55.08044070283048
 30
0.0
 11
110.6597091778016
 21
54.03764070283048
 31
0.0
  0
LINE
  5
162
330
1F
100
AcDbEntity
  8
0
  6
Continuous
 62
     7
 48
12.0
370
    25
100
AcDbLine
 10
93.81657353365166
 20
69.91744715557444
 30
0.0
 11
72.28239693349137
 21
82.09168941371291
 31
0.0
  0
LINE
  5
163
330
1F
100
AcDbEntity
  8
0
  6
Continuous
 62
     7
 48
12.0
370
    25
100
AcDbLine
 10
108.6173091778016
 20
62.58350000000002
 30
0.0
 11
65.60045290680182
 21
86.90287097714604
 31
0.0
  0
LINE
  5
164
330
1F
100
AcDbEntity
  8
0
  6
Continuous
 62
     7
 48
12.0
370
    25
100
AcDbLine
 10
110.6597091778016
 20
54.03764070283048
 30
0.0
 11
107.3993091778016
 21
50.91644070283048
 31
0.0
  0
LINE
  5
165
330
1F
100
AcDbEntity
  8
0
  6
Continuous
 62
     7
 48
12.0
370
    25
100
AcDbLine
 10
68.67379230642268
 20
84.13372677951392
 30
0.0
 11
65.60001491253563
 21
85.87147191533174
 31
0.0
  0
LINE
  5
166
330
1F
100
AcDbEntity
  8
0
  6
Continuous
 62
     7
 48
12.0
370
    25
100
AcDbLine
 10
107.3993091778016
 20
50.91644070283048
 30
0.0
 11
108.6173091778016
 21
50.29484070283048
 31
0.0
  0
LINE
  5
167
330
1F
100
AcDbEntity
  8
0
  6
Continuous
 62
     7
 48
12.0
370
    25
100
AcDbLine
 10
100.4993091778016
 20
64.17911372256953
 30
0.0
 11
97.42553178391454
 21
65.91685885838736
 31
0.0
  0
LINE
  5
168
330
1F
100
AcDbEntity
  8
TEXT
  6
Continuous
 62
     7
 48
4.0
370
    25
100
AcDbLine
 10
106.4513091778016
 20
61.47950000000003
 30
0.0
 11
110.7833091778016
 21
63.6875
 31
0.0
  0
LINE
  5
169
330
1F
100
AcDbEntity
  8
0
  6
Continuous
 62
     7
 48
12.0
370
    25
100
AcDbLine
 10
32.1999489909723
 20
111.1796870926725
 30
0.0
 11
16.73025990485375
 21
119.9213309137752
 31
0.0
  0
LINE
  5
16A
330
1F
100
AcDbEntity
  8
0
  6
Continuous
 62
     7
 48
12.0
370
    25
100
AcDbLine
 10
68.67379230642268
 20
80.4593267795139
 30
0.0
 11
68.67379230642268
 21
84.13372677951392
 31
0.0
  0
LINE
  5
16B
330
1F
100
AcDbEntity
  8
0
  6
Continuous
 62
     7
 48
12.0
370
    25
100
AcDbLine
 10
106.4513091778016
 20
53.97644070283048
 30
0.0
 11
108.4949091778016
 21
52.93364070283048
 31
0.0
  0
LINE
  5
16C
330
1F
100
AcDbEntity
  8
0
  6
Continuous
 62
     7
 48
12.0
370
    25
100
AcDbLine
 10
108.4949091778016
 20
52.93364070283048
 30
0.0
 11
105.2321091778016
 21
49.81004070283048
 31
0.0
  0
LINE
  5
16D
330
1F
100
AcDbEntity
  8
0
  6
Continuous
 62
     7
 48
12.0
370
    25
100
AcDbLine
 10
105.2321091778016
 20
49.81004070283048
 30
0.0
 11
106.4513091778016
 21
49.19084070283048
 31
0.0
  0
LINE
  5
16E
330
1F
100
AcDbEntity
  8
0
  6
Continuous
 62
     7
 48
12.0
370
    25
100
AcDbLine
 10
108.4949091778016
 20
52.93364070283048
 30
0.0
 11
110.6597091778016
 21
54.03764070283048
 31
0.0
  0
LINE
  5
16F
330
1F
100
AcDbEntity
  8
0
  6
Continuous
 62
     7
 48
12.0
370
    25
100
AcDbLine
 10
106.4513091778016
 20
49.19084070283048
 30
0.0
 11
108.6173091778016
 21
50.29484070283048
 31
0.0
  0
LINE
  5
170
330
1F
100
AcDbEntity
  8
0
  6
Continuous
 62
     7
 48
12.0
370
    25
100
AcDbLine
 10
105.2321091778016
 20
49.81004070283048
 30
0.0
 11
107.3993091778016
 21
50.91644070283048
 31
0.0
  0
LINE
  5
171
330
1F
100
AcDbEntity
  8
0
  6
Continuous
 62
     7
 48
12.0
370
    25
100
AcDbLine
 10
106.4513091778016
 20
53.97644070283048
 30
0.0
 11
108.6173091778016
 21
55.08044070283048
 31
0.0
  0
LINE
  5
172
330
1F
100
AcDbEntity
  8
0
  6
Continuous
 62
     7
 48
12.0
370
    25
100
AcDbLine
 10
68.67379230642268
 20
80.45777657141704
 30
0.0
 11
68.67379230642268
 21
82.69832322109241
 31
0.0
  0
LWPOLYLINE
  5
173
330
1F
100
AcDbEntity
  8
0
  6
Continuous
 62
     7
 48
12.0
370
    25
100
AcDbPolyline
 90
        4
 70
     0
 43
0.0
 10
0.0
 20
88.94033641112357
 10
19.66925290680182
 20
91.49442429739847
 10
43.53005290680183
 20
84.44682429739846
 10
65.60045290680182
 20
88.20882429739848
  0
LINE
  5
174
330
1F
100
AcDbEntity
  8
TEXT
  6
Continuous
 62
     7
 48
0.5
370
    25
100
AcDbLine
 10
97.90912655556627
 20
39.06602184998447
 30
0.0
 11
100.4993091778016
 21
40.38657502402021
 31
0.0
  0
LWPOLYLINE
  5
175
330
1F
100
AcDbEntity
  8
0
  6
Continuous
 62
     7
 48
12.0
370
    25
100
AcDbPolyline
 90
        4
 70
     0
 43
0.0
 10
0.0
 20
87.38174491737891
 10
19.66925290680182
 20
89.93682429739847
 10
43.53005290680183
 20
82.88802429739847
 10
65.60045290680182
 20
86.65002429739847
  0
LWPOLYLINE
  5
176
330
1F
100
AcDbEntity
  8
0
  6
Continuous
 62
     7
 48
12.0
370
    25
100
AcDbPolyline
 90
        4
 70
     0
 43
0.0
 10
0.0
 20
88.16054491737891
 10
19.66925290680182
 20
90.71562429739848
 10
43.53005290680183
 20
83.66682429739848
 10
65.60045290680182
 20
87.42882429739846
  0
LINE
  5
177
330
1F
100
AcDbEntity
  8
0
  6
Continuous
 62
     7
 48
12.0
370
    25
100
AcDbLine
 10
65.60045290680182
 20
88.20882429739848
 30
0.0
 11
56.33675716448334
 21
93.44600973832367
 31
0.0
  0
LINE
  5
178
330
1F
100
AcDbEntity
  8
0
  6
Continuous
 62
     7
 48
12.0
370
    25
100
AcDbLine
 10
110.7833091778016
 20
63.6875
 30
0.0
 11
56.33675716448334
 21
94.46859400874611
 31
0.0
  0
ARC
  5
179
330
1F
100
AcDbEntity
  8
TEXT
  6
Continuous
 62
     7
 48
12.0
370
    25
100
AcDbCircle
 10
103.1018166797095
 20
62.02160672954602
 30
0.0
 40
0.5999999999999943
100
AcDbArc
 50
0.0
 51
65.91512586221002
  0
CIRCLE
  5
17A
330
1F
100
AcDbEntity
  8
TEXT
  6
Continuous
 62
     7
 48
12.0
370
    25
100
AcDbCircle
 10
88.875
 20
66.625
 30
0.0
 40
0.6764489872849566
  0
LINE
  5
17B
330
1F
100
AcDbEntity
  8
0
  6
Continuous
 62
     7
 48
12.0
370
    25
100
AcDbLine
 10
44.6355489909723
 20
114.9777525913559
 30
0.0
 11
44.6355489909723
 21
104.1525525913559
 31
0.0
  0
LINE
  5
17C
330
1F
100
AcDbEntity
  8
0
  6
Continuous
 62
     7
 48
12.0
370
    25
100
AcDbLine
 10
56.33675716448334
 20
97.54040973832366
 30
0.0
 11
56.33675716448334
 21
93.44600973832367
 31
0.0
  0
LINE
  5
17D
330
1F
100
AcDbEntity
  8
0
  6
Continuous
 62
     7
 48
12.0
370
    25
100
AcDbLine
 10
35.8203489909723
 20
99.65975259135588
 30
0.0
 11
44.6355489909723
 21
104.1525525913559
 31
0.0
  0
LINE
  5
17E
330
1F
100
AcDbEntity
  8
0
  6
Continuous
 62
     7
 48
12.0
370
    25
100
AcDbLine
 10
71.30538147513427
 20
54.56268281255184
 30
0.0
 11
70.11639693349134
 21
55.23486945427535
 31
0.0
  0
LINE
  5
17F
330
1F
100
AcDbEntity
  8
0
  6
Continuous
 62
     7
 48
12.0
370
    25
100
AcDbLine
 10
106.4513091778016
 20
37.02164070283047
 30
0.0
 11
100.4993091778016
 21
40.38657502402021
 31
0.0
  0
LINE
  5
180
330
1F
100
AcDbEntity
  8
0
  6
Continuous
 62
     7
 48
12.0
370
    25
100
AcDbLine
 10
19.66925290680182
 20
89.15922429739848
 30
0.0
 11
19.66925290680182
 21
91.49442429739847
 31
0.0
  0
LINE
  5
181
330
1F
100
AcDbEntity
  8
0
  6
Continuous
 62
     7
 48
12.0
370
    25
100
AcDbLine
 10
43.53005290680183
 20
84.44682429739846
 30
0.0
 11
43.53005290680183
 21
82.10802429739847
 31
0.0
  0
LINE
  5
182
330
1F
100
AcDbEntity
  8
0
  6
Continuous
 62
     7
 48
12.0
370
    25
100
AcDbLine
 10
65.60045290680182
 20
88.20882429739848
 30
0.0
 11
65.60045290680182
 21
85.87122429739848
 31
0.0
  0
LINE
  5
183
330
1F
100
AcDbEntity
  8
TEXT
  6
DASHED
 62
     7
 48
0.5
370
    25
100
AcDbLine
 10
94.6667265555663
 20
50.93805407005154
 30
0.0
 11
97.42383554757632
 21
45.65927911882184
 31
0.0
  0
LINE
  5
184
330
1F
100
AcDbEntity
  8
0
  6
Continuous
 62
     7
 48
12.0
370
    25
100
AcDbLine
 10
35.8203489909723
 20
99.65975259135588
 30
0.0
 11
35.8203489909723
 21
117.5097525913559
 31
0.0
  0
LINE
  5
185
330
1F
100
AcDbEntity
  8
0
  6
Continuous
 62
     7
 48
12.0
370
    25
100
AcDbLine
 10
32.1999489909723
 20
117.6837525913559
 30
0.0
 11
32.1999489909723
 21
101.7065281653538
 31
0.0
  0
LINE
  5
186
330
1F
100
AcDbEntity
  8
0
  6
Continuous
 62
     7
 48
12.0
370
    25
100
AcDbLine
 10
56.33675716448334
 20
97.54040973832367
 30
0.0
 11
44.6355489909723
 21
104.1525525913559
 31
0.0
  0
LINE
  5
187
330
1F
100
AcDbEntity
  8
0
  6
Continuous
 62
     7
 48
12.0
370
    25
100
AcDbLine
 10
47.52035716448335
 20
93.04520973832366
 30
0.0
 11
11.85162304957338
 21
113.2103555072504
 31
0.0
  0
LINE
  5
188
330
1F
100
AcDbEntity
  8
0
  6
Continuous
 62
     7
 48
12.0
370
    25
100
AcDbLine
 10
47.52035716448335
 20
88.95080973832367
 30
0.0
 11
11.85162304957338
 21
109.1159555072504
 31
0.0
  0
LINE
  5
189
330
1F
100
AcDbEntity
  8
0
  6
Continuous
 62
     7
 48
12.0
370
    25
100
AcDbLine
 10
47.52035716448335
 20
93.04520973832366
 30
0.0
 11
56.33675716448334
 21
97.54040973832367
 31
0.0
  0
LINE
  5
18A
330
1F
100
AcDbEntity
  8
0
  6
Continuous
 62
     7
 48
12.0
370
    25
100
AcDbLine
 10
47.52035716448335
 20
88.95080973832367
 30
0.0
 11
56.33675716448334
 21
93.44600973832367
 31
0.0
  0
LINE
  5
18B
330
1F
100
AcDbEntity
  8
TEXT
  6
Continuous
 62
     7
 48
4.0
370
    25
100
AcDbLine
 10
145.2132
 20
-145.125
 30
0.0
 11
0.0
 21
-145.125
 31
0.0
  0
LINE
  5
18C
330
1F
100
AcDbEntity
  8
TEXT
  6
Continuous
 62
     7
 48
4.0
370
    25
100
AcDbLine
 10
145.2132
 20
145.098
 30
0.0
 11
145.2132
 21
-145.125
 31
0.0
  0
LINE
  5
18D
330
1F
100
AcDbEntity
  8
TEXT
  6
Continuous
 62
     7
 48
4.0
370
    25
100
AcDbLine
 10
77.5993
 20
-69.48649999999998
 30
0.0
 11
34.61883877774764
 21
-84.65871625415926
 31
0.0
  0
LINE
  5
18E
330
1F
100
AcDbEntity
  8
TEXT
  6
Continuous
 62
     7
 48
4.0
370
    25
100
AcDbLine
 10
84.4743
 20
-89.73649999999998
 30
0.0
 11
34.61581286206143
 21
-97.6037217810087
 31
0.0
  0
LINE
  5
18F
330
1F
100
AcDbEntity
  8
TEXT
  6
Continuous
 62
     7
 48
3.6
370
    25
100
AcDbLine
 10
70.63881410570443
 20
-98.89921349553939
 30
0.0
 11
71.76381410570443
 21
-97.94296349553937
 31
0.0
  0
LINE
  5
190
330
1F
100
AcDbEntity
  8
TEXT
  6
Continuous
 62
     7
 48
3.6
370
    25
100
AcDbLine
 10
70.63881410570443
 20
-81.34942699107879
 30
0.0
 11
70.63881410570443
 21
-98.89921349553939
 31
0.0
  0
LINE
  5
191
330
1F
100
AcDbEntity
  8
TEXT
  6
Continuous
 62
     7
 48
3.6
370
    25
100
AcDbLine
 10
71.76381410570443
 20
-97.94296349553937
 30
0.0
 11
71.76381410570443
 21
-114.1336654515825
 31
0.0
  0
LINE
  5
192
330
1F
100
AcDbEntity
  8
TEXT
  6
Continuous
 62
     7
 48
10.8
370
    25
100
AcDbLine
 10
39.95845209624306
 20
-90.38023051555577
 30
0.0
 11
39.95845209624306
 21
-109.6774349360267
 31
0.0
  0
LINE
  5
193
330
1F
100
AcDbEntity
  8
TEXT
  6
Continuous
 62
     7
 48
10.8
370
    25
100
AcDbLine
 10
36.58820000000006
 20
-88.32711143267258
 30
0.0
 11
39.95845209624306
 21
-90.38023051555577
 31
0.0
  0
LWPOLYLINE
  5
194
330
1F
100
AcDbEntity
  8
TEXT
  6
Continuous
 62
     7
 48
4.0
370
    25
100
AcDbPolyline
 90
        3
 70
     0
 43
0.0
 10
32.64342572412281
 20
-85.92399999999998
 10
32.64342572412281
 20
-112.1780790643334
 10
32.64342572412281
 20
-114.1336654515825
  0
LINE
  5
195
330
1F
100
AcDbEntity
  8
TEXT
  6
Continuous
 62
     7
 48
4.0
370
    25
100
AcDbLine
 10
26.91927285915679
 20
-114.1336654515825
 30
0.0
 11
26.91927285915679
 21
-85.92399999999998
 31
0.0
  0
LINE
  5
196
330
1F
100
AcDbEntity
  8
TEXT
  6
Continuous
 62
     7
 48
4.0
370
    25
100
AcDbLine
 10
26.91927285915679
 20
-85.92399999999998
 30
0.0
 11
26.91927285915679
 21
-114.1336654515825
 31
0.0
  0
LINE
  5
197
330
1F
100
AcDbEntity
  8
TEXT
  6
Continuous
 62
     7
 48
10.8
370
    25
100
AcDbLine
 10
26.91927285915679
 20
-85.92399999999998
 30
0.0
 11
21.19511999419078
 21
-114.1336654515825
 31
0.0
  0
LINE
  5
198
330
1F
100
AcDbEntity
  8
TEXT
  6
Continuous
 62
     7
 48
10.8
370
    25
100
AcDbLine
 10
21.19511999419078
 20
-85.92399999999998
 30
0.0
 11
26.91927285915679
 21
-114.1336654515825
 31
0.0
  0
LINE
  5
199
330
1F
100
AcDbEntity
  8
TEXT
  6
Continuous
 62
     7
 48
3.6
370
    25
100
AcDbLine
 10
24.65694898656082
 20
-60.38237355764107
 30
0.0
 11
23.44211098943154
 21
-59.54320271494515
 31
0.0
  0
LWPOLYLINE
  5
19A
330
1F
100
AcDbEntity
  8
TEXT
  6
Continuous
 62
     7
 48
4.0
370
    25
100
AcDbPolyline
 90
        3
 70
     0
 43
0.0
 10
32.64342572412281
 20
-55.91303215951871
 10
32.64342572412281
 20
-83.96841361275087
 10
32.64342572412281
 20
-85.92399999999999
  0
LINE
  5
19B
330
1F
100
AcDbEntity
  8
TEXT
  6
Continuous
 62
     7
 48
4.0
370
    25
100
AcDbLine
 10
26.91927285915679
 20
-58.61149999999998
 30
0.0
 11
26.91927285915679
 21
-85.92399999999998
 31
0.0
  0
LINE
  5
19C
330
1F
100
AcDbEntity
  8
TEXT
  6
Continuous
 62
     7
 48
3.6
370
    25
100
AcDbLine
 10
21.19511999419078
 20
-61.30996784048125
 30
0.0
 11
24.65694898656082
 21
-60.38237355764107
 31
0.0
  0
LINE
  5
19D
330
1F
100
AcDbEntity
  8
TEXT
  6
Continuous
 62
     7
 48
3.6
370
    25
100
AcDbLine
 10
23.44211098943154
 20
-59.54320271494515
 30
0.0
 11
26.91927285915679
 21
-58.61149999999998
 31
0.0
  0
LINE
  5
19E
330
1F
100
AcDbEntity
  8
0
  6
Continuous
 62
     7
 48
12.0
370
    25
100
AcDbLine
 10
110.7833091778016
 20
39.23084070283046
 30
0.0
 11
110.7833091778016
 21
51.39884070283046
 31
0.0
  0
CIRCLE
  5
19F
330
1F
100
AcDbEntity
  8
TEXT
  6
Continuous
 62
     7
 48
12.0
370
    25
100
AcDbCircle
 10
99.1128019464981
 20
41.04523298886709
 30
0.0
 40
0.6764489872849566
  0
LINE
  5
1A0
330
1F
100
AcDbEntity
  8
0
  6
Continuous
 62
     7
 48
12.0
370
    25
100
AcDbLine
 10
103.3466703566062
 20
62.56937189538827
 30
0.0
 11
100.4993091778016
 21
64.17911372256953
 31
0.0
  0
CIRCLE
  5
1A1
330
1F
100
AcDbEntity
  8
TEXT
  6
Continuous
 62
     7
 48
12.0
370
    25
100
AcDbCircle
 10
102.1219913944735
 20
47.96004344595749
 30
0.0
 40
0.6764489872849708
  0
CIRCLE
  5
1A2
330
1F
100
AcDbEntity
  8
TEXT
  6
Continuous
 62
     7
 48
12.0
370
    25
100
AcDbCircle
 10
102.046761803871
 20
51.86841437962058
 30
0.0
 40
0.6764489872849566
  0
CIRCLE
  5
1A3
330
1F
100
AcDbEntity
  8
TEXT
  6
Continuous
 62
     7
 48
12.0
370
    25
100
AcDbCircle
 10
102.046761803871
 20
55.70162450563337
 30
0.0
 40
0.6764489872849566
  0
CIRCLE
  5
1A4
330
1F
100
AcDbEntity
  8
TEXT
  6
Continuous
 62
     7
 48
12.0
370
    25
100
AcDbCircle
 10
102.1972216321732
 20
59.00870794703483
 30
0.0
 40
0.6764489872849708
  0
CIRCLE
  5
1A5
330
1F
100
AcDbEntity
  8
TEXT
  6
Continuous
 62
     7
 48
12.0
370
    25
100
AcDbCircle
 10
102.1219913944735
 20
62.24062989341292
 30
0.0
 40
0.6764489872849708
  0
LINE
  5
1A6
330
1F
100
AcDbEntity
  8
TEXT
  6
Continuous
 62
     7
 48
4.0
370
    25
100
AcDbLine
 10
97.90912655556632
 20
62.85890983755211
 30
0.0
 11
100.4993091778016
 21
64.17911372256953
 31
0.0
  0
LINE
  5
1A7
330
1F
100
AcDbEntity
  8
TEXT
  6
Continuous
 62
     7
 48
12.0
370
    25
100
AcDbLine
 10
103.7018166797096
 20
46.83262858171143
 30
0.0
 11
100.4993091778015
 21
43.92057502402022
 31
0.0
  0
LINE
  5
1A8
330
1F
100
AcDbEntity
  8
TEXT
  6
Continuous
 62
     7
 48
12.0
370
    25
100
AcDbLine
 10
103.7018166797095
 20
62.02160672954602
 30
0.0
 11
103.7018166797096
 21
46.83262858171143
 31
0.0
  0
LINE
  5
1A9
330
1F
100
AcDbEntity
  8
TEXT
  6
Continuous
 62
     7
 48
12.0
370
    25
100
AcDbLine
 10
97.90912655556632
 20
62.85890983755211
 30
0.0
 11
97.90912655556627
 21
39.06602184998447
 31
0.0
  0
LINE
  5
1AA
330
1F
100
AcDbEntity
  8
TEXT
  6
Continuous
 62
     7
 48
12.0
370
    25
100
AcDbLine
 10
100.4993091778016
 20
64.17911372256953
 30
0.0
 11
100.4993091778016
 21
40.38657502402021
 31
0.0
  0
ARC
  5
1AB
330
1F
100
AcDbEntity
  8
TEXT
  6
Continuous
 62
     7
 48
12.0
370
    25
100
AcDbCircle
 10
70.22124493249207
 20
73.6940260530302
 30
0.0
 40
0.6764489872849598
100
AcDbArc
 50
98.91665958581261
 51
261.0833404141874
  0
LINE
  5
1AC
330
1F
100
AcDbEntity
  8
TEXT
  6
Continuous
 62
     7
 48
4.0
370
    25
100
AcDbLine
 10
0.0
 20
145.098
 30
0.0
 11
145.2132
 21
145.098
 31
0.0
  0
ARC
  5
1AD
330
1F
100
AcDbEntity
  8
TEXT
  6
Continuous
 62
     7
 48
12.0
370
    25
100
AcDbCircle
 10
70.29647452309456
 20
80.23303144080975
 30
0.0
 40
0.6764489872849767
100
AcDbArc
 50
105.4388727929348
 51
254.5611272070652
  0
LINE
  5
1AE
330
1F
100
AcDbEntity
  8
0
  6
Continuous
 62
     7
 48
12.0
370
    25
100
AcDbLine
 10
38.29088006211244
 20
75.55580859234706
 30
0.0
 11
36.84827543504378
 21
76.37137811881387
 31
0.0
  0
ARC
  5
1AF
330
1F
100
AcDbEntity
  8
TEXT
  6
Continuous
 62
     7
 48
12.0
370
    25
100
AcDbCircle
 10
70.22124493249207
 20
69.86081592701741
 30
0.0
 40
0.6764489872849598
100
AcDbArc
 50
98.91665958581261
 51
261.0833404141874
  0
LINE
  5
1B0
330
1F
100
AcDbEntity
  8
0
  6
Continuous
 62
     7
 48
12.0
370
    25
100
AcDbLine
 10
56.33675716448334
 20
93.44600973832367
 30
0.0
 11
47.52035716448335
 21
93.04520973832366
 31
0.0
  0
LINE
  5
1B1
330
1F
100
AcDbEntity
  8
0
  6
Continuous
 62
     7
 48
12.0
370
    25
100
AcDbLine
 10
47.52035716448335
 20
88.95080973832367
 30
0.0
 11
56.33675716448334
 21
97.54040973832367
 31
0.0
  0
LINE
  5
1B2
330
1F
100
AcDbEntity
  8
TEXT
  6
Continuous
 62
     7
 48
12.0
370
    25
100
AcDbLine
 10
70.11639693349139
 20
80.98768941371291
 30
0.0
 11
70.11639693349137
 21
74.36230004586876
 31
0.0
  0
LINE
  5
1B3
330
1F
100
AcDbEntity
  8
TEXT
  6
Continuous
 62
     7
 48
12.0
370
    25
100
AcDbLine
 10
70.11639693349137
 20
74.36230004586876
 30
0.0
 11
70.11639693349137
 21
73.02575206019164
 31
0.0
  0
LINE
  5
1B4
330
1F
100
AcDbEntity
  8
TEXT
  6
Continuous
 62
     7
 48
12.0
370
    25
100
AcDbLine
 10
70.11639693349137
 20
73.02575206019164
 30
0.0
 11
70.11639693349134
 21
55.23486945427535
 31
0.0
  0
ARC
  5
1B5
330
1F
100
AcDbEntity
  8
TEXT
  6
Continuous
 62
     7
 48
12.0
370
    25
100
AcDbCircle
 10
70.22124493249208
 20
76.95925480662504
 30
0.0
 40
0.6764489872849598
100
AcDbArc
 50
98.91665958581261
 51
261.0833404141874
  0
ARC
  5
1B6
330
1F
100
AcDbEntity
  8
TEXT
  6
Continuous
 62
     7
 48
12.0
370
    25
100
AcDbCircle
 10
70.22124493249206
 20
65.93621033531203
 30
0.0
 40
0.6764489872849598
100
AcDbArc
 50
98.91665958581261
 51
261.0833404141874
  0
LINE
  5
1B7
330
1F
100
AcDbEntity
  8
TEXT
  6
Continuous
 62
     7
 48
10.8
370
    25
100
AcDbLine
 10
26.91927285915679
 20
-114.1336654515825
 30
0.0
 11
21.19511999419078
 21
-114.1336654515825
 31
0.0
  0
LINE
  5
1B8
330
1F
100
AcDbEntity
  8
TEXT
  6
Continuous
 62
     7
 48
4.0
370
    25
100
AcDbLine
 10
70.12629980833063
 20
80.99273686238446
 30
0.0
 11
72.29229980833063
 21
82.09673686238445
 31
0.0
  0
LINE
  5
1B9
330
1F
100
AcDbEntity
  8
TEXT
  6
Continuous
 62
     7
 48
10.8
370
    25
100
AcDbLine
 10
21.19511999419078
 20
-85.92399999999998
 30
0.0
 11
26.91927285915679
 21
-85.92399999999998
 31
0.0
  0
LINE
  5
1BA
330
1F
100
AcDbEntity
  8
0
  6
Continuous
 62
     7
 48
12.0
370
    25
100
AcDbLine
 10
91.65057353365167
 20
68.81344715557445
 30
0.0
 11
70.11639693349137
 21
80.98768941371293
 31
0.0
  0
CIRCLE
  5
1BB
330
1F
100
AcDbEntity
  8
TEXT
  6
Continuous
 62
     7
 48
12.0
370
    25
100
AcDbCircle
 10
67.28728507511919
 20
59.03763453626392
 30
0.0
 40
0.6764489872849566
  0
LINE
  5
1BC
330
1F
100
AcDbEntity
  8
0
  6
Continuous
 62
     7
 48
12.0
370
    25
100
AcDbLine
 10
70.45894807525181
 20
81.1622861175465
 30
0.0
 11
68.67379230642268
 21
82.17151526996636
 31
0.0
  0
LINE
  5
1BD
330
1F
100
AcDbEntity
  8
TEXT
  6
Continuous
 62
     7
 48
4.0
370
    25
100
AcDbLine
 10
0.0
 20
-145.125
 30
0.0
 11
0.0
 21
145.098
 31
0.0
  0
LINE
  5
1BE
330
1F
100
AcDbEntity
  8
0
  6
Continuous
 62
     7
 48
12.0
370
    25
100
AcDbLine
 10
71.07782767693081
 20
81.47772613613081
 30
0.0
 11
68.67379230642268
 21
82.8368358685866
 31
0.0
  0
LINE
  5
1BF
330
1F
100
AcDbEntity
  8
0
  6
Continuous
 62
     7
 48
12.0
370
    25
100
AcDbLine
 10
22.75130917780159
 20
38.2731381030326
 30
0.0
 11
25.99370917780158
 21
36.62193810303259
 31
0.0
  0
LINE
  5
1C0
330
1F
100
AcDbEntity
  8
0
  6
Continuous
 62
     7
 48
12.0
370
    25
100
AcDbLine
 10
25.99370917780158
 20
36.62193810303259
 30
0.0
 11
68.67410917780157
 21
58.3791381030326
 31
0.0
  0
LINE
  5
1C1
330
1F
100
AcDbEntity
  8
0
  6
Continuous
 62
     7
 48
12.0
370
    25
100
AcDbLine
 10
25.99370917780158
 20
40.29513810303259
 30
0.0
 11
66.08360968418737
 21
60.73177841796726
 31
0.0
  0
LINE
  5
1C2
330
1F
100
AcDbEntity
  8
0
  6
Continuous
 62
     7
 48
12.0
370
    25
100
AcDbLine
 10
22.75130917780159
 20
41.94633810303259
 30
0.0
 11
23.82410917780157
 21
41.4015381030326
 31
0.0
  0
LINE
  5
1C3
330
1F
100
AcDbEntity
  8
0
  6
Continuous
 62
     7
 48
12.0
370
    25
100
AcDbLine
 10
25.99370917780158
 20
36.62193810303259
 30
0.0
 11
25.99370917780158
 21
40.29513810303259
 31
0.0
  0
LINE
  5
1C4
330
1F
100
AcDbEntity
  8
0
  6
Continuous
 62
     7
 48
12.0
370
    25
100
AcDbLine
 10
22.75130917780159
 20
38.2731381030326
 30
0.0
 11
22.75130917780159
 21
41.94633810303259
 31
0.0
  0
LINE
  5
1C5
330
1F
100
AcDbEntity
  8
0
  6
Continuous
 62
     7
 48
12.0
370
    25
100
AcDbLine
 10
22.75130917780159
 20
41.94633810303259
 30
0.0
 11
23.82410917780157
 21
42.4935381030326
 31
0.0
  0
LINE
  5
1C6
330
1F
100
AcDbEntity
  8
0
  6
Continuous
 62
     7
 48
12.0
370
    25
100
AcDbLine
 10
23.82410917780157
 20
39.83673810303259
 30
0.0
 11
24.92210917780157
 21
39.27753810303259
 31
0.0
  0
LINE
  5
1C7
330
1F
100
AcDbEntity
  8
0
  6
Continuous
 62
     7
 48
12.0
370
    25
100
AcDbLine
 10
23.82410917780157
 20
39.83673810303259
 30
0.0
 11
23.82410917780157
 21
49.63833810303259
 31
0.0
  0
LINE
  5
1C8
330
1F
100
AcDbEntity
  8
0
  6
Continuous
 62
     7
 48
12.0
370
    25
100
AcDbLine
 10
24.92210917780157
 20
39.27753810303259
 30
0.0
 11
24.92210917780157
 21
49.0803381030326
 31
0.0
  0
LINE
  5
1C9
330
1F
100
AcDbEntity
  8
0
  6
Continuous
 62
     7
 48
12.0
370
    25
100
AcDbLine
 10
24.92210917780157
 20
40.84113810303259
 30
0.0
 11
25.99370917780158
 21
40.29513810303259
 31
0.0
  0
LINE
  5
1CA
330
1F
100
AcDbEntity
  8
0
  6
Continuous
 62
     7
 48
12.0
370
    25
100
AcDbLine
 10
22.75130917780159
 20
64.0275381030326
 30
0.0
 11
25.99370917780158
 21
62.3751381030326
 31
0.0
  0
LINE
  5
1CB
330
1F
100
AcDbEntity
  8
0
  6
Continuous
 62
     7
 48
12.0
370
    25
100
AcDbLine
 10
25.99370917780158
 20
58.7019381030326
 30
0.0
 11
25.99370917780158
 21
62.3751381030326
 31
0.0
  0
LINE
  5
1CC
330
1F
100
AcDbEntity
  8
0
  6
Continuous
 62
     7
 48
12.0
370
    25
100
AcDbLine
 10
23.82410917780157
 20
61.3731381030326
 30
0.0
 11
24.92210917780157
 21
60.8127381030326
 31
0.0
  0
LINE
  5
1CD
330
1F
100
AcDbEntity
  8
0
  6
Continuous
 62
     7
 48
12.0
370
    25
100
AcDbLine
 10
24.92210917780157
 20
59.24913810303259
 30
0.0
 11
24.92210917780157
 21
60.8127381030326
 31
0.0
  0
LWPOLYLINE
  5
1CE
330
1F
100
AcDbEntity
  8
0
  6
Continuous
 62
     7
 48
12.0
370
    25
100
AcDbPolyline
 90
        3
 70
     0
 43
0.0
 10
22.75130917780159
 20
60.3543381030326
 10
23.82410917780157
 20
59.8083381030326
 10
23.82410917780157
 20
61.3731381030326
  0
LINE
  5
1CF
330
1F
100
AcDbEntity
  8
0
  6
Continuous
 62
     7
 48
12.0
370
    25
100
AcDbLine
 10
24.92210917780157
 20
59.24913810303259
 30
0.0
 11
25.99370917780158
 21
58.7019381030326
 31
0.0
  0
LINE
  5
1D0
330
1F
100
AcDbEntity
  8
0
  6
Continuous
 62
     7
 48
12.0
370
    25
100
AcDbLine
 10
25.99370917780158
 20
62.3751381030326
 30
0.0
 11
68.6755877086401
 21
84.13271175758152
 31
0.0
  0
LINE
  5
1D1
330
1F
100
AcDbEntity
  8
0
  6
Continuous
 62
     7
 48
12.0
370
    25
100
AcDbLine
 10
22.75130917780159
 20
64.0275381030326
 30
0.0
 11
65.60045290680182
 21
85.87122429739848
 31
0.0
  0
LINE
  5
1D2
330
1F
100
AcDbEntity
  8
0
  6
Continuous
 62
     7
 48
12.0
370
    25
100
AcDbLine
 10
25.99370917780158
 20
58.7019381030326
 30
0.0
 11
66.0836096841874
 21
79.13890737252243
 31
0.0
  0
LINE
  5
1D3
330
1F
100
AcDbEntity
  8
0
  6
Continuous
 62
     7
 48
12.0
370
    25
100
AcDbLine
 10
22.75130917780159
 20
60.3543381030326
 30
0.0
 11
22.75130917780159
 21
64.0275381030326
 31
0.0
  0
LINE
  5
1D4
330
1F
100
AcDbEntity
  8
0
  6
Continuous
 62
     7
 48
12.0
370
    25
100
AcDbLine
 10
24.92210917780157
 20
40.84113810303259
 30
0.0
 11
66.08360968418737
 21
61.82461558790067
 31
0.0
  0
LINE
  5
1D5
330
1F
100
AcDbEntity
  8
0
  6
Continuous
 62
     7
 48
12.0
370
    25
100
AcDbLine
 10
24.92210917780157
 20
49.0803381030326
 30
0.0
 11
23.82410917780157
 21
49.63833810303259
 31
0.0
  0
LWPOLYLINE
  5
1D6
330
1F
100
AcDbEntity
  8
0
  6
Continuous
 62
     7
 48
12.0
370
    25
100
AcDbPolyline
 90
        4
 70
     1
 43
0.0
 10
0.0
 20
133.6872
 10
0.0
 20
145.098
 10
13.10279999999999
 20
145.098
 10
13.10279999999999
 20
133.6872
  0
LINE
  5
1D7
330
1F
100
AcDbEntity
  8
0
  6
Continuous
 62
     7
 48
12.0
370
    25
100
AcDbLine
 10
25.04210917780158
 20
50.2599381030326
 30
0.0
 11
23.82410917780157
 21
49.63833810303259
 31
0.0
  0
LINE
  5
1D8
330
1F
100
AcDbEntity
  8
0
  6
Continuous
 62
     7
 48
12.0
370
    25
100
AcDbLine
 10
26.14010917780158
 20
49.7007381030326
 30
0.0
 11
24.92210917780157
 21
49.0803381030326
 31
0.0
  0
LWPOLYLINE
  5
1D9
330
1F
100
AcDbEntity
  8
0
  6
Continuous
 62
     7
 48
12.0
370
    25
100
AcDbPolyline
 90
        3
 70
     0
 43
0.0
 10
22.87970917780159
 20
52.82313810303259
 10
26.14010917780158
 20
49.7007381030326
 10
25.04210917780158
 20
50.2599381030326
  0
LWPOLYLINE
  5
1DA
330
1F
100
AcDbEntity
  8
0
  6
Continuous
 62
     7
 48
12.0
370
    25
100
AcDbPolyline
 90
        3
 70
     0
 43
0.0
 10
22.87970917780159
 20
52.82313810303259
 10
21.78170917780159
 20
53.3835381030326
 10
25.04210917780158
 20
50.2599381030326
  0
LINE
  5
1DB
330
1F
100
AcDbEntity
  8
0
  6
Continuous
 62
     7
 48
12.0
370
    25
100
AcDbLine
 10
23.82410917780157
 20
54.42393810303259
 30
0.0
 11
21.78170917780159
 21
53.3835381030326
 31
0.0
  0
LINE
  5
1DC
330
1F
100
AcDbEntity
  8
0
  6
Continuous
 62
     7
 48
12.0
370
    25
100
AcDbLine
 10
24.92210917780157
 20
53.86473810303259
 30
0.0
 11
22.87970917780159
 21
52.82313810303259
 31
0.0
  0
LINE
  5
1DD
330
1F
100
AcDbEntity
  8
0
  6
Continuous
 62
     7
 48
12.0
370
    25
100
AcDbLine
 10
24.92210917780157
 20
53.86473810303259
 30
0.0
 11
23.82410917780157
 21
54.42393810303259
 31
0.0
  0
LINE
  5
1DE
330
1F
100
AcDbEntity
  8
0
  6
Continuous
 62
     7
 48
12.0
370
    25
100
AcDbLine
 10
23.82410917780157
 20
59.8083381030326
 30
0.0
 11
23.82410917780157
 21
54.42393810303259
 31
0.0
  0
LINE
  5
1DF
330
1F
100
AcDbEntity
  8
0
  6
Continuous
 62
     7
 48
12.0
370
    25
100
AcDbLine
 10
24.92210917780157
 20
59.24913810303259
 30
0.0
 11
24.92210917780157
 21
53.86473810303259
 31
0.0
  0
LINE
  5
1E0
330
1F
100
AcDbEntity
  8
0
  6
Continuous
 62
     7
 48
12.0
370
    25
100
AcDbLine
 10
39.47986460375536
 20
72.55470431938626
 30
0.0
 11
38.29088006211244
 21
73.22689096110977
 31
0.0
  0
LINE
  5
1E1
330
1F
100
AcDbEntity
  8
TEXT
  6
Continuous
 62
     7
 48
10.8
370
    25
100
AcDbLine
 10
32.64342572412281
 20
-85.92399999999998
 30
0.0
 11
26.91927285915679
 21
-114.1336654515825
 31
0.0
  0
LINE
  5
1E2
330
1F
100
AcDbEntity
  8
TEXT
  6
Continuous
 62
     7
 48
10.8
370
    25
100
AcDbLine
 10
26.91927285915679
 20
-85.92399999999998
 30
0.0
 11
32.64342572412281
 21
-114.1336654515825
 31
0.0
  0
LINE
  5
1E3
330
1F
100
AcDbEntity
  8
TEXT
  6
Continuous
 62
     7
 48
10.8
370
    25
100
AcDbLine
 10
32.64342572412281
 20
-114.1336654515825
 30
0.0
 11
26.91927285915679
 21
-114.1336654515825
 31
0.0
  0
LINE
  5
1E4
330
1F
100
AcDbEntity
  8
TEXT
  6
Continuous
 62
     7
 48
10.8
370
    25
100
AcDbLine
 10
26.91927285915679
 20
-85.92399999999998
 30
0.0
 11
32.64342572412281
 21
-85.92399999999998
 31
0.0
  0
LINE
  5
1E5
330
1F
100
AcDbEntity
  8
TEXT
  6
Continuous
 62
     7
 48
4.0
370
    25
100
AcDbLine
 10
32.64342572412281
 20
-83.96841361275087
 30
0.0
 11
36.58820000000006
 21
-83.96841361275087
 31
0.0
  0
LINE
  5
1E6
330
1F
100
AcDbEntity
  8
0
  6
Continuous
 62
     7
 48
12.0
370
    25
100
AcDbLine
 10
108.6173091778016
 20
38.12564070283046
 30
0.0
 11
108.6173091778016
 21
50.29484070283046
 31
0.0
  0
LINE
  5
1E7
330
1F
100
AcDbEntity
  8
0
  6
Continuous
 62
     7
 48
12.0
370
    25
100
AcDbLine
 10
110.7833091778016
 20
63.6875
 30
0.0
 11
110.7833091778016
 21
56.18444070283046
 31
0.0
  0
LINE
  5
1E8
330
1F
100
AcDbEntity
  8
0
  6
Continuous
 62
     7
 48
12.0
370
    25
100
AcDbLine
 10
108.6173091778016
 20
62.58350000000002
 30
0.0
 11
108.6173091778016
 21
55.08044070283047
 31
0.0
  0
LINE
  5
1E9
330
1F
100
AcDbEntity
  8
0
  6
Continuous
 62
     7
 48
12.0
370
    25
100
AcDbLine
 10
110.7833091778016
 20
56.18444070283046
 30
0.0
 11
112.8257091778016
 21
55.14164070283046
 31
0.0
  0
LINE
  5
1EA
330
1F
100
AcDbEntity
  8
0
  6
Continuous
 62
     7
 48
12.0
370
    25
100
AcDbLine
 10
112.8257091778016
 20
55.14164070283046
 30
0.0
 11
109.5653091778016
 21
52.02044070283046
 31
0.0
  0
LINE
  5
1EB
330
1F
100
AcDbEntity
  8
0
  6
Continuous
 62
     7
 48
12.0
370
    25
100
AcDbLine
 10
109.5653091778016
 20
52.02044070283046
 30
0.0
 11
110.7833091778016
 21
51.39884070283046
 31
0.0
  0
LINE
  5
1EC
330
1F
100
AcDbEntity
  8
0
  6
Continuous
 62
     7
 48
12.0
370
    25
100
AcDbLine
 10
108.6173091778016
 20
55.08044070283047
 30
0.0
 11
110.6609091778016
 21
54.03764070283047
 31
0.0
  0
LINE
  5
1ED
330
1F
100
AcDbEntity
  8
0
  6
Continuous
 62
     7
 48
12.0
370
    25
100
AcDbLine
 10
110.6609091778016
 20
54.03764070283047
 30
0.0
 11
107.3981091778016
 21
50.91404070283047
 31
0.0
  0
LINE
  5
1EE
330
1F
100
AcDbEntity
  8
0
  6
Continuous
 62
     7
 48
12.0
370
    25
100
AcDbLine
 10
107.3981091778016
 20
50.91404070283047
 30
0.0
 11
108.6173091778016
 21
50.29484070283046
 31
0.0
  0
LINE
  5
1EF
330
1F
100
AcDbEntity
  8
0
  6
Continuous
 62
     7
 48
12.0
370
    25
100
AcDbLine
 10
110.6609091778016
 20
54.03764070283047
 30
0.0
 11
112.8257091778016
 21
55.14164070283046
 31
0.0
  0
LINE
  5
1F0
330
1F
100
AcDbEntity
  8
0
  6
Continuous
 62
     7
 48
12.0
370
    25
100
AcDbLine
 10
108.6173091778016
 20
50.29484070283046
 30
0.0
 11
110.7833091778016
 21
51.39884070283046
 31
0.0
  0
LINE
  5
1F1
330
1F
100
AcDbEntity
  8
0
  6
Continuous
 62
     7
 48
12.0
370
    25
100
AcDbLine
 10
107.3981091778016
 20
50.91404070283047
 30
0.0
 11
109.5653091778016
 21
52.02044070283046
 31
0.0
  0
LINE
  5
1F2
330
1F
100
AcDbEntity
  8
0
  6
Continuous
 62
     7
 48
12.0
370
    25
100
AcDbLine
 10
108.6173091778016
 20
55.08044070283047
 30
0.0
 11
110.7833091778016
 21
56.18444070283046
 31
0.0
  0
LINE
  5
1F3
330
1F
100
AcDbEntity
  8
TEXT
  6
Continuous
 62
     7
 48
4.0
370
    25
100
AcDbLine
 10
36.58820000000006
 20
-83.96841361275087
 30
0.0
 11
36.58820000000006
 21
-112.1780790643334
 31
0.0
  0
LINE
  5
1F4
330
1F
100
AcDbEntity
  8
TEXT
  6
Continuous
 62
     7
 48
4.0
370
    25
100
AcDbLine
 10
32.64342572412281
 20
-83.96841361275087
 30
0.0
 11
32.64342572412281
 21
-112.1780790643334
 31
0.0
  0
LINE
  5
1F5
330
1F
100
AcDbEntity
  8
TEXT
  6
Continuous
 62
     7
 48
4.0
370
    25
100
AcDbLine
 10
32.64342572412281
 20
-112.1780790643334
 30
0.0
 11
36.58820000000006
 21
-112.1780790643334
 31
0.0
  0
LINE
  5
1F6
330
1F
100
AcDbEntity
  8
TEXT
  6
Continuous
 62
     7
 48
10.8
370
    25
100
AcDbLine
 10
36.58820000000006
 20
-112.1780790643334
 30
0.0
 11
32.64342572412281
 21
-112.1780790643334
 31
0.0
  0
LINE
  5
1F7
330
1F
100
AcDbEntity
  8
TEXT
  6
Continuous
 62
     7
 48
4.0
370
    25
100
AcDbLine
 10
32.64342572412281
 20
-109.5629585195874
 30
0.0
 11
36.58820000000006
 21
-106.5654494003979
 31
0.0
  0
LINE
  5
1F8
330
1F
100
AcDbEntity
  8
TEXT
  6
Continuous
 62
     7
 48
3.6
370
    25
100
AcDbLine
 10
29.83899645029013
 20
-57.82916242163373
 30
0.0
 11
28.62415845316085
 21
-56.9899915789378
 31
0.0
  0
LINE
  5
1F9
330
1F
100
AcDbEntity
  8
TEXT
  6
Continuous
 62
     7
 48
3.6
370
    25
100
AcDbLine
 10
26.91927285915679
 20
-58.61149999999998
 30
0.0
 11
29.83899645029013
 21
-57.82916242163373
 31
0.0
  0
LINE
  5
1FA
330
1F
100
AcDbEntity
  8
TEXT
  6
Continuous
 62
     7
 48
3.6
370
    25
100
AcDbLine
 10
28.62415845316085
 20
-56.9899915789378
 30
0.0
 11
32.64342572412281
 21
-55.91303215951871
 31
0.0
  0
LINE
  5
1FB
330
1F
100
AcDbEntity
  8
TEXT
  6
Continuous
 62
     7
 48
12.0
370
    25
100
AcDbLine
 10
38.29088006211245
 20
83.65627312235294
 30
0.0
 11
38.29088006211244
 21
73.22689096110977
 31
0.0
  0
CIRCLE
  5
1FC
330
1F
100
AcDbEntity
  8
TEXT
  6
Continuous
 62
     7
 48
12.0
370
    25
100
AcDbCircle
 10
81.5
 20
70.5
 30
0.0
 40
0.6764489872849566
  0
LINE
  5
1FD
330
1F
100
AcDbEntity
  8
TEXT
  6
Continuous
 62
     7
 48
4.0
370
    25
100
AcDbLine
 10
66.08360968418741
 20
80.85131138494894
 30
0.0
 11
68.67379230642268
 21
82.17151526996636
 31
0.0
  0
LINE
  5
1FE
330
1F
100
AcDbEntity
  8
TEXT
  6
Continuous
 62
     7
 48
12.0
370
    25
100
AcDbLine
 10
70.11639693349136
 20
63.22474303382015
 30
0.0
 11
68.67379230642264
 21
61.91297657141705
 31
0.0
  0
CIRCLE
  5
1FF
330
1F
100
AcDbEntity
  8
TEXT
  6
Continuous
 62
     7
 48
12.0
370
    25
100
AcDbCircle
 10
74.875
 20
74.125
 30
0.0
 40
0.6764489872849566
  0
LINE
  5
200
330
1F
100
AcDbEntity
  8
TEXT
  6
Continuous
 62
     7
 48
12.0
370
    25
100
AcDbLine
 10
66.08360968418741
 20
80.85131138494894
 30
0.0
 11
66.08360968418737
 21
57.0584233973813
 31
0.0
  0
LINE
  5
201
330
1F
100
AcDbEntity
  8
TEXT
  6
Continuous
 62
     7
 48
12.0
370
    25
100
AcDbLine
 10
68.67379230642268
 20
82.17151526996636
 30
0.0
 11
68.67379230642268
 21
58.37897657141704
 31
0.0
  0
LINE
  5
202
330
1F
100
AcDbEntity
  8
0
  6
Continuous
 62
     7
 48
12.0
370
    25
100
AcDbLine
 10
61.87530222246272
 20
85.23605288884653
 30
0.0
 11
61.87530222246272
 21
83.97083683942665
 31
0.0
  0
LINE
  5
203
330
1F
100
AcDbEntity
  8
0
  6
Continuous
 62
     7
 48
12.0
370
    25
100
AcDbLine
 10
64.04130222246272
 20
85.60537520289613
 30
0.0
 11
64.04130222246272
 21
85.07497425834096
 31
0.0
  0
CIRCLE
  5
204
330
1F
100
AcDbEntity
  8
TEXT
  6
Continuous
 62
     7
 48
12.0
370
    25
100
AcDbCircle
 10
77.125
 20
67.375
 30
0.0
 40
0.6764489872849566
  0
CIRCLE
  5
205
330
1F
100
AcDbEntity
  8
TEXT
  6
Continuous
 62
     7
 48
12.0
370
    25
100
AcDbCircle
 10
83.9375
 20
64.0625
 30
0.0
 40
0.6764489872849566
  0
CIRCLE
  5
206
330
1F
100
AcDbEntity
  8
TEXT
  6
Continuous
 62
     7
 48
12.0
370
    25
100
AcDbCircle
 10
52.11198312862109
 20
82.05452150683442
 30
0.0
 40
0.6764489872849566
  0
CIRCLE
  5
207
330
1F
100
AcDbEntity
  8
TEXT
  6
Continuous
 62
     7
 48
12.0
370
    25
100
AcDbCircle
 10
74.875
 20
62.6875
 30
0.0
 40
0.6764489872849566
  0
CIRCLE
  5
208
330
1F
100
AcDbEntity
  8
TEXT
  6
Continuous
 62
     7
 48
12.0
370
    25
100
AcDbCircle
 10
43.04948312862109
 20
80.67952150683442
 30
0.0
 40
0.6764489872849566
  0
CIRCLE
  5
209
330
1F
100
AcDbEntity
  8
TEXT
  6
Continuous
 62
     7
 48
12.0
370
    25
100
AcDbCircle
 10
35.46176820374028
 20
77.03003608366075
 30
0.0
 40
0.6764489872849566
  0
LINE
  5
20A
330
1F
100
AcDbEntity
  8
0
  6
Continuous
 62
     7
 48
12.0
370
    25
100
AcDbLine
 10
0.0
 20
57.58722196527888
 30
0.0
 11
36.84859230642266
 21
76.37153965042943
 31
0.0
  0
LINE
  5
20B
330
1F
100
AcDbEntity
  8
0
  6
Continuous
 62
     7
 48
12.0
370
    25
100
AcDbLine
 10
0.0
 20
61.26042196527888
 30
0.0
 11
34.25809281280846
 21
78.72417996536409
 31
0.0
  0
LINE
  5
20C
330
1F
100
AcDbEntity
  8
0
  6
Continuous
 62
     7
 48
12.0
370
    25
100
AcDbLine
 10
0.0
 20
83.34037003652632
 30
0.0
 11
8.589124570762626
 21
87.71877410188254
 31
0.0
  0
LINE
  5
20D
330
1F
100
AcDbEntity
  8
0
  6
Continuous
 62
     7
 48
12.0
370
    25
100
AcDbLine
 10
0.0
 20
86.64579977437053
 30
0.0
 11
-0.1149035197234601
 21
86.5872241248
 31
0.0
  0
LINE
  5
20E
330
1F
100
AcDbEntity
  8
0
  6
Continuous
 62
     7
 48
12.0
370
    25
100
AcDbLine
 10
0.0
 20
79.66726981772256
 30
0.0
 11
18.26050546717493
 21
88.97608286949256
 31
0.0
  0
LINE
  5
20F
330
1F
100
AcDbEntity
  8
0
  6
Continuous
 62
     7
 48
12.0
370
    25
100
AcDbLine
 10
0.0
 20
62.35278695980708
 30
0.0
 11
34.25809281280846
 21
79.8170171352975
 31
0.0
  0
LINE
  5
210
330
1F
100
AcDbEntity
  8
TEXT
  6
Continuous
 62
     7
 48
12.0
370
    25
100
AcDbLine
 10
38.29088006211245
 20
81.21714458121697
 30
0.0
 11
36.84827543504373
 21
79.90537811881387
 31
0.0
  0
LINE
  5
211
330
1F
100
AcDbEntity
  8
TEXT
  6
Continuous
 62
     7
 48
12.0
370
    25
100
AcDbLine
 10
34.25809281280847
 20
84.84801813728507
 30
0.0
 11
34.25809281280846
 21
75.05082494477813
 31
0.0
  0
LINE
  5
212
330
1F
100
AcDbEntity
  8
TEXT
  6
Continuous
 62
     7
 48
12.0
370
    25
100
AcDbLine
 10
36.84827543504377
 20
84.08258295883734
 30
0.0
 11
36.84827543504377
 21
76.37137811881388
 31
0.0
  0
LINE
  5
213
330
1F
100
AcDbEntity
  8
0
  6
Continuous
 62
     7
 48
12.0
370
    25
100
AcDbLine
 10
97.42383554757626
 20
42.12527911882183
 30
0.0
 11
97.42383554757626
 21
45.79847911882183
 31
0.0
  0
LINE
  5
214
330
1F
100
AcDbEntity
  8
0
  6
Continuous
 62
     7
 48
0.5
370
    25
100
AcDbLine
 10
91.65057353365167
 20
43.06062719613676
 30
0.0
 11
71.30538147513427
 21
54.56268281255184
 31
0.0
  0
LINE
  5
215
330
1F
100
AcDbEntity
  8
0
  6
DASHED
 62
     7
 48
0.5
370
    25
100
AcDbLine
 10
93.81872255906326
 20
68.6212715522169
 30
0.0
 11
71.0778276769308
 21
81.4777261361308
 31
0.0
  0
LINE
  5
216
330
1F
100
AcDbEntity
  8
TEXT
  6
Continuous
 62
     7
 48
4.0
370
    25
100
AcDbLine
 10
21.19511999419078
 20
-85.92399999999998
 30
0.0
 11
21.19511999419078
 21
-61.30996784048125
 31
0.0
  0
LINE
  5
217
330
1F
100
AcDbEntity
  8
TEXT
  6
Continuous
 62
     7
 48
0.5
370
    25
100
AcDbLine
 10
94.66672655556627
 20
40.71962184998446
 30
0.0
 11
97.90912655556627
 21
39.06602184998447
 31
0.0
  0
LINE
  5
218
330
1F
100
AcDbEntity
  8
TEXT
  6
Continuous
 62
     7
 48
4.0
370
    25
100
AcDbLine
 10
36.58820000000006
 20
-112.1780790643334
 30
0.0
 11
36.58820000000006
 21
-83.96841361275087
 31
0.0
  0
LINE
  5
219
330
1F
100
AcDbEntity
  8
TEXT
  6
Continuous
 62
     7
 48
4.0
370
    25
100
AcDbLine
 10
98.6875
 20
82.75
 30
0.0
 11
84.11582163919927
 21
62.25
 31
0.0
  0
LINE
  5
21A
330
1F
100
AcDbEntity
  8
0
  6
DASHED
 62
     7
 48
0.5
370
    25
100
AcDbLine
 10
72.28239693349134
 20
82.09168941371293
 30
0.0
 11
72.28239693349134
 21
56.33900687318965
 31
0.0
  0
LINE
  5
21B
330
1F
100
AcDbEntity
  8
TEXT
  6
DASHED
 62
     7
 48
0.5
370
    25
100
AcDbLine
 10
70.11639693349134
 20
55.23486945427535
 30
0.0
 11
72.28239693349134
 21
56.33886945427534
 31
0.0
  0
LINE
  5
21C
330
1F
100
AcDbEntity
  8
TEXT
  6
Continuous
 62
     7
 48
4.0
370
    25
100
AcDbLine
 10
121.25
 20
66.8125
 30
0.0
 11
110.7833091778016
 21
45.31484070283047
 31
0.0
  0
LINE
  5
21D
330
1F
100
AcDbEntity
  8
TEXT
  6
Continuous
 62
     7
 48
0.5
370
    25
100
AcDbLine
 10
94.22132804566832
 20
66.97979447871015
 30
0.0
 11
94.22132804566829
 21
51.79081633087554
 31
0.0
  0
ARC
  5
21E
330
1F
100
AcDbEntity
  8
TEXT
  6
Continuous
 62
     7
 48
0.5
370
    25
100
AcDbCircle
 10
94.82132804566831
 20
66.97979447871015
 30
0.0
 40
0.5999999999999943
100
AcDbArc
 50
114.08487413779
 51
180.0
  0
LINE
  5
21F
330
1F
100
AcDbEntity
  8
0
  6
Continuous
 62
     7
 48
0.5
370
    25
100
AcDbLine
 10
97.42383554757626
 20
65.91781781737114
 30
0.0
 11
94.57647436877167
 21
67.52755964455238
 31
0.0
  0
LINE
  5
220
330
1F
100
AcDbEntity
  8
TEXT
  6
Continuous
 62
     7
 48
0.5
370
    25
100
AcDbLine
 10
94.833652925341
 20
64.59761393235371
 30
0.0
 11
97.42383554757626
 21
65.91781781737114
 31
0.0
  0
LINE
  5
221
330
1F
100
AcDbEntity
  8
0
  6
Continuous
 62
     7
 48
12.0
370
    25
100
AcDbLine
 10
91.65272255906326
 20
68.81454250370668
 30
0.0
 11
91.65272255906326
 21
64.93478023490178
 31
0.0
  0
LINE
  5
222
330
1F
100
AcDbEntity
  8
0
  6
Continuous
 62
     7
 48
12.0
370
    25
100
AcDbLine
 10
93.81872255906326
 20
69.91854250370666
 30
0.0
 11
93.81872255906326
 21
66.03891765381609
 31
0.0
  0
LINE
  5
223
330
1F
100
AcDbEntity
  8
TEXT
  6
Continuous
 62
     7
 48
0.5
370
    25
100
AcDbLine
 10
97.42383554757626
 20
65.91781781737114
 30
0.0
 11
97.42383554757626
 21
42.12527911882182
 31
0.0
  0
LINE
  5
224
330
1F
100
AcDbEntity
  8
0
  6
Continuous
 62
     7
 48
12.0
370
    25
100
AcDbLine
 10
70.11639693349136
 20
57.56340704495022
 30
0.0
 11
68.67379230642268
 21
58.37897657141704
 31
0.0
  0
LINE
  5
225
330
1F
100
AcDbEntity
  8
0
  6
DASHED
 62
     7
 48
0.5
370
    25
100
AcDbLine
 10
100.4993091778016
 20
40.38657502402021
 30
0.0
 11
70.11639693349136
 21
57.56340704495022
 31
0.0
  0
LINE
  5
226
330
1F
100
AcDbEntity
  8
TEXT
  6
Continuous
 62
     7
 48
0.5
370
    25
100
AcDbLine
 10
94.66672655556627
 20
40.71962184998446
 30
0.0
 11
97.42383554757626
 21
42.12527911882182
 31
0.0
  0
CIRCLE
  5
227
330
1F
100
AcDbEntity
  8
TEXT
  6
DASHED
 62
     7
 48
0.5
370
    25
100
AcDbCircle
 10
88.875
 20
55.1875
 30
0.0
 40
0.6764489872849566
  0
CIRCLE
  5
228
330
1F
100
AcDbEntity
  8
TEXT
  6
DASHED
 62
     7
 48
0.5
370
    25
100
AcDbCircle
 10
81.5
 20
59.0625
 30
0.0
 40
0.6764489872849566
  0
LINE
  5
229
330
1F
100
AcDbEntity
  8
TEXT
  6
Continuous
 62
     7
 48
4.0
370
    25
100
AcDbLine
 10
91.65272255906326
 20
68.81454250370668
 30
0.0
 11
93.81872255906326
 21
69.91854250370666
 31
0.0
  0
LINE
  5
22A
330
1F
100
AcDbEntity
  8
0
  6
Continuous
 62
     7
 48
0.5
370
    25
100
AcDbLine
 10
91.65272255906326
 20
64.93478023490178
 30
0.0
 11
91.65272255906326
 21
43.06172254426898
 31
0.0
  0
LINE
  5
22B
330
1F
100
AcDbEntity
  8
TEXT
  6
Continuous
 62
     7
 48
0.5
370
    25
100
AcDbLine
 10
94.66672655556633
 20
64.5125098375521
 30
0.0
 11
94.66672655556627
 21
40.71962184998446
 31
0.0
  0
CIRCLE
  5
22C
330
1F
100
AcDbEntity
  8
TEXT
  6
DASHED
 62
     7
 48
0.5
370
    25
100
AcDbCircle
 10
77.125
 20
55.9375
 30
0.0
 40
0.6764489872849566
  0
LINE
  5
22D
330
1F
100
AcDbEntity
  8
0
  6
Continuous
 62
     7
 48
0.5
370
    25
100
AcDbLine
 10
93.81872255906326
 20
66.03891765381609
 30
0.0
 11
93.81872255906326
 21
44.16585996318327
 31
0.0
  0
LINE
  5
22E
330
1F
100
AcDbEntity
  8
TEXT
  6
Continuous
 62
     7
 48
0.5
370
    25
100
AcDbLine
 10
91.65272255906326
 20
43.06172254426898
 30
0.0
 11
93.81872255906326
 21
44.16572254426897
 31
0.0
  0
CIRCLE
  5
22F
330
1F
100
AcDbEntity
  8
TEXT
  6
DASHED
 62
     7
 48
0.5
370
    25
100
AcDbCircle
 10
83.9375
 20
52.625
 30
0.0
 40
0.6764489872849566
  0
LINE
  5
230
330
1F
100
AcDbEntity
  8
TEXT
  6
Continuous
 62
     7
 48
4.0
370
    25
100
AcDbLine
 10
70.63881410570443
 20
-81.34942699107879
 30
0.0
 11
32.64342572412281
 21
-81.34942699107879
 31
0.0
  0
LINE
  5
231
330
1F
100
AcDbEntity
  8
TEXT
  6
Continuous
 62
     7
 48
4.0
370
    25
100
AcDbLine
 10
32.64342572412281
 20
-99.10247634060346
 30
0.0
 11
36.58820000000006
 21
-96.10496722141394
 31
0.0
  0
LINE
  5
232
330
1F
100
AcDbEntity
  8
TEXT
  6
Continuous
 62
     7
 48
4.0
370
    25
100
AcDbLine
 10
32.64342572412281
 20
-104.3327174300954
 30
0.0
 11
36.58820000000006
 21
-101.3352083109059
 31
0.0
  0
LINE
  5
233
330
1F
100
AcDbEntity
  8
TEXT
  6
Continuous
 62
     7
 48
4.0
370
    25
100
AcDbLine
 10
32.64342572412281
 20
-93.82079844267471
 30
0.0
 11
36.58820000000006
 21
-90.8232893234852
 31
0.0
  0
LINE
  5
234
330
1F
100
AcDbEntity
  8
TEXT
  6
Continuous
 62
     7
 48
4.0
370
    25
100
AcDbLine
 10
32.64342572412281
 20
-88.59055735318273
 30
0.0
 11
36.58820000000006
 21
-85.59304823399322
 31
0.0
  0
LINE
  5
235
330
1F
100
AcDbEntity
  8
TEXT
  6
Continuous
 62
     7
 48
4.0
370
    25
100
AcDbLine
 10
49.1656352507986
 20
-51.48591945966812
 30
0.0
 11
49.1656352507986
 21
-81.34942699107879
 31
0.0
  0
LINE
  5
236
330
1F
100
AcDbEntity
  8
TEXT
  6
Continuous
 62
     7
 48
4.0
370
    25
100
AcDbLine
 10
42.69980012122946
 20
-83.96841361275087
 30
0.0
 11
40.08081349955742
 21
-81.34942699107879
 31
0.0
  0
LINE
  5
237
330
1F
100
AcDbEntity
  8
TEXT
  6
Continuous
 62
     7
 48
4.0
370
    25
100
AcDbLine
 10
48.81140024245886
 20
-83.96841361275087
 30
0.0
 11
46.19241362078682
 21
-81.34942699107879
 31
0.0
  0
LINE
  5
238
330
1F
100
AcDbEntity
  8
TEXT
  6
Continuous
 62
     7
 48
4.0
370
    25
100
AcDbLine
 10
54.92300036368826
 20
-83.96841361275087
 30
0.0
 11
52.30401374201622
 21
-81.34942699107879
 31
0.0
  0
LINE
  5
239
330
1F
100
AcDbEntity
  8
TEXT
  6
Continuous
 62
     7
 48
4.0
370
    25
100
AcDbLine
 10
61.03460048491766
 20
-83.96841361275087
 30
0.0
 11
58.41561386324562
 21
-81.34942699107879
 31
0.0
  0
LINE
  5
23A
330
1F
100
AcDbEntity
  8
TEXT
  6
Continuous
 62
     7
 48
4.0
370
    25
100
AcDbLine
 10
67.14620060614706
 20
-83.96841361275087
 30
0.0
 11
64.52721398447503
 21
-81.34942699107879
 31
0.0
  0
LINE
  5
23B
330
1F
100
AcDbEntity
  8
TEXT
  6
Continuous
 62
     7
 48
4.0
370
    25
100
AcDbLine
 10
36.58820000000006
 20
-83.96841361275087
 30
0.0
 11
33.96921337832802
 21
-81.34942699107879
 31
0.0
  0
LINE
  5
23C
330
1F
100
AcDbEntity
  8
TEXT
  6
Continuous
 62
     7
 48
10.8
370
    25
100
AcDbLine
 10
32.64342572412281
 20
-75.62527412611281
 30
0.0
 11
49.1656352507986
 21
-75.62527412611281
 31
0.0
  0
LINE
  5
23D
330
1F
100
AcDbEntity
  8
TEXT
  6
Continuous
 62
     7
 48
3.6
370
    25
100
AcDbLine
 10
32.64342572412281
 20
-57.07771786247997
 30
0.0
 11
40.213877993517
 21
-55.0492212905575
 31
0.0
  0
LINE
  5
23E
330
1F
100
AcDbEntity
  8
TEXT
  6
Continuous
 62
     7
 48
10.8
370
    25
100
AcDbLine
 10
32.64342572412275
 20
-75.6252741261128
 30
0.0
 11
49.1656352507986
 21
-81.34942699107879
 31
0.0
  0
LINE
  5
23F
330
1F
100
AcDbEntity
  8
TEXT
  6
Continuous
 62
     7
 48
10.8
370
    25
100
AcDbLine
 10
32.64342572412275
 20
-81.34942699107881
 30
0.0
 11
49.1656352507986
 21
-75.62527412611281
 31
0.0
  0
LINE
  5
240
330
1F
100
AcDbEntity
  8
TEXT
  6
Continuous
 62
     7
 48
10.8
370
    25
100
AcDbLine
 10
32.64342572412275
 20
-81.34942699107881
 30
0.0
 11
32.64342572412275
 21
-75.6252741261128
 31
0.0
  0
LINE
  5
241
330
1F
100
AcDbEntity
  8
TEXT
  6
Continuous
 62
     7
 48
3.6
370
    25
100
AcDbLine
 10
38.99903999638778
 20
-54.2100504478616
 30
0.0
 11
49.1656352507986
 21
-51.48591945966812
 31
0.0
  0
LINE
  5
242
330
1F
100
AcDbEntity
  8
TEXT
  6
Continuous
 62
     7
 48
3.6
370
    25
100
AcDbLine
 10
40.213877993517
 20
-55.0492212905575
 30
0.0
 11
38.99903999638772
 21
-54.21005044786158
 31
0.0
  0
LINE
  5
243
330
1F
100
AcDbEntity
  8
TEXT
  6
Continuous
 62
   112
 48
4.0
370
   100
100
AcDbLine
 10
66.61412474176873
 20
-81.16192699107879
 30
0.0
 11
66.61412474176873
 21
-88.15550551723972
 31
0.0
  0
LINE
  5
244
330
1F
100
AcDbEntity
  8
TEXT
  6
Continuous
 62
   112
 48
4.0
370
   100
100
AcDbLine
 10
66.14537474176873
 20
-81.16192699107879
 30
0.0
 11
67.08287474176873
 21
-81.16192699107879
 31
0.0
  0
LINE
  5
245
330
1F
100
AcDbEntity
  8
TEXT
  6
Continuous
 62
   112
 48
4.0
370
   100
100
AcDbLine
 10
49.6754022972639
 20
-81.16192699107879
 30
0.0
 11
49.6754022972639
 21
-88.15550551723972
 31
0.0
  0
LINE
  5
246
330
1F
100
AcDbEntity
  8
TEXT
  6
Continuous
 62
   112
 48
4.0
370
   100
100
AcDbLine
 10
49.2066522972639
 20
-81.16192699107879
 30
0.0
 11
50.1441522972639
 21
-81.16192699107879
 31
0.0
  0
LINE
  5
247
330
1F
100
AcDbEntity
  8
TEXT
  6
Continuous
 62
   112
 48
4.0
370
   100
100
AcDbLine
 10
34.61883877774764
 20
-81.16192699107879
 30
0.0
 11
34.61883877774764
 21
-88.15550551723972
 31
0.0
  0
LINE
  5
248
330
1F
100
AcDbEntity
  8
TEXT
  6
Continuous
 62
   112
 48
4.0
370
   100
100
AcDbLine
 10
34.15008877774764
 20
-81.16192699107879
 30
0.0
 11
35.08758877774764
 21
-81.16192699107879
 31
0.0
  0
CIRCLE
  5
249
330
1F
100
AcDbEntity
  8
TEXT
  6
Continuous
 62
     7
 48
10.8
370
    25
100
AcDbCircle
 10
47.65851611324726
 20
-106.9047512408296
 30
0.0
 40
0.7674037810609207
  0
CIRCLE
  5
24A
330
1F
100
AcDbEntity
  8
TEXT
  6
Continuous
 62
     7
 48
10.8
370
    25
100
AcDbCircle
 10
41.34840797903851
 20
-98.33731350923277
 30
0.0
 40
0.7674037810609207
  0
CIRCLE
  5
24B
330
1F
100
AcDbEntity
  8
TEXT
  6
Continuous
 62
     7
 48
10.8
370
    25
100
AcDbCircle
 10
47.57761713508123
 20
-90.57812492785246
 30
0.0
 40
0.7674037810609207
  0
CIRCLE
  5
24C
330
1F
100
AcDbEntity
  8
TEXT
  6
Continuous
 62
     7
 48
10.8
370
    25
100
AcDbCircle
 10
39.64953233344298
 20
-111.9158937573581
 30
0.0
 40
0.7674037810609207
  0
LINE
  5
24D
330
1F
100
AcDbEntity
  8
TEXT
  6
Continuous
 62
     7
 48
10.8
370
    25
100
AcDbLine
 10
49.1656352507986
 20
-108.7134243743031
 30
0.0
 11
39.95845209624306
 21
-108.7134243743031
 31
0.0
  0
LINE
  5
24E
330
1F
100
AcDbEntity
  8
TEXT
  6
Continuous
 62
     7
 48
10.8
370
    25
100
AcDbLine
 10
49.1656352507986
 20
-88.42464412830665
 30
0.0
 11
49.1656352507986
 21
-108.7134243743031
 31
0.0
  0
LINE
  5
24F
330
1F
100
AcDbEntity
  8
TEXT
  6
Continuous
 62
     7
 48
10.8
370
    25
100
AcDbLine
 10
39.95845209624306
 20
-109.6774349360267
 30
0.0
 11
44.03131672369838
 21
-114.1336654515825
 31
0.0
  0
LINE
  5
250
330
1F
100
AcDbEntity
  8
TEXT
  6
Continuous
 62
     7
 48
10.8
370
    25
100
AcDbLine
 10
39.95845209624306
 20
-109.6774349360267
 30
0.0
 11
70.63881410570443
 21
-109.6774349360267
 31
0.0
  0
LINE
  5
251
330
1F
100
AcDbEntity
  8
TEXT
  6
Continuous
 62
     7
 48
10.8
370
    25
100
AcDbLine
 10
36.74830263342906
 20
-88.42464412830665
 30
0.0
 11
70.63881410570443
 21
-88.42464412830665
 31
0.0
  0
LWPOLYLINE
  5
252
330
1F
100
AcDbEntity
  8
TEXT
  6
Continuous
 62
     7
 48
10.8
370
    25
100
AcDbPolyline
 90
        5
 70
     0
 43
0.0
 10
70.63881410570443
 20
-114.1336654515825
 10
32.64342572412281
 20
-114.1336654515825
 10
32.64342572412281
 20
-83.96841361275087
 10
36.58820000000006
 20
-83.96841361275087
 10
70.63881410570443
 20
-83.96841361275087
  0
TEXT
  5
253
330
1F
100
AcDbEntity
  8
TEXT
 62
     7
370
    25
100
AcDbText
 10
15.6875
 20
137.4170454545454
 30
0.0
 40
5.0
  1
Ledger Blocking Under Wall Load
 41
1.26
  7
Arial
 11
15.6875
 21
135.9375
 31
0.0
100
AcDbText
 73
     1
  0
TEXT
  5
276
330
1F
100
AcDbEntity
  8
TEXT
 62
     7
370
    25
100
AcDbText
 10
2.0328125
 20
137.1670454545454
 30
0.0
 40
5.0
  1
E9
 41
1.26
  7
Arial
 11
2.0328125
 21
135.6875
 31
0.0
100
AcDbText
 73
     1
  0
TEXT
  5
277
330
1F
100
AcDbEntity
  8
TEXT
 62
     7
370
    25
100
AcDbText
 10
60.625
 20
96.70863636363637
 30
0.0
 40
4.0
  1
OSB/Plywood subfloor
 41
1.26
  7
Arial
 11
60.625
 21
95.525
 31
0.0
100
AcDbText
 73
     1
  0
TEXT
  5
278
330
1F
100
AcDbEntity
  8
TEXT
 62
     7
370
    25
100
AcDbText
 10
15.0
 20
24.25863636363636
 30
0.0
 40
4.0
  1
Verify capacity and
 41
1.26
  7
Arial
 11
15.0
 21
23.075
 31
0.0
100
AcDbText
 73
     1
  0
TEXT
  5
279
330
1F
100
AcDbEntity
  8
TEXT
 62
     7
370
    25
100
AcDbText
 10
15.0
 20
17.95863636363636
 30
0.0
 40
4.0
  1
fastening requirements
 41
1.26
  7
Arial
 11
15.0
 21
16.775
 31
0.0
100
AcDbText
 73
     1
  0
TEXT
  5
27A
330
1F
100
AcDbEntity
  8
TEXT
 62
     7
370
    25
100
AcDbText
 10
15.0
 20
11.65863636363637
 30
0.0
 40
4.0
  1
of hangers and connectors
 41
1.26
  7
Arial
 11
15.0
 21
10.475
 31
0.0
100
AcDbText
 73
     1
  0
TEXT
  5
27B
330
1F
100
AcDbEntity
  8
TEXT
 62
     7
370
    25
100
AcDbText
 10
81.07625
 20
86.875
 30
0.0
 40
4.0
  1
Ledger Block
 41
1.26
  7
Arial
 11
81.07625
 21
90.875
 31
0.0
100
AcDbText
 73
     3
  0
TEXT
  5
27C
330
1F
100
AcDbEntity
  8
TEXT
 62
     7
370
    25
100
AcDbText
 10
100.84625
 20
72.83363636363637
 30
0.0
 40
4.0
  1
Girder (Truss)
 41
1.26
  7
Arial
 11
100.84625
 21
71.65
 31
0.0
100
AcDbText
 73
     1
  0
TEXT
  5
27D
330
1F
100
AcDbEntity
  8
TEXT
 62
     7
370
    25
100
AcDbText
 10
57.303675
 20
-65.71536363636362
 30
0.0
 40
4.0
  1
Panel edge nailing per code
 41
1.26
  7
Arial
 11
57.303675
 21
-66.89899999999999
 31
0.0
100
AcDbText
 73
     1
  0
TEXT
  5
27E
330
1F
100
AcDbEntity
  8
TEXT
 62
     7
370
    25
100
AcDbText
 10
88.36305
 20
-90.72786363636361
 30
0.0
 40
4.0
  1
Ledger Block
 41
1.26
  7
Arial
 11
88.36305
 21
-91.91149999999998
 31
0.0
100
AcDbText
 73
     1
  0
TEXT
  5
27F
330
1F
100
AcDbEntity
  8
TEXT
 62
     7
370
    25
100
AcDbText
 10
75.251175
 20
-97.0278636363636
 30
0.0
 40
4.0
  1
(depth to accomodate
 41
1.26
  7
Arial
 11
75.251175
 21
-98.21149999999997
 31
0.0
100
AcDbText
 73
     1
  0
TEXT
  5
280
330
1F
100
AcDbEntity
  8
TEXT
 62
     7
370
    25
100
AcDbText
 10
73.20367499999999
 20
-103.3278636363636
 30
0.0
 40
4.0
  1
nailing without splitting)
 41
1.26
  7
Arial
 11
73.20367499999999
 21
-104.5115
 31
0.0
100
AcDbText
 73
     1
  0
TEXT
  5
281
330
1F
100
AcDbEntity
  8
TEXT
 62
     7
370
    25
100
AcDbText
 10
3.375
 20
-116.3163636363636
 30
0.0
 40
4.0
  1
Connection:
 41
1.26
  7
Arial
 11
3.375
 21
-117.5
 31
0.0
100
AcDbText
 73
     1
  0
TEXT
  5
282
330
1F
100
AcDbEntity
  8
TEXT
 62
     7
370
    25
100
AcDbText
 10
3.375
 20
-122.6163636363636
 30
0.0
 40
4.0
  1
a) Nail ledger blocks to girder with
 41
1.26
  7
Arial
 11
3.375
 21
-123.8
 31
0.0
100
AcDbText
 73
     1
  0
TEXT
  5
283
330
1F
100
AcDbEntity
  8
TEXT
 62
     7
370
    25
100
AcDbText
 10
3.375
 20
-128.9163636363636
 30
0.0
 40
4.0
  1
   10d (3"x 0.120") or larger nails.
 41
1.26
  7
Arial
 11
3.375
 21
-130.1
 31
0.0
100
AcDbText
 73
     1
  0
TEXT
  5
284
330
1F
100
AcDbEntity
  8
TEXT
 62
     7
370
    25
100
AcDbText
 10
3.375
 20
-135.2163636363636
 30
0.0
 40
4.0
  1
b) The required number of nails per 
 41
1.26
  7
Arial
 11
3.375
 21
-136.4
 31
0.0
100
AcDbText
 73
     1
  0
TEXT
  5
285
330
1F
100
AcDbEntity
  8
TEXT
 62
     7
370
    25
100
AcDbText
 10
3.375
 20
-141.5163636363636
 30
0.0
 40
4.0
  1
   block provided by Design Professional.
 41
1.26
  7
Arial
 11
3.375
 21
-142.7
 31
0.0
100
AcDbText
 73
     1
  0
TEXT
  5
286
330
1F
100
AcDbEntity
  8
TEXT
 62
     7
370
    25
100
AcDbText
 10
4.724299999999999
 20
-9.815363636363614
 30
0.0
 40
4.0
  1
Ledger Block:
 41
1.26
  7
Arial
 11
4.724299999999999
 21
-10.99899999999998
 31
0.0
100
AcDbText
 73
     1
  0
TEXT
  5
287
330
1F
100
AcDbEntity
  8
TEXT
 62
     7
370
    25
100
AcDbText
 10
4.724299999999999
 20
-16.11536363636361
 30
0.0
 40
4.0
  1
a) 1" (min) LP SolidStart Rim Board, 
 41
1.26
  7
Arial
 11
4.724299999999999
 21
-17.29899999999997
 31
0.0
100
AcDbText
 73
     1
  0
TEXT
  5
288
330
1F
100
AcDbEntity
  8
TEXT
 62
     7
370
    25
100
AcDbText
 10
4.724299999999999
 20
-22.41536363636361
 30
0.0
 40
4.0
  1
   LSL or LVL, or 2x lumber (SPF or better)
 41
1.26
  7
Arial
 11
4.724299999999999
 21
-23.59899999999998
 31
0.0
100
AcDbText
 73
     1
  0
TEXT
  5
289
330
1F
100
AcDbEntity
  8
TEXT
 62
     7
370
    25
100
AcDbText
 10
4.724299999999999
 20
-28.71536363636361
 30
0.0
 40
4.0
  1
b) Cut to fit between hangers.
 41
1.26
  7
Arial
 11
4.724299999999999
 21
-29.89899999999998
 31
0.0
100
AcDbText
 73
     1
  0
TEXT
  5
28A
330
1F
100
AcDbEntity
  8
TEXT
 62
     7
370
    25
100
AcDbText
 10
4.724299999999999
 20
-35.01536363636362
 30
0.0
 40
4.0
  1
c) Install with top of block at or 1/16" above 
 41
1.26
  7
Arial
 11
4.724299999999999
 21
-36.19899999999998
 31
0.0
100
AcDbText
 73
     1
  0
TEXT
  5
28B
330
1F
100
AcDbEntity
  8
TEXT
 62
     7
370
    25
100
AcDbText
 10
4.724299999999999
 20
-41.31536363636361
 30
0.0
 40
4.0
  1
   top of I-Joists
 41
1.26
  7
Arial
 11
4.724299999999999
 21
-42.49899999999998
 31
0.0
100
AcDbText
 73
     1
  0
TEXT
  5
28C
330
1F
100
AcDbEntity
  8
TEXT
 62
     7
370
    25
100
AcDbText
 10
4.724299999999999
 20
-47.61536363636361
 30
0.0
 40
4.0
  1
d) Nail block to Girder (bottom chord of truss).
 41
1.26
  7
Arial
 11
4.724299999999999
 21
-48.79899999999998
 31
0.0
100
AcDbText
 73
     1
  0
TEXT
  5
28D
330
1F
100
AcDbEntity
  8
TEXT
 62
     7
370
    25
100
AcDbText
 10
57.3493
 20
-59.27786363636362
 30
0.0
 40
4.0
  1
OSB/Plywood subfloor
 41
1.26
  7
Arial
 11
57.3493
 21
-60.46149999999998
 31
0.0
100
AcDbText
 73
     1
  0
INSERT
  5
28E
330
1F
100
AcDbEntity
  8
5 Hatches
  6
ByBlock
 62
     0
100
AcDbBlockReference
  2
HATCH_0_1333749037
 10
0.0
 20
0.0
 30
0.0
  0
INSERT
  5
28F
330
1F
100
AcDbEntity
  8
5 Hatches
  6
ByBlock
 62
     0
100
AcDbBlockReference
  2
HATCH_1_1333749037
 10
0.0
 20
0.0
 30
0.0
  0
ENDSEC
  0
SECTION
  2
OBJECTS
  0
DICTIONARY
  5
C
330
0
100
AcDbDictionary
281
     1
  3
ACAD_GROUP
350
D
  3
ACAD_LAYOUT
350
1A
  3
ACAD_MLEADERSTYLE
350
292
  3
ACAD_MLINESTYLE
350
17
  3
ACAD_PLOTSETTINGS
350
19
  3
ACAD_PLOTSTYLENAME
350
E
  3
ACAD_SCALELIST
350
254
  3
ACAD_VISUALSTYLE
350
2A
  3
AcDbVariableDictionary
350
290
  0
DICTIONARY
  5
D
102
{ACAD_REACTORS
330
C
102
}
330
C
100
AcDbDictionary
281
     1
  0
DICTIONARY
  5
1A
102
{ACAD_REACTORS
330
C
102
}
330
C
100
AcDbDictionary
281
     1
  3
Layout1
350
1E
  3
Layout2
350
26
  3
Model
350
22
  0
DICTIONARY
  5
292
102
{ACAD_REACTORS
330
C
102
}
330
C
100
AcDbDictionary
281
     1
  0
DICTIONARY
  5
17
102
{ACAD_REACTORS
330
C
102
}
330
C
100
AcDbDictionary
281
     1
  3
Standard
350
18
  0
DICTIONARY
  5
19
102
{ACAD_REACTORS
330
C
102
}
330
C
100
AcDbDictionary
281
     1
  0
ACDBDICTIONARYWDFLT
  5
E
102
{ACAD_REACTORS
330
C
102
}
330
C
100
AcDbDictionary
281
     1
  3
Normal
350
F
100
AcDbDictionaryWithDefault
340
F
  0
DICTIONARY
  5
254
102
{ACAD_REACTORS
330
C
102
}
330
C
100
AcDbDictionary
281
     1
  3
A0
350
255
  3
A1
350
256
  3
A2
350
257
  3
A3
350
258
  3
A4
350
259
  3
A5
350
25A
  3
A6
350
25B
  3
A7
350
25C
  3
A8
350
25D
  3
A9
350
25E
  3
B0
350
25F
  3
B1
350
260
  3
B2
350
261
  3
B3
350
262
  3
B4
350
263
  3
B5
350
264
  3
B6
350
265
  3
B7
350
266
  3
B8
350
267
  3
B9
350
268
  3
C0
350
269
  3
C1
350
26A
  3
C2
350
26B
  3
C3
350
26C
  3
C4
350
26D
  3
C5
350
26E
  3
C6
350
26F
  3
C7
350
270
  3
C8
350
271
  3
C9
350
272
  3
D0
350
273
  3
D1
350
274
  3
D2
350
275
  0
DICTIONARY
  5
2A
102
{ACAD_REACTORS
330
C
102
}
330
C
100
AcDbDictionary
281
     1
  3
2dWireframe
350
2F
  3
3D Hidden
350
31
  3
3dWireframe
350
30
  3
Basic
350
32
  3
Brighten
350
36
  3
ColorChange
350
3A
  3
Conceptual
350
34
  3
Dim
350
35
  3
Facepattern
350
39
  3
Flat
350
2B
  3
FlatWithEdges
350
2C
  3
Gouraud
350
2D
  3
GouraudWithEdges
350
2E
  3
Linepattern
350
38
  3
Realistic
350
33
  3
Thicken
350
37
  0
DICTIONARY
  5
290
102
{ACAD_REACTORS
330
C
102
}
330
C
100
AcDbDictionary
281
     1
  3
CANNOSCALE
350
293
  0
LAYOUT
  5
1E
102
{ACAD_REACTORS
330
1A
102
}
330
1A
100
AcDbPlotSettings
  1

  2
none_device
  4

  6

 40
0.0
 41
0.0
 42
0.0
 43
0.0
 44
0.0
 45
0.0
 46
0.0
 47
0.0
 48
0.0
 49
0.0
140
0.0
141
0.0
142
1.0
143
1.0
 70
   688
 72
     0
 73
     0
 74
     5
  7

 75
    16
147
1.0
148
0.0
149
0.0
100
AcDbLayout
  1
Layout1
 70
     1
 71
     1
 10
0.0
 20
0.0
 11
12.0
 21
9.0
 12
0.0
 22
0.0
 32
0.0
 14
1.000000000000000E+20
 24
1.000000000000000E+20
 34
1.000000000000000E+20
 15
-1.000000000000000E+20
 25
-1.000000000000000E+20
 35
-1.000000000000000E+20
146
0.0
 13
0.0
 23
0.0
 33
0.0
 16
1.0
 26
0.0
 36
0.0
 17
0.0
 27
1.0
 37
0.0
 76
     0
330
1B
  0
LAYOUT
  5
26
102
{ACAD_REACTORS
330
1A
102
}
330
1A
100
AcDbPlotSettings
  1

  2
none_device
  4

  6

 40
0.0
 41
0.0
 42
0.0
 43
0.0
 44
0.0
 45
0.0
 46
0.0
 47
0.0
 48
0.0
 49
0.0
140
0.0
141
0.0
142
1.0
143
1.0
 70
   688
 72
     0
 73
     0
 74
     5
  7

 75
    16
147
1.0
148
0.0
149
0.0
100
AcDbLayout
  1
Layout2
 70
     1
 71
     2
 10
0.0
 20
0.0
 11
0.0
 21
0.0
 12
0.0
 22
0.0
 32
0.0
 14
0.0
 24
0.0
 34
0.0
 15
0.0
 25
0.0
 35
0.0
146
0.0
 13
0.0
 23
0.0
 33
0.0
 16
1.0
 26
0.0
 36
0.0
 17
0.0
 27
1.0
 37
0.0
 76
     0
330
23
  0
LAYOUT
  5
22
102
{ACAD_REACTORS
330
1A
102
}
330
1A
100
AcDbPlotSettings
  1

  2
none_device
  4

  6

 40
0.0
 41
0.0
 42
0.0
 43
0.0
 44
0.0
 45
0.0
 46
0.0
 47
0.0
 48
0.0
 49
0.0
140
0.0
141
0.0
142
1.0
143
1.0
 70
  1712
 72
     0
 73
     0
 74
     0
  7

 75
     0
147
1.0
148
0.0
149
0.0
100
AcDbLayout
  1
Model
 70
     1
 71
     0
 10
-7.381308695709634
 20
-159.63615
 11
152.4796051759862
 21
159.60915
 12
0.0
 22
0.0
 32
0.0
 14
-7.381308695709634
 24
-159.63615
 34
0.0
 15
152.4796051759862
 25
159.60915
 35
0.0
146
0.0
 13
0.0
 23
0.0
 33
0.0
 16
1.0
 26
0.0
 36
0.0
 17
0.0
 27
1.0
 37
0.0
 76
     0
330
1F
331
29
  0
MLINESTYLE
  5
18
102
{ACAD_REACTORS
330
17
102
}
330
17
100
AcDbMlineStyle
  2
Standard
 70
     0
  3

 62
   256
 51
90.0
 52
90.0
 71
     2
 49
0.5
 62
   256
  6
BYLAYER
 49
-0.5
 62
   256
  6
BYLAYER
  0
ACDBPLACEHOLDER
  5
F
102
{ACAD_REACTORS
330
E
102
}
330
E
  0
SCALE
  5
255
102
{ACAD_REACTORS
330
254
102
}
330
254
100
AcDbScale
 70
     0
300
1:1
140
1.0
141
1.0
290
     1
  0
SCALE
  5
256
102
{ACAD_REACTORS
330
254
102
}
330
254
100
AcDbScale
 70
     0
300
1:2
140
1.0
141
2.0
290
     0
  0
SCALE
  5
257
102
{ACAD_REACTORS
330
254
102
}
330
254
100
AcDbScale
 70
     0
300
1:4
140
1.0
141
4.0
290
     0
  0
SCALE
  5
258
102
{ACAD_REACTORS
330
254
102
}
330
254
100
AcDbScale
 70
     0
300
1:5
140
1.0
141
5.0
290
     0
  0
SCALE
  5
259
102
{ACAD_REACTORS
330
254
102
}
330
254
100
AcDbScale
 70
     0
300
1:8
140
1.0
141
8.0
290
     0
  0
SCALE
  5
25A
102
{ACAD_REACTORS
330
254
102
}
330
254
100
AcDbScale
 70
     0
300
1:10
140
1.0
141
10.0
290
     0
  0
SCALE
  5
25B
102
{ACAD_REACTORS
330
254
102
}
330
254
100
AcDbScale
 70
     0
300
1:16
140
1.0
141
16.0
290
     0
  0
SCALE
  5
25C
102
{ACAD_REACTORS
330
254
102
}
330
254
100
AcDbScale
 70
     0
300
1:20
140
1.0
141
20.0
290
     0
  0
SCALE
  5
25D
102
{ACAD_REACTORS
330
254
102
}
330
254
100
AcDbScale
 70
     0
300
1:30
140
1.0
141
30.0
290
     0
  0
SCALE
  5
25E
102
{ACAD_REACTORS
330
254
102
}
330
254
100
AcDbScale
 70
     0
300
1:40
140
1.0
141
40.0
290
     0
  0
SCALE
  5
25F
102
{ACAD_REACTORS
330
254
102
}
330
254
100
AcDbScale
 70
     0
300
1:50
140
1.0
141
50.0
290
     0
  0
SCALE
  5
260
102
{ACAD_REACTORS
330
254
102
}
330
254
100
AcDbScale
 70
     0
300
1:100
140
1.0
141
100.0
290
     0
  0
SCALE
  5
261
102
{ACAD_REACTORS
330
254
102
}
330
254
100
AcDbScale
 70
     0
300
2:1
140
2.0
141
1.0
290
     0
  0
SCALE
  5
262
102
{ACAD_REACTORS
330
254
102
}
330
254
100
AcDbScale
 70
     0
300
4:1
140
4.0
141
1.0
290
     0
  0
SCALE
  5
263
102
{ACAD_REACTORS
330
254
102
}
330
254
100
AcDbScale
 70
     0
300
8:1
140
8.0
141
1.0
290
     0
  0
SCALE
  5
264
102
{ACAD_REACTORS
330
254
102
}
330
254
100
AcDbScale
 70
     0
300
10:1
140
10.0
141
1.0
290
     0
  0
SCALE
  5
265
102
{ACAD_REACTORS
330
254
102
}
330
254
100
AcDbScale
 70
     0
300
100:1
140
100.0
141
1.0
290
     0
  0
SCALE
  5
266
102
{ACAD_REACTORS
330
254
102
}
330
254
100
AcDbScale
 70
     0
300
1/128" = 1'-0"
140
0.0078125
141
12.0
290
     0
  0
SCALE
  5
267
102
{ACAD_REACTORS
330
254
102
}
330
254
100
AcDbScale
 70
     0
300
1/64" = 1'-0"
140
0.015625
141
12.0
290
     0
  0
SCALE
  5
268
102
{ACAD_REACTORS
330
254
102
}
330
254
100
AcDbScale
 70
     0
300
1/32" = 1'-0"
140
0.03125
141
12.0
290
     0
  0
SCALE
  5
269
102
{ACAD_REACTORS
330
254
102
}
330
254
100
AcDbScale
 70
     0
300
1/16" = 1'-0"
140
0.0625
141
12.0
290
     0
  0
SCALE
  5
26A
102
{ACAD_REACTORS
330
254
102
}
330
254
100
AcDbScale
 70
     0
300
3/32" = 1'-0"
140
0.09375
141
12.0
290
     0
  0
SCALE
  5
26B
102
{ACAD_REACTORS
330
254
102
}
330
254
100
AcDbScale
 70
     0
300
1/8" = 1'-0"
140
0.125
141
12.0
290
     0
  0
SCALE
  5
26C
102
{ACAD_REACTORS
330
254
102
}
330
254
100
AcDbScale
 70
     0
300
3/16" = 1'-0"
140
0.1875
141
12.0
290
     0
  0
SCALE
  5
26D
102
{ACAD_REACTORS
330
254
102
}
330
254
100
AcDbScale
 70
     0
300
1/4" = 1'-0"
140
0.25
141
12.0
290
     0
  0
SCALE
  5
26E
102
{ACAD_REACTORS
330
254
102
}
330
254
100
AcDbScale
 70
     0
300
3/8" = 1'-0"
140
0.375
141
12.0
290
     0
  0
SCALE
  5
26F
102
{ACAD_REACTORS
330
254
102
}
330
254
100
AcDbScale
 70
     0
300
1/2" = 1'-0"
140
0.5
141
12.0
290
     0
  0
SCALE
  5
270
102
{ACAD_REACTORS
330
254
102
}
330
254
100
AcDbScale
 70
     0
300
3/4" = 1'-0"
140
0.75
141
12.0
290
     0
  0
SCALE
  5
271
102
{ACAD_REACTORS
330
254
102
}
330
254
100
AcDbScale
 70
     0
300
1" = 1'-0"
140
1.0
141
12.0
290
     0
  0
SCALE
  5
272
102
{ACAD_REACTORS
330
254
102
}
330
254
100
AcDbScale
 70
     0
300
1-1/2" = 1'-0"
140
1.5
141
12.0
290
     0
  0
SCALE
  5
273
102
{ACAD_REACTORS
330
254
102
}
330
254
100
AcDbScale
 70
     0
300
3" = 1'-0"
140
3.0
141
12.0
290
     0
  0
SCALE
  5
274
102
{ACAD_REACTORS
330
254
102
}
330
254
100
AcDbScale
 70
     0
300
6" = 1'-0"
140
6.0
141
12.0
290
     0
  0
SCALE
  5
275
102
{ACAD_REACTORS
330
254
102
}
330
254
100
AcDbScale
 70
     0
300
1'-0" = 1'-0"
140
12.0
141
12.0
290
     0
  0
VISUALSTYLE
  5
2F
102
{ACAD_REACTORS
330
2A
102
}
330
2A
100
AcDbVisualStyle
  2
2dWireframe
 70
     4
 71
     0
 72
     2
 73
     0
 90
        0
 40
-0.6
 41
-30.0
 62
     5
 63
     7
 74
     1
 91
        4
 64
     7
 65
   257
 75
     1
175
     1
 42
1.0
 92
        0
 66
   257
 43
1.0
 76
     1
 77
     6
 78
     2
 67
     7
 79
     5
170
     0
171
     0
290
     0
174
     0
 93
        1
 44
0.0
173
     0
291
     0
 45
0.0
1001
ACAD
1000
AcDbSavedByObjectVersion
1070
     0
  0
VISUALSTYLE
  5
31
102
{ACAD_REACTORS
330
2A
102
}
330
2A
100
AcDbVisualStyle
  2
3D Hidden
 70
     6
 71
     1
 72
     2
 73
     2
 90
        0
 40
-0.6
 41
-30.0
 62
     5
 63
     7
 74
     2
 91
        2
 64
     7
 65
   257
 75
     2
175
     1
 42
40.0
 92
        0
 66
   257
 43
1.0
 76
     1
 77
     6
 78
     2
 67
     7
 79
     3
170
     0
171
     0
290
     0
174
     0
 93
        1
 44
0.0
173
     0
291
     0
 45
0.0
1001
ACAD
1000
AcDbSavedByObjectVersion
1070
     0
  0
VISUALSTYLE
  5
30
102
{ACAD_REACTORS
330
2A
102
}
330
2A
100
AcDbVisualStyle
  2
3dWireframe
 70
     5
 71
     0
 72
     2
 73
     0
 90
        0
 40
-0.6
 41
-30.0
 62
     5
 63
     7
 74
     1
 91
        4
 64
     7
 65
   257
 75
     1
175
     1
 42
1.0
 92
        0
 66
   257
 43
1.0
 76
     1
 77
     6
 78
     2
 67
     7
 79
     5
170
     0
171
     0
290
     0
174
     0
 93
        1
 44
0.0
173
     0
291
     0
 45
0.0
1001
ACAD
1000
AcDbSavedByObjectVersion
1070
     0
  0
VISUALSTYLE
  5
32
102
{ACAD_REACTORS
330
2A
102
}
330
2A
100
AcDbVisualStyle
  2
Basic
 70
     7
 71
     1
 72
     0
 73
     1
 90
        0
 40
-0.6
 41
-30.0
 62
     5
 63
     7
 74
     0
 91
        4
 64
     7
 65
   257
 75
     1
175
     1
 42
1.0
 92
        8
 66
     7
 43
1.0
 76
     1
 77
     6
 78
     2
 67
     7
 79
     5
170
     0
171
     0
290
     0
174
     0
 93
        1
 44
0.0
173
     0
291
     1
 45
0.0
1001
ACAD
1000
AcDbSavedByObjectVersion
1070
     0
  0
VISUALSTYLE
  5
36
102
{ACAD_REACTORS
330
2A
102
}
330
2A
100
AcDbVisualStyle
  2
Brighten
 70
    12
 71
     2
 72
     2
 73
     0
 90
        0
 40
-0.6
 41
-30.0
 62
     5
 63
     7
 74
     1
 91
        4
 64
     7
 65
   257
 75
     1
175
     1
 42
1.0
 92
        8
 66
     7
 43
1.0
 76
     1
 77
     6
 78
     2
 67
     7
 79
     5
170
     0
171
     0
290
     0
174
     0
 93
        1
 44
50.0
173
     0
291
     1
 45
0.0
1001
ACAD
1000
AcDbSavedByObjectVersion
1070
     0
  0
VISUALSTYLE
  5
3A
102
{ACAD_REACTORS
330
2A
102
}
330
2A
100
AcDbVisualStyle
  2
ColorChange
 70
    16
 71
     2
 72
     2
 73
     3
 90
        0
 40
-0.6
 41
-30.0
 62
     5
 63
     8
 74
     1
 91
        4
 64
     7
 65
   257
 75
     1
175
     1
 42
1.0
 92
        8
 66
     8
 43
1.0
 76
     1
 77
     6
 78
     2
 67
     7
 79
     5
170
     0
171
     0
290
     0
174
     0
 93
        1
 44
0.0
173
     0
291
     1
 45
0.0
1001
ACAD
1000
AcDbSavedByObjectVersion
1070
     0
  0
VISUALSTYLE
  5
34
102
{ACAD_REACTORS
330
2A
102
}
330
2A
100
AcDbVisualStyle
  2
Conceptual
 70
     9
 71
     3
 72
     2
 73
     0
 90
        0
 40
-0.6
 41
-30.0
 62
     5
 63
     7
 74
     2
 91
        2
 64
     7
 65
   257
 75
     1
175
     1
 42
40.0
 92
        8
 66
     7
 43
1.0
 76
     1
 77
     6
 78
     2
 67
     7
 79
     3
170
     0
171
     0
290
     0
174
     0
 93
        1
 44
0.0
173
     0
291
     0
 45
0.0
1001
ACAD
1000
AcDbSavedByObjectVersion
1070
     0
  0
VISUALSTYLE
  5
35
102
{ACAD_REACTORS
330
2A
102
}
330
2A
100
AcDbVisualStyle
  2
Dim
 70
    11
 71
     2
 72
     2
 73
     0
 90
        0
 40
-0.6
 41
-30.0
 62
     5
 63
     7
 74
     1
 91
        4
 64
     7
 65
   257
 75
     1
175
     1
 42
1.0
 92
        8
 66
     7
 43
1.0
 76
     1
 77
     6
 78
     2
 67
     7
 79
     5
170
     0
171
     0
290
     0
174
     0
 93
        1
 44
-50.0
173
     0
291
     1
 45
0.0
1001
ACAD
1000
AcDbSavedByObjectVersion
1070
     0
  0
VISUALSTYLE
  5
39
102
{ACAD_REACTORS
330
2A
102
}
330
2A
100
AcDbVisualStyle
  2
Facepattern
 70
    15
 71
     2
 72
     2
 73
     0
 90
        0
 40
-0.6
 41
-30.0
 62
     5
 63
     7
 74
     1
 91
        4
 64
     7
 65
   257
 75
     1
175
     1
 42
1.0
 92
        8
 66
     7
 43
1.0
 76
     1
 77
     6
 78
     2
 67
     7
 79
     5
170
     0
171
     0
290
     0
174
     0
 93
        1
 44
0.0
173
     0
291
     1
 45
0.0
1001
ACAD
1000
AcDbSavedByObjectVersion
1070
     0
  0
VISUALSTYLE
  5
2B
102
{ACAD_REACTORS
330
2A
102
}
330
2A
100
AcDbVisualStyle
  2
Flat
 70
     0
 71
     2
 72
     1
 73
     1
 90
        2
 40
-0.6
 41
30.0
 62
     5
 63
     7
 74
     0
 91
        4
 64
     7
 65
   257
 75
     1
175
     1
 42
1.0
 92
        8
 66
     7
 43
1.0
 76
     1
 77
     6
 78
     2
 67
     7
 79
     5
170
     0
171
     0
290
     0
174
     0
 93
       13
 44
0.0
173
     0
291
     1
 45
0.0
1001
ACAD
1000
AcDbSavedByObjectVersion
1070
     0
  0
VISUALSTYLE
  5
2C
102
{ACAD_REACTORS
330
2A
102
}
330
2A
100
AcDbVisualStyle
  2
FlatWithEdges
 70
     1
 71
     2
 72
     1
 73
     1
 90
        2
 40
-0.6
 41
30.0
 62
     5
 63
     7
 74
     1
 91
        4
 64
     7
 65
   257
 75
     1
175
     1
 42
1.0
 92
        0
 66
   257
 43
1.0
 76
     1
 77
     6
 78
     2
 67
     7
 79
     5
170
     0
171
     0
290
     0
174
     0
 93
       13
 44
0.0
173
     0
291
     1
 45
0.0
1001
ACAD
1000
AcDbSavedByObjectVersion
1070
     0
  0
VISUALSTYLE
  5
2D
102
{ACAD_REACTORS
330
2A
102
}
330
2A
100
AcDbVisualStyle
  2
Gouraud
 70
     2
 71
     2
 72
     2
 73
     1
 90
        2
 40
-0.6
 41
30.0
 62
     5
 63
     7
 74
     0
 91
        4
 64
     7
 65
   257
 75
     1
175
     1
 42
1.0
 92
        0
 66
     7
 43
1.0
 76
     1
 77
     6
 78
     2
 67
     7
 79
     5
170
     0
171
     0
290
     0
174
     0
 93
       13
 44
0.0
173
     0
291
     1
 45
0.0
1001
ACAD
1000
AcDbSavedByObjectVersion
1070
     0
  0
VISUALSTYLE
  5
2E
102
{ACAD_REACTORS
330
2A
102
}
330
2A
100
AcDbVisualStyle
  2
GouraudWithEdges
 70
     3
 71
     2
 72
     2
 73
     1
 90
        2
 40
-0.6
 41
30.0
 62
     5
 63
     7
 74
     1
 91
        4
 64
     7
 65
   257
 75
     1
175
     1
 42
1.0
 92
        0
 66
   257
 43
1.0
 76
     1
 77
     6
 78
     2
 67
     7
 79
     5
170
     0
171
     0
290
     0
174
     0
 93
       13
 44
0.0
173
     0
291
     1
 45
0.0
1001
ACAD
1000
AcDbSavedByObjectVersion
1070
     0
  0
VISUALSTYLE
  5
38
102
{ACAD_REACTORS
330
2A
102
}
330
2A
100
AcDbVisualStyle
  2
Linepattern
 70
    14
 71
     2
 72
     2
 73
     0
 90
        0
 40
-0.6
 41
-30.0
 62
     5
 63
     7
 74
     1
 91
        4
 64
     7
 65
   257
 75
     7
175
     7
 42
1.0
 92
        8
 66
     7
 43
1.0
 76
     1
 77
     6
 78
     2
 67
     7
 79
     5
170
     0
171
     0
290
     0
174
     0
 93
        1
 44
0.0
173
     0
291
     1
 45
0.0
1001
ACAD
1000
AcDbSavedByObjectVersion
1070
     0
  0
VISUALSTYLE
  5
33
102
{ACAD_REACTORS
330
2A
102
}
330
2A
100
AcDbVisualStyle
  2
Realistic
 70
     8
 71
     2
 72
     2
 73
     0
 90
        0
 40
-0.6
 41
-30.0
 62
     5
 63
     7
 74
     1
 91
        0
 64
     7
 65
   257
 75
     1
175
     1
 42
1.0
 92
        8
 66
     8
 43
1.0
 76
     1
 77
     6
 78
     2
 67
     7
 79
     5
170
     0
171
     0
290
     0
174
     0
 93
       13
 44
0.0
173
     0
291
     0
 45
0.0
1001
ACAD
1000
AcDbSavedByObjectVersion
1070
     0
  0
VISUALSTYLE
  5
37
102
{ACAD_REACTORS
330
2A
102
}
330
2A
100
AcDbVisualStyle
  2
Thicken
 70
    13
 71
     2
 72
     2
 73
     0
 90
        0
 40
-0.6
 41
-30.0
 62
     5
 63
     7
 74
     1
 91
        4
 64
     7
 65
   257
 75
     1
175
     1
 42
1.0
 92
       12
 66
     7
 43
1.0
 76
     1
 77
     6
 78
     2
 67
     7
 79
     5
170
     0
171
     0
290
     0
174
     0
 93
        1
 44
0.0
173
     0
291
     1
 45
0.0
1001
ACAD
1000
AcDbSavedByObjectVersion
1070
     0
  0
DICTIONARYVAR
  5
293
102
{ACAD_REACTORS
330
290
102
}
330
290
100
DictionaryVariables
280
     0
  1
1:1
  0
ENDSEC
  0
SECTION
  2
THUMBNAILIMAGE
 90
    24370
310
28000000D2000000A30100000100080000000000FC5A010000000000000000000000000000000000000000000000330000006600000099000000CC000000FF00003300000033330000336600003399000033CC000033FF00006600000066330000666600006699000066CC000066FF00009900000099330000996600009999
310
000099CC000099FF0000CC000000CC330000CC660000CC990000CCCC0000CCFF0000FF000000FF330000FF660000FF990000FFCC0000FFFF00330000003300330033006600330099003300CC003300FF00333300003333330033336600333399003333CC003333FF00336600003366330033666600336699003366CC003366
310
FF00339900003399330033996600339999003399CC003399FF0033CC000033CC330033CC660033CC990033CCCC0033CCFF0033FF000033FF330033FF660033FF990033FFCC0033FFFF00660000006600330066006600660099006600CC006600FF00663300006633330066336600663399006633CC006633FF006666000066
310
66330066666600666699006666CC006666FF00669900006699330066996600669999006699CC006699FF0066CC000066CC330066CC660066CC990066CCCC0066CCFF0066FF000066FF330066FF660066FF990066FFCC0066FFFF00990000009900330099006600990099009900CC009900FF00993300009933330099336600
310
993399009933CC009933FF00996600009966330099666600996699009966CC009966FF00999900009999330099996600999999009999CC009999FF0099CC000099CC330099CC660099CC990099CCCC0099CCFF0099FF000099FF330099FF660099FF990099FFCC0099FFFF00CC000000CC003300CC006600CC009900CC00CC
310
00CC00FF00CC330000CC333300CC336600CC339900CC33CC00CC33FF00CC660000CC663300CC666600CC669900CC66CC00CC66FF00CC990000CC993300CC996600CC999900CC99CC00CC99FF00CCCC0000CCCC3300CCCC6600CCCC9900CCCCCC00CCCCFF00CCFF0000CCFF3300CCFF6600CCFF9900CCFFCC00CCFFFF00FF00
310
0000FF003300FF006600FF009900FF00CC00FF00FF00FF330000FF333300FF336600FF339900FF33CC00FF33FF00FF660000FF663300FF666600FF669900FF66CC00FF66FF00FF990000FF993300FF996600FF999900FF99CC00FF99FF00FFCC0000FFCC3300FFCC6600FFCC9900FFCCCC00FFCCFF00FFFF0000FFFF3300FF
310
FF6600FFFF9900FFFFCC00FFFFFF0000000000000000000000000000000000000000000000000000000000000000000000000000000000000000000000000000000000000000000000000000000000000000000000000000000000000000000000000000000000000000000000000000000000000000000000000000000000
310
000000000000000000000000000000000000000000000000000000000000000000000000000000000000000000000000D7D7D7D7D7D7D7D7D7D7D7D7D7D7D7D7D7D7D7D7D7D7D7D7D7D7D7D7D7D7D7D7D7D7D7D7D7D7D7D7D7D7D7D7D7D7D7D7D7D7D7D7D7D7D7D7D7D7D7D7D7D7D7D7D7D7D7D7D7D7D7D7D7D7D7D7D7D7D7
310
D7D7D7D7D7D7D7D7D7D7D7D7D7D7D7D7D7D7D7D7D7D7D7D7D7D7D7D7D7D7D7D7D7D7D7D7D7D7D7D7D7D7D7D7D7D7D7D7D7D7D7D7D7D7D7D7D7D7D7D7D7D7D7D7D7D7D7D7D7D7D7D7D7D7D7D7D7D7D7D7D7D7D7D7D7D7D7D7D7D7D7D7D7D7D7D7D7D7D7D7D7D7D7D7D7D7D7D7D7D7D7D7D7D7D7D7D7D7D7D7D7D7D7D7D7D7D7
310
D7D7D7D70000D7D7D7D7D7D7D7D7D7D7D7D7D7D7D7D7D7D7D7D7D7D7D7D7D7D7D7D7D7D7D7D7D7D7D7D7D7D7D7D7D7D7D7D7D7D7D7D7D7D7D7D7D7D7D7D7D7D7D7D7D7D7D7D7D7D7D7D7D7D7D7D7D7D7D7D7D7D7D7D7D7D7D7D7D7D7D7D7D7D7D7D7D7D7D7D7D7D7D7D7D7D7D7D7D7D7D7D7D7D7D7D7D7D7D7D7D7D7D7D7D7
310
D7D7D7D7D7D7D7D7D7D7D7D7D7D7D7D7D7D7D7D7D7D7D7D7D7D7D7D7D7D7D7D7D7D7D7D7D7D7D7D7D7D7D7D7D7D7D7D7D7D7D7D7D7D7D7D7D7D7D7D7D7D7D7D7D7D7D7D7D7D7D7D7D7D7D7D7D7D7D7D7D7D7D7D7D7D7D7D7D70000D7D7D7D7D7D7D7D7D7D7D7D7D7D7D7D7D7D7D7D7D7D7D7D7D7D7D7D7D7D7D7D7D7D7D7D7
310
D7D7D7D7D7D7D7D7D7D7D7D7D7D7D7D7D7D7D7D7D7D7D7D7D7D7D7D7D7D7D7D7D7D7D7D7D7D7D7D7D7D7D7D7D7D7D7D7D7D7D7D7D7D7D7D7D7D7D7D7D7D7D7D7D7D7D7D7D7D7D7D7D7D7D7D7D7D7D7D7D7D7D7D7D7D7D7D7D7D7D7D7D7D7D7D7D7D7D7D7D7D7D7D7D7D7D7D7D7D7D7D7D7D7D7D7D7D7D7D7D7D7D7D7D7D7D7
310
D7D7D7D7D7D7D7D7D7D7D7D7D7D7D7D7D7D7D7D7D7D7D7D7D7D7D7D7D7D7D7D7D7D7D7D7D7D7D7D7D7D7D7D7D7D7D70000D7D7D7D7D7D7D7D7D7D7D7D7D7D7D7D7D7D7D7D7D7D7D7D7D7D7D7D7D7D7D7D7D7D7D7D7D7D7D7D7D7D7D7D7D7D7D7D7D7D7D7D7D7D7D7D7D7D7D7D7D7D7D7D7D7D7D7D7D7D7D7D7D7D7D7D7D7D7
310
D7D7D7D7D7D7D7D7D7D7D7D7D7D7D7D7D7D7D7D7D7D7D7D7D7D7D7D7D7D7D7D7D7D7D7D7D7D7D7D7D7D7D7D7D7D7D7D7D7D7D7D7D7D7D7D7D7D7D7D7D7D7D7D7D7D7D7D7D7D7D7D7D7D7D7D7D7D7D7D7D7D7D7D7D7D7D7D7D7D7D7D7D7D7D7D7D7D7D7D7D7D7D7D7D7D7D7D7D7D7D7D7D7D7D7D7D7D7D7D7D7D7D7D7D7D7D7
310
D7D7D7D7D70000D7D7D7D7D7D7D7D7D7D7D7D7D7D7D7D7D7D7D7D7D7D7D7D7D7D7D7D7D7D7D7D7D7D7D7D7D7D7D7D7D7D7D7D7D7D7D7D7D7D7D7D7D7D7D7D7D7D7D7D7D7D7D7D7D7D7D7D7D7D7D7D7D7D7D7D7D7D7D7D7D7D7D7D7D7D7D7D7D7D7D7D7D7D7D7D7D7D7D7D7D7D7D7D7D7D7D7D7D7D7D7D7D7D7D7D7D7D7D7D7
310
D7D7D7D7D7D7D7D7D7D7D7D7D7D7D7D7D7D7D7D7D7D7D7D7D7D7D7D7D7D7D7D7D7D7D7D7D7D7D7D7D7D7D7D7D7D7D7D7D7D7D7D7D7D7D7D7D7D7D7D7D7D7D7D7D7D7D7D7D7D7D7D7D7D7D7D7D7D7D7D7D7D7D7D7D7D7D7D7D7D70000D7D7D7D7D7D7D7D7D7D7D7D7D7D7D7D7D7D7D7D7D7D7D7D7D7D7D7D7D7D7D7D7D7D7D7
310
D7D7D7D7D7D7D7D7D7D7D7D7D7D7D7D7D7D7D7D7D7D7D7D7D7D7D7D7D7D7D7D7D7D7D7D7D7D7D7D7D7D7D7D7D7D7D7D7D7D7D7D7D7D7D7D7D7D7D7D7D7D7D7D7D7D7D7D7D7D7D7D7D7D7D7D7D7D7D7D7D7D7D7D7D7D7D7D7D7D7D7D7D7D7D7D7D7D7D7D7D7D7D7D7D7D7D7D7D7D7D7D7D7D7D7D7D7D7D7D7D7D7D7D7D7D7D7
310
D7D7D7D7D7D7D7D7D7D7D7D7D7D7D7D7D7D7D7D7D7D7D7D7D7D7D7D7D7D7D7D7D7D7D7D7D7D7D7D7D7D7D7D7D7D7D7D70000D7D7D7D7D7D7D7D7D7D7D7D7D7D7D7D7D7D7D7D7D7D7D7D7D7D7D7D7D7D7D7D7D7D7D7D7D7D7D7D7D7D7D7D7D7D7D7D7D7D7D7D7D7D7D7D7D7D7D7D7D7D7D7D7D7D7D7D7D7D7D7D7D7D7D7D7D7
310
D7D7D7D7D7D7D7D7D7D7D7D7D7D7D7D7D7D7D7D7D7D7D7D7D7D7D7D7D7D7D7D7D7D7D7D7D7D7D7D7D7D7D7D7D7D7D7D7D7D7D7D7D7D7D7D7D7D7D7D7D7D7D7D7D7D7D7D7D7D7D7D7D7D7D7D7D7D7D7D7D7D7D7D7D7D7D7D7D7D7D7D7D7D7D7D7D7D7D7D7D7D7D7D7D7D7D7D7D7D7D7D7D7D7D7D7D7D7D7D7D7D7D7D7D7D7D7
310
D7D7D7D7D7D70000D7D7D7D7D7D7D7D7D7D7D7D7D7D7D7D7D7D7D7D7D7D7D7D7D7D7D7D7D7D7D7D7D7D7D7D7D7D7D7D7D7D7D7D7D7D7D7D7D7D7D7D7D7D7D7D7D7D7D7D7D7D7D7D7D7D7D7D7D7D7D7D7D7D7D7D7D7D7D7D7D7D7D7D7D7D7D7D7D7D7D7D7D7D7D7D7D7D7D7D7D7D7D7D7D7D7D7D7D7D7D7D7D7D7D7D7D7D7D7
310
D7D7D7D7D7D7D7D7D7D7D7D7D7D7D7D7D7D7D7D7D7D7D7D7D7D7D7D7D7D7D7D7D7D7D7D7D7D7D7D7D7D7D7D7D7D7D7D7D7D7D7D7D7D7D7D7D7D7D7D7D7D7D7D7D7D7D7D7D7D7D7D7D7D7D7D7D7D7D7D7D7D7D7D7D7D7D7D7D7D7D70000D7D7D7D7D7D7D7D7D7D7D7D7D7D7D7D7D7D7D7D7D7D7D7D7D7D7D7D7D7D7D7D7D7D7
310
D7D7D7D7D7D7D7D7D7D7D7D7D7D7D7D7D7D7D7D7D7D7D7D7D7D7D7D7D7D7D7D7D7D7D7D7D7D7D7D7D7D7D7D7D7D7D7D7D7D7D7D7D7D7D7D7D7D7D7D7D7D7D7D7D7D7D7D7D7D7D7D7D7D7D7D7D7D7D7D7D7D7D7D7D7D7D7D7D7D7D7D7D7D7D7D7D7D7D7D7D7D7D7D7D7D7D7D7D7D7D7D7D7D7D7D7D7D7D7D7D7D7D7D7D7D7D7
310
D7D7D7D7D7D7D7D7D7D7D7D7D7D7D7D7D7D7D7D7D7D7D7D7D7D7D7D7D7D7D7D7D7D7D7D7D7D7D7D7D7D7D7D7D7D7D7D7D70000D7D7D7D7D7D7D7D7D7D7D7D7D7D7D7D7D7D7D7D7D7D7D7D7D7D7D7D7D7D7D7D7D7D7D7D7D7D7D7D7D7D7D7D7D7D7D7D7D7D7D7D7D7D7D7D7D7D7D7D7D7D7D7D7D7D7D7D7D7D7D7D7D7D7D7D7
310
D7D7D7D7D7D7D7D7D7D7D7D7D7D7D7D7D7D7D7D7D7D7D7D7D7D7D7D7D7D7D7D7D7D7D7D7D7D7D7D7D7D7D7D7D7D7D7D7D7D7D7D7D7D7D7D7D7D7D7D7D7D7D7D7D7D7D7D7D7D7D7D7D7D7D7D7D7D7D7D7D7D7D7D7D7D7D7D7D7D7D7D7D7D7D7D7D7D7D7D7D7D7D7D7D7D7D7D7D7D7D7D7D7D7D7D7D7D7D7D7D7D7D7D7D7D7D7
310
D7D7D7D7D7D7D70000D7D7D7D7D7D7D7D7D7D7D7D7D7D7D7D7D7D7D7D7D7D7D7D7D7D7D7D7D7D7D7D7D7D7D7D7D7D7D7D7D7D7D7D7D7D7D7D7D7D7D7D7D7D7D7D7D7D7D7D7D7D7D7D7D7D7D7D7D7D7D7D7D7D7D7D7D7D7D7D7D7D7D7D7D7D7D7D7D7D7D7D7D7D7D7D7D7D7D7D7D7D7D7D7D7D7D7D7D7D7D7D7D7D7D7D7D7D7
310
D7D7D7D7D7D7D7D7D7D7D7D7D7D7D7D7D7D7D7D7D7D7D7D7D7D7D7D7D7D7D7D7D7D7D7D7D7D7D7D7D7D7D7D7D7D7D7D7D7D7D7D7D7D7D7D7D7D7D7D7D7D7D7D7D7D7D7D7D7D7D7D7D7D7D7D7D7D7D7D7D7D7D7D7D7D7D7D7D7D7D7D70000D7D7D7D7D7D7D7D7D7D7D7D7D7D7D7D7D7D7D7D7D7D7D7D7D7D7D7D7D7D7D7D7D7
310
D7D7D7D7D7D7D7D7D7D7D7D7D7D7D7D7D7D7D7D7D7D7D7D7D7D7D7D7D7D7D7D7D7D7D7D7D7D7D7D7D7D7D7D7D7D7D7D7D7D7D7D7D7D7D7D7D7D7D7D7D7D7D7D7D7D7D7D7D7D7D7D7D7D7D7D7D7D7D7D7D7D7D7D7D7D7D7D7D7D7D7D7D7D7D7D7D7D7D7D7D7D7D7D7D7D7D7D7D7D7D7D7D7D7D7D7D7D7D7D7D7D7D7D7D7D7D7
310
D7D7D7D7D7D7D7D7D7D7D7D7D7D7D7D7D7D7D7D7D7D7D7D7D7D7D7D7D7D7D7D7D7D7D7D7D7D7D7D7D7D7D7D7D7D7D7D7D7D70000D7D7D7D7D7D7D7D7D7D7D7D7D7D7D7D7D7D7D7D7D7D7D7D7D7D7D7D7D7D7D7D7D7D7D7D7D7D7D7D7D7D7D7D7D7D7D7D7D7D7D7D7D7D7D7D7D7D7D7D7D7D7D7D7D7D7D7D7D7D7D7D7D7D7D7
310
D7D7D7D7D7D7D7D7D7D7D7D7D7D7D7D7D7D7D7D7D7D7D7D7D7D7D7D7D7D7D7D7D7D7D7D7D7D7D7D7D7D7D7D7D7D7D7D7D7D7D7D7D7D7D7D7D7D7D7D7D7D7D7D7D7D7D7D7D7D7D7D7D7D7D7D7D7D7D7D7D7D7D7D7D7D7D7D7D7D7D7D7D7D7D7D7D7D7D7D7D7D7D7D7D7D7D7D7D7D7D7D7D7D7D7D7D7D7D7D7D7D7D7D7D7D7D7
310
D7D7D7D7D7D7D7D70000D7D7D7D7D7D7D7D7D7D7D7D7D7D7D7D7D7D7D7D7D7D7D7D7D7D7D7D7D7D7D7D7D7D7D7D7D7D7D7D7D7D7D7D7D7D7D7D7D7D7D7D7D7D7D7D7D7D7D7D7D7D7D7D7D7D7D7D7D7D7D7D7D7D7D7D7D7D7D7D7D7D7D7D7D7D7D7D7D7D7D7D7D7D7D7D7D7D7D7D7D7D7D7D7D7D7D7D7D7D7D7D7D7D7D7D7D7
310
D7D7D7D7D7D7D7D7D7D7D7D7D7D7D7D7D7D7D7D7D7D7D7D7D7D7D7D7D7D7D7D7D7D7D7D7D7D7D7D7D7D7D7D7D7D7D7D7D7D7D7D7D7D7D7D7D7D7D7D7D7D7D7D7D7D7D7D7D7D7D7D7D7D7D7D7D7D7D7D7D7D7D7D7D7D7D7D7D7D7D7D7D70000D7D7D7D7D7D7D7D7D7D7D7D7D7D7D7D7D7D7D7D7D7D7D7D7D7D7D7D7D7D7D7D7
310
D7D7D7D7D7D7D7D7D7D7D7D7D7D7D7D7D7D7D7D7D7D7D7D7D7D7D7D7D7D7D7D7D7D7D7D7D7D7D7D7D7D7D7D7D7D7D7D7D7D7D7D7D7D7D7D7D7D7D7D7D7D7D7D7D7D7D7D7D7D7D7D7D7D7D7D7D7D7D7D7D7D7D7D7D7D7D7D7D7D7D7D7D7D7D7D7D7D7D7D7D7D7D7D7D7D7D7D7D7D7D7D7D7D7D7D7D7D7D7D7D7D7D7D7D7D7D7
310
D7D7D7D7D7D7D7D7D7D7D7D7D7D7D7D7D7D7D7D7D7D7D7D7D7D7D7D7D7D7D7D7D7D7D7D7D7D7D7D7D7D7D7D7D7D7D7D7D7D7D70000D7D7D7D7D7D7D7D7D7D7D7D7D7D7D7D7D7D7D7D7D7D7D7D7D7D7D7D7D7D7D7D7D7D7D7D7D7D7D7D7D7D7D7D7D7D7D7D7D7D7D7D7D7D7D7D7D7D7D7D7D7D7D7D7D7D7D7D7D7D7D7D7D7D7
310
D7D7D7D7D7D7D7D7D7D7D7D7D7D7D7D7D7D7D7D7D7D7D7D7D7D7D7D7D7D7D7D7D7D7D7D7D7D7D7D7D7D7D7D7D7D7D7D7D7D7D7D7D7D7D7D7D7D7D7D7D7D7D7D7D7D7D7D7D7D7D7D7D7D7D7D7D7D7D7D7D7D7D7D7D7D7D7D7D7D7D7D7D7D7D7D7D7D7D7D7D7D7D7D7D7D7D7D7D7D7D7D7D7D7D7D7D7D7D7D7D7D7D7D7D7D7D7
310
D7D7D7D7D7D7D7D7D70000D7D7D7D7D7D7D7D7D7D7D7D7D7D7D7D7D7D7D7D7D7D7D7D7D7D7D7D7D7D7D7D7D7D7D7D7D7D7D7D7D7D7D7D7D7D7D7D7D7D7D7D7D7D7D7D7D7D7D7D7D7D7D7D7D7D7D7D7D7D7D7D7D7D7D7D7D7D7D7D7D7D7D7D7D7D7D7D7D7D7D7D7D7D7D7D7D7D7D7D7D7D7D7D7D7D7D7D7D7D7D7D7D7D7D7D7
310
D7D7D7D7D7D7D7D7D7D7D7D7D7D7D7D7D7D7D7D7D7D7D7D7D7D7D7D7D7D7D7D7D7D7D7D7D7D7D7D7D7D7D7D7D7D7D7D7D7D7D7D7D7D7D7D7D7D7D7D7D7D7D7D7D7D7D7D7D7D7D7D7D7D7D7D7D7D7D7D7D7D7D7D7D7D7D7D7D7D7D7D7D7D70000D7D7D7D7D7D7D7D7D7D7D7D7D7D7D7D7D7D7D7D7D7D7D7D7D7D7D7D7D7D7D7
310
D7D7D7D7D7D7D7D7D7D7D7D7D7D7D7D7D7D7D7D7D7D7D7D7D7D7D7D7D7D7D7D7D7D7D7D7D7D7D7D7D7D7D7D7D7D7D7D7D7D7D7D7D7D7D7D7D7D7D7D7D7D7D7D7D7D7D7D7D7D7D7D7D7D7D7D7D7D7D7D7D7D7D7D7D7D7D7D7D7D7D7D7D7D7D7D7D7D7D7D7D7D7D7D7D7D7D7D7D7D7D7D7D7D7D7D7D7D7D7D7D7D7D7D7D7D7D7
310
D7D7D7D7D7D7D7D7D7D7D7D7D7D7D7D7D7D7D7D7D7D7D7D7D7D7D7D7D7D7D7D7D7D7D7D7D7D7D7D7D7D7D7D7D7D7D7D7D7D7D7D70000D7D7D7D7D7D7D7D7D7D7D7D7D7D7D7D7D7D7D7D7D7D7D7D7D7D7D7D7D7D7D7D7D7D7D7D7D7D7D7D7D7D7D7D7D7D7D7D7D7D7D7D7D7D7D7D7D7D7D7D7D7D7D7D7D7D7D7D7D7D7D7D7D7
310
D7D7D7D7D7D7D7D7D7D7D7D7D7D7D7D7D7D7D7D7D7D7D7D7D7D7D7D7D7D7D7D7D7D7D7D7D7D7D7D7D7D7D7D7D7D7D7D7D7D7D7D7D7D7D7D7D7D7D7D7D7D7D7D7D7D7D7D7D7D7D7D7D7D7D7D7D7D7D7D7D7D7D7D7D7D7D7D7D7D7D7D7D7D7D7D7D7D7D7D7D7D7D7D7D7D7D7D7D7D7D7D7D7D7D7D7D7D7D7D7D7D7D7D7D7D7D7
310
D7D7D7D7D7D7D7D7D7D70000D7D7D7D7D7D7D7D7D7D7000000000000000000000000000000000000000000000000000000000000000000000000000000000000000000000000000000000000000000000000000000000000000000000000000000000000000000000000000000000000000000000000000000000000000000
310
0000000000000000000000000000000000000000000000000000000000000000000000000000000000000000000000000000000000000000000000000000000000000000000000000000000000000000000000000000D7D7D7D7D7D7D7D7D70000D7D7D7D7D7D7D7D7D7D700D7D7D7D7D7D7D7D7D7D7D7D7D7D7D7D7D7D7D7
310
D7D7D7D7D7D7D7D7D7D7D7D7D7D7D7D7D7D7D7D7D7D7D7D7D7D7D7D7D7D7D7D7D7D7D7D7D7D7D7D7D7D7D7D7D7D7D7D7D7D7D7D7D7D7D7D7D7D7D7D7D7D7D7D7D7D7D7D7D7D7D7D7D7D7D7D7D7D7D7D7D7D7D7D7D7D7D7D7D7D7D7D7D7D7D7D7D7D7D7D7D7D7D7D7D7D7D7D7D7D7D7D7D7D7D7D7D7D7D7D7D7D7D7D7D7D7D7
310
D7D7D7D7D7D7D7D7D7D7D7D7D7D7D7D7D7D7D7D7D7D7D7D7D7D7D7D7D7D7D7D7D7D7D7D7D7D7D7D7D7D7D700D7D7D7D7D7D7D7D7D70000D7D7D7D7D7D7D7D7D7D700D7D7D7D7D7D7D7D7D7D7D7D7D7D7D7D7D7D7D7D7D7D7D7D7D7D7D7D7D7D7D7D7D7D7D7D7D7D7D7D7D7D7D7D7D7D7D7D7D7D7D7D7D7D7D7D7D7D7D7D7D7
310
D7D7D7D7D7D7D7D7D7D7D7D7D7D7D7D7D7D7D7D7D7D7D7D7D7D7D7D7D7D7D7D7D7D7D7D7D7D7D7D7D7D7D7D7D7D7D7D7D7D7D7D7D7D7D7D7D7D7D7D7D7D7D7D7D7D7D7D7D7D7D7D7D7D7D7D7D7D7D7D7D7D7D7D7D7D7D7D7D7D7D7D7D7D7D7D7D7D7D7D7D7D7D7D7D7D7D7D7D7D7D7D7D7D7D7D7D7D7D7D7D7D7D7D7D7D7D7
310
D700D7D7D7D7D7D7D7D7D70000D7D7D7D7D7D7D7D7D7D700D7D7D7D7D7D7D7D7D7D7D7D7D7D7D7D7D7D7D7D7D7D7D7D7D7D7D7D7D7D7D7D7D7D7D7D7D7D7D7D7D7D7D7D7D7D7D7D7D7D7D7D7D7D7D7D7D7D7D7D7D7D7D7D7D7D7D7D7D7D7D7D7D7D7D7D7D7D7D7D7D7D7D7D7D7D7D7D7D7D7D7D7D7D7D7D7D7D7D7D7D7D700
310
D7D7D7D7D7D7D7D7D7D7D7D7D7D7D7D7D7D7D7D7D7D7D7D7D7D7D7D7D7D7D7D7D7D7D7D7D7D7D7D7D7D7D7D7D7D7D7D7D7D7D7D7D7D7D7D7D7D7D7D7D7D7D7D7D7D7D7D7D7D7D7D7D7D7D7D7D7D7D7D7D7D7D7D7D7D700D7D7D7D7D7D7D7D7D70000D7D7D7D7D7D7D7D7D7D700D7D7D7D7D7D7D7D7D7D7D7D7D7D7D7D7D7D7
310
D7D7D7D7D7D7D7D7D7D7D7D7D7D7D7D7D7D7D7D7D7D7D7D7D7D7D7D7D7D7D7D7D7D7D7D7D7D7D7D7D7D7D7D7D7D7D7D7D7D7D7D7D7D7D7D7D7D7D700D7D7D7D7D7D7D7D7D7D7D7D7D7D7D7D7D7D7D7D7D7D7D700D700D7D7D7D7D7D7D7D7D7D7D7D7D7D7D7D7D7D7D7D7D7D7D7D7D7D7D7D7D7D7D7D7D7D7D7D7D7D7D7D7D7
310
D7D7D7D7D7D7D7D7D7D7D7D7D7D7D7D7D7D7D7D7D7D7D7D7D7D7D7D7D7D7D7D7D7D7D7D7D7D7D7D7D7D7D7D700D7D7D7D7D7D7D7D7D70000D7D7D7D7D7D7D7D7D7D700D7D7D7D7D7D7D7D7D7D7D7D700D700D7D700D700D700D7D7D7D7D7D70000D7D7D7D7D7D7D7D7D7D7D7D7D700D700D7D700D7D7D7D7D7D7D7D7D7D7D7
310
D7D7D7D7D7D7D7D7D7D7D7D700D700D7D7D700D7D7D7D7D7D7D7D7D7D7D700D7D7D7D7D700D7D7D7D700D700D7D7D7D700D7D7D7D7D700D7D7D7D7D7D7D7D700D7D7D7D700D7D7D7D7D7D7D7D700D7D7D700D7D700D700D700D7D700D700D7D700D700D7D7D7D7D7D7D7D7D7D7D7D7D7D7D7D7D7D7D7D7D7D7D7D7D7D7D7D7
310
D7D700D7D7D7D7D7D7D7D7D70000D7D7D7D7D7D7D7D7D7D700D7D7D7D7D7D7D7D7D7D7D7D700D700D7D700D700D700D7D7D7D7D7D70000D7D7D7D7D7D7D7D7D7D7D7D7D700D700D7D700D7D7D7D7D7D7D7D7D7D7D7D7D7D7D7D7D7D7D7D7D7D7D700D700D7D7D700D7D7D7D7D7D7D700D7D7D700D700D700D7D7D7D7D7D700
310
D700D7D7D7D700D7D7D7D7D7000000D7D7D7D7D7D700D7D7D7D700D7D7D700D7D700D7D7D700D7D7D7D700D700D700D7D700D700D7D7D7D700D7D7D7D7D7D7D7D7D7D7D7D7D7D7D7D7D7D7D7D7D7D7D7D7D7D7D7D7D7D700D7D7D7D7D7D7D7D7D70000D7D7D7D7D7D7D7D7D7D700D7D7D7D7D7D7D7D7D7D7D7D70000D7D7D7
310
00D7D700D7D7D70000D7D700D700D7D7D7D7D70000D7D7D700D7D700D7D7D7D7D700D7D7D7D70000D7D7D70000D7D7D70000D7D7D7D7D70000D7D700D7D7D7D7D7D7D7D7D700D7D7D7D700D7D7D70000D7D7D7D7D70000D7D7D700D7D7D7D7D7D700D7D7D7D7D700D7D7D700D7D70000D7D700D7D7D7D70000D7D70000D7D7
310
00D7D700D7D7D70000D7D7D7D70000D7D7D7D7D7D7D7D7D7D7D7D7D7D7D7D7D7D7D7D7D7D7D7D7D7D7D7D7D7D700D7D7D7D7D7D7D7D7D70000D7D7D7D7D7D7D7D7D7D700D7D7D7D7D7D7D7D7D7D7D7D700D7D7D7D700D7D7D7D7D7D7D7D7D7D700D7D7D7D7D7D7D7D7D7D7D7D7D7D7D7D7D7D7D7D7D7D7D7D7D7D7D7D7D7D7
310
D7D7D7D7D7D7D7D7D7D7D7D7D700D7D7D7D7D7D7D7D7D7D7D70000D7D7D7D7D7D7D7D7D7D7D7D7D7D7D7D7D7D7D7D7D7D7D7D7D7D7D7D7000000D7D7D7D7D7D7D7D7D7D7D7D7D7D7D7D7D7D7D7D7D7D7D7D7D7D7D700D7D7D7D7D7D7D7D7D7D7D7D7D7D7D7D7D7D7D7D7D7D7D7D7D7D7D7D7D7D7D7D7D7D7D7D7D7D7D7D7D7
310
D7D7D700D7D7D7D7D7D7D7D7D70000D7D7D7D7D7D7D7D7D7D700D7D7D7D7D7D7D7D7D7D7D7D7D7D7D7D7D7D7D7D7D7D7D7D7D7D7D7D7D7D7D7D7D7D7D7D7D7D7D7D7D7D7D7D7D7D7D7D7D7D7D7D7D7D7D7D7D7D7D7D7D7D7D7D7D7D7D7D7D7D7D7D7D7D7D7D7D7D7D7D7D7D7D7D7D7D7D7D7D7D7D7D7D7D7D7D7D7D7D7D7D7
310
D7D7D7D7D7D7D7D7D7D7D7D7D7D7D7D7D7D7D7D7D7D7D7D7D7D7D7D7D7D7D7D7D7D7D7D7D7D7D7D7D7D7D7D7D7D7D7D7D7D7D7D7D7D7D7D7D7D7D7D7D7D7D7D7D7D7D7D7D7D7D7D7D7D7D7D7D7D7D7D7D7D7D7D7D7D7D7D700D7D7D7D7D7D7D7D7D70000D7D7D7D7D7D7D7D7D7D700D7D7D7D7D7D7D7D7D7D7D7D7D7D7D7D7
310
D7D7D7D7D7D7D7D7D7D7D7D7D7D7D7D7D7D7D7D7D7D7D7D7D7D7D7D7D7D7D7D7D7D7D7D7D7D7D7D7D7D7D7D7D7D7D7D7D7D7D7D7D7D7D7D7D7D7D7D7D7D7D7D7D7D7D7D7D7D7D7D7D7D7D7D7D7D7D7D7D7D7D7D7D7D7D7D7D7D7D7D7D7D7D7D7D7D7D7D7D7D7D7D7D7D7D7D7D7D7D7D7D7D7D7D7D7D7D7D7D7D7D7D7D7D7D7
310
D7D7D7D7D7D7D7D7D7D7D7D7D7D7D7D7D7D7D7D7D7D7D7D7D7D7D7D7D7D7D7D7D7D7D7D7D7D7D7D7D7D7D7D7D7D700D7D7D7D7D7D7D7D7D70000D7D7D7D7D7D7D7D7D7D700D7D7D7D7D7D7D7D7D7D7D7D7D7D7D7D7D7D7D7D7D7D7D7D7D7D7D7D7D7D7D7D7D7D7D7D7D7D7D7D7D7D7D7D7D7D7D7D7D7D7D7D7D7D7D7D7D7D7
310
D7D7D7D7D7D7D7D7D7D7D7D7D7D7D7D7D7D7D7D7D7D7D7D7D7D7D7D7D7D7D7D7D7D7D7D7D7D7D7D7D7D7D7D7D7D7D7D7D7D7D7D7D7D7D7D7D7D7D7D7D7D7D7D7D7D7D7D7D7D7D7D7D7D7D7D7D7D7D7D7D7D7D7D7D7D7D7D7D7D7D7D7D7D7D7D7D7D7D7D7D7D7D7D7D7D7D7D7D7D7D7D7D7D7D7D7D7D7D7D7D7D7D7D7D7D7D7
310
D7D7D7D700D7D7D7D7D7D7D7D7D70000D7D7D7D7D7D7D7D7D7D700D7D7D7D7D7D7D7D7D7D7D7D7D7D7D7D7D7D7D7D7D7D7D7D7D7D7D7D7D7D7D7D7D7D7D7D7D7D7D7D7D7D7D7D7D7D7D7D7D7D7D7D7D7D7D7D7D7D7D7D7D7D7D7D7D7D7D7D7D7D7D7D7D7D7D7D7D7D7D7D7D7D7D7D7D7D7D7D7D7D7D7D7D7D7D7D7D7D7D7D7
310
D7D7D7D7D7D7D7D7D7D7D7D7D7D7D7D7D7D7D7D7D7D7D7D7D7D7D7D7D7D7D7D7D7D7D7D7D7D7D7D7D7D7D7D7D7D7D7D7D7D7D7D7D7D7D7D7D7D7D7D7D7D7D7D7D7D7D7D7D7D7D7D7D7D7D7D7D7D7D7D7D7D7D7D7D7D7D7D7D700D7D7D7D7D7D7D7D7D70000D7D7D7D7D7D7D7D7D7D700D7D7D7D7D7D7D7D7D7D700D7D7D7D7
310
D700D7D7D700D700D7D7D7D7D7D7D7D7D7D700D7D700D7D7D7D7D7D7D7D7D7D7D7D7D7D7D7D7D7D7D700D7D7D7D700D700D7D7D7D700D7D7D7D700D700D7D700D700D7D7D7D7D7D7D7D7D7D7D7D7D7D7D7D7D7D7D7D7D7D7D7D7D700D7D7D7D700D7D7D7D700D700D7D700D700D7D700D7D7D7D7D7D7D7D7D7D700D7D7D7D7
310
00D7D7D7D7D7D7D7D7D7D7D7D7D7D7D7D7D7D7D7D7D7D7D7D7D7D7D7D7D7D7D7D7D7D7D7D7D7D7D7D7D7D7D7D7D7D700D7D7D7D7D7D7D7D7D70000D7D7D7D7D7D7D7D7D7D700D7D7D7D7D7D7D7D7D7D700D7D7D7D7D700D7D7D700D700D7D7D70000D7D7D7D7D700D7D7000000D7D7D7D7D7D7D7D7D7D7D7D7D7D7D7D7D700
310
00D7D7D700D700D7D7D7D700D7D7D7D700D700D7D700D700D7D7D7D7D7D7D7D7D7D70000D7D7D7D7D7D7D7D7D7D7D7D7D700D7D7D7D700D7D7D7D7D70000D7D700D700D700D7D7D7D7D7D7D7D7D7D7D70000D7D7D700D7D7D7D7D7D7D7D7D7D7D7D7D7D7D7D7D7D7D7D7D7D7D7D7D7D7D7D7D7D7D7D7D7D7D7D7D7D7D7D7D7
310
D7D7D7D7D700D7D7D7D7D7D7D7D7D70000D7D7D7D7D7D7D7D7D7D700D7D7D7D7D70000D7D7D700D7D7D7D7D700D7D7D70000D7D7D7D700D7D7D7D7D7D700D7D7D700D7D7D70000D7D7D7D7D7D7D7D7D7D700D7D7D700D7D7D7D70000D7D7D7D70000D7D7D700D700D7D700000000D7D7D7D70000D7D7D70000D7D7D700D7D7
310
D7D70000D7D70000D7D7D7D70000D7D7D7D70000D7D700D700D70000D7D7D7D7D70000D7D7D7D700D7D7D700D7D7D7D7D7D7D7D7D7D7D7D7D7D7D7D7D7D7D7D7D7D7D7D7D7D7D7D7D7D7D7D7D7D7D7D7D7D7D7D7D7D7D7D7D7D700D7D7D7D7D7D7D7D7D70000D7D7D7D7D7D7D7D7D7D700D7D7D7D7D7D7D7D7D7D7D7D7D7D7
310
D7D700D7D7D700D7D7D7D7D7D7D7D7D7D7D7D7D7D7D7D7D7D7D7D7D7D7D7D7D7D7D7D7D7D7D7D7D7D7D7D7D7D7D7D7D7D700D7D7D7D7D7D7D7D7D7D7D7D7D7D7D7D7D7D7D7D7D7D7D7D7D7D7D7D7D7D7D7D7D7D7D7D7D7D7D7D7D7D700D7D7D7D7D7D7D7D7D7D7D7D7D7D7D7D700D7D7D7D7D7D7D7D7D7D7D7D7D7D7D7D7D7
310
D7D7D7D7D7D7D7D7D7D7D7D7D7D7D7D7D7D7D7D7D7D7D7D7D7D7D7D7D7D7D7D7D7D7D7D7D7D7D7D7D7D7D7D7D7D7D7D700D7D7D7D7D7D7D7D7D70000D7D7D7D7D7D7D7D7D7D700D7D7D7D7D7D7D7D7D7D7D7D7D7D7D7D7D7D7D7D7D7D7D7D7D7D7D7D7D7D7D7D7D7D7D7D7D7D7D7D7D7D7D7D7D7D7D7D7D7D7D7D7D7D7D7D7
310
D7D7D7D7D7D7D7D7D7D7D7D7D7D7D7D7D7D7D7D7D7D7D7D7D7D7D7D7D7D7D7D7D7D7D7D7D7D7D7D7D7D7D7D7D7D7D7D7D7D7D7D7D7D7D7D7D7D7D7D7D7D7D7D7D7D7D7D7D7D7D7D7D7D7D7D7D7D7D7D7D7D7D7D7D7D7D7D7D7D7D7D7D7D7D7D7D7D7D7D7D7D7D7D7D7D7D7D7D7D7D7D7D7D7D7D7D7D7D7D7D7D7D7D7D7D7D7
310
D7D7D7D7D7D700D7D7D7D7D7D7D7D7D70000D7D7D7D7D7D7D7D7D7D700D7D7D7D7D7D7D7D7D7D7D7D7D7D7D7D7D7D7D7D7D7D7D7D7D7D7D7D7D7D7D7D7D7D7D7D7D7D7D7D7D7D7D7D7D7D7D7D7D7D7D7D7D7D7D7D7D7D7D7D7D7D7D7D7D7D7D7D7D7D7D7D7D7D7D7D7D7D7D7D7D7D7D7D7D7D7D7D7D7D7D7D7D7D7D7D7D7D7
310
D7D7D7D7D7D7D7D7D7D7D7D7D7D7D7D7D7D7D7D7D7D7D7D7D7D7D7D7D7D7D7D7D7D7D7D7D7D7D7D7D7D7D7D7D7D7D7D7D7D7D7D7D7D7D7D7D7D7D7D7D7D7D7D7D7D7D7D7D7D7D7D7D7D7D7D7D7D7D7D7D7D7D7D7D7D7D7D7D7D7D700D7D7D7D7D7D7D7D7D70000D7D7D7D7D7D7D7D7D7D700D7D7D7D7D7D7D7D7D7D7D7D7D7
310
D7D7D7D7D7D7D7D7D7D7D7D7D7D7D7D7D7D7D7D7D7D7D7D7D7D7D7D7D7D7D7D7D7D7D7D7D7D7D7D7D7D7D7D7D7D7D7D7D7D7D7D7D7D7D7D7D7D7D7D7D7D7D7D7D7D7D7D7D7D7D7D7D7D7D7D7D7D7D7D7D7D7D7D7D7D7D7D7D7D7D7D7D7D7D7D7D7D7D7D7D7D7D7D7D7D7D7D7D7D7D7D7D7D7D7D7D7D7D7D7D7D7D7D7D7D7D7
310
D7D7D7D7D7D7D7D7D7D7D7D7D7D7D7D7D7D7D7D7D7D7D7D7D7D7D7D7D7D7D7D7D7D7D7D7D7D7D7D7D7D7D7D7D7D7D7D7D700D7D7D7D7D7D7D7D7D70000D7D7D7D7D7D7D7D7D7D700D7D7D7D7D7D7D7D7D7D7D7D7D7D7D7D7D7D7D7D7D7D7D7D7D7D7D7D7D700D7D7D7D7D7D7D7D7D7D7D7D7D7D7D7D7D7D7D7D7D7D7D7D7D7
310
D7D7D7D7D7D7D7D7D7D7D7D7D7D7D7D7D7D700D7D7D7D7D7D7D7D7D7D7D7D7D7D7D7D7D7D7D7D7D7D7D7D7D700D7D7D7D7D7D7D7D7D7D7D7D7D7D7D7D7D7D7D7D7D7D7D7D7D7D7D7D7D7D7D7D7D7D7D7D7D7D7D7D7D7D7D7D7D7D7D7D7D7D7D7D7D7D7D7D7D7D7D7D7D7D7D7D7D7D7D7D7D7D7D7D7D7D7D7D7D7D7D7D7D7D7
310
D7D7D7D7D7D7D700D7D7D7D7D7D7D7D7D70000D7D7D7D7D7D7D7D7D7D700D7D7D7D7D7D7D7D7D7D7D7D7D7D7D7D7D70000D7D7D70000D7D7D7D7D7D7D7D7D700D7D7D7D7D7D700D7D7D7D7D7D7D70000D7D700D7D7D700D7D7000000D7D7D70000D7D7D7D7D7D7D7D7D7D7D7D700D7D7D700D7D7D7D7D7D7D70000D7D7D7D7
310
D7D7D700D7D7D70000D7D700D7D7D7D7D700D700D7D7000000D7D7D7D7000000D7D7D700D7D7D7D7D7D7D7D7D7D7D7D7D7D7D7D7D7D7D7D7D7D7D7D7D7D7D7D7D7D7D7D7D7D7D7D7D7D7D7D7D7D7D7D7D7D7D7D7D7D7D7D7D7D7D7D700D7D7D7D7D7D7D7D7D70000D7D7D7D7D7D7D7D7D7D700D7D7D7D7D7D7D7D7D7D7D7D7
310
D7D7D7D7D7D7D700D7D7D7D7D7D7D7D7D7D7D7D7D7D700D7D7D7D7D7D700D7D7D7D7D700D7D7D7D7D7D7D7D700D7D7D700D7D7D700D7D7D7D7D7D7D7D7D7D7D7D7D700D700D7D700D7D7D7D7D7D7D70000D7D7D7D7D7D700D7D7D7000000D7D700D7D7D7D7D700D700D7D7D70000D7D7D7D700D700D7D7D7D7D7D7D7D7D7D7
310
D7D7D7D7D7D7D7D7D7D7D7D7D7D7D7D7D7D7D7D7D7D7D7D7D7D7D7D7D7D7D7D7D7D7D7D7D7D7D7D7D7D7D7D7D7D7D7D7D7D700D7D7D7D7D7D7D7D7D70000D7D7D7D7D7D7D7D7D7D700D7D7D7D7D7D7D7D7D7D7D7D7D7D7D7D7D7D7D700D7D7D7D7D7D7D7D7D7D7D7D7D700D7D7D7D7D7D7D7D700D7D7D7D700D7D7D7D7D7D7
310
D7D700D7D7D7D700D7D700D7D7D7D7D7D7D7D7D7D7D7D7D700D700D7D700D7D7D7D7D7D7D7D7D7D7D7D7D7D7D700D7D7D700D700D7D700D7D7D7D7D700D700D7D7D7D700D7D7D7D70000D7D7D7D7D7D7D7D7D7D7D7D7D7D7D7D7D7D7D7D7D7D7D7D7D7D7D7D7D7D7D7D7D7D7D7D7D7D7D7D7D7D7D7D7D7D7D7D7D7D7D7D7D7
310
D7D7D7D7D7D7D7D700D7D7D7D7D7D7D7D7D70000D7D7D7D7D7D7D7D7D7D700D7D7D7D7D7D7D7D7D7D7D7D7D700D7D7D7D7D700D7D7D7D7D7D7D7D7D700D7D700D700D7D70000D7D7D7D7D7D7D7D700D7D7D7D7D7D7D70000D7D700D7D7D7D700D7D7D7D70000D7D700D7D7D7D7D7D7D7D7D7D7D7D7D7D7D7D7D7D7D7D7D7D7
310
D7D7D7D7D7D7D7D7D7D7D7D7D7D7D7D7D7D7D7D7D7D7D7D7D7D7D7D7D7D700D7D7D7D7D7D7D7D7D7D7D7D7D7D7D7D7D7D7D7D7D7D7D7D7D7D7D7D7D7D7D7D7D7D7D7D7D7D7D7D7D7D7D7D7D7D7D7D7D7D7D7D7D7D7D7D7D7D7D7D7D7D700D7D7D7D7D7D7D7D7D70000D7D7D7D7D7D7D7D7D7D700D7D7D7D7D7D7D7D7D7D7D7
310
D7D7D7D7D7D7D7D7D7D7D7D7D7D7D7D7D7D7D7D7D7D7D7D7D7D7D7D7D7D7D7D7D7D7D7D7D7D7D7D7D7D7D7D7D7D7D7D7D7D7D7D7D7D7D7D7D7D7D7D7D7D7D7D7D7D7D7D7D7D7D7D7D7D7D7D7D7D7D7D7D7D7D7D7D7D7D7D7D7D7D7D7D7D7D7D7D7D7D7D7D7D7D7D7D7D7D7D7D7D7D7D7D7D7D7D7D7D7D7D7D7D7D7D7D7D7D7
310
D7D7D7D7D7D7D7D7D7D7D7D7D7D7D7D7D7D7D7D7D7D7D7D7D7D7D7D7D7D7D7D7D7D7D7D7D7D7D7D7D7D7D7D7D7D7D7D7D7D7D700D7D7D7D7D7D7D7D7D70000D7D7D7D7D7D7D7D7D7D700D7D7D7D7D7D7D7D7D7D7D7D7D7D7D7D7D7D7D7D7D7D7D7D7D7D7D7D7D7D7D7D7D7D7D7D7D7D7D7D7D7D7D7D7D7D7D7D7D7D7D7D7D7
310
D7D7D7D7D7D7D7D7D7D7D7D7D7D7D7D7D7D7D7D7D7D7D7D7D7D7D7D7D7D7D7D7D7D7D7D7D7D7D7D7D7D7D7D7D7D7D7D7D7D7D7D7D7D7D7D7D7D7D7D7D7D7D7D7D7D7D7D7D7D7D7D7D7D7D7D7D7D7D7D7D7D7D7D7D7D7D7D7D7D7D7D7D7D7D7D7D7D7D7D7D7D7D7D7D7D7D7D7D7D7D7D7D7D7D7D7D7D7D7D7D7D7D7D7D7D7D7
310
D7D7D7D7D7D7D7D7D700D7D7D7D7D7D7D7D7D70000D7D7D7D7D7D7D7D7D7D700D7D7D7D7D7D7D7D7D7D7D7D7D7D7D7D7D7D7D7D7D7D7D7D7D7D7D7D7D7D7D7D7D7D7D7D7D7D7D7D7D7D7D7D7D7D7D7D7D7D7D7D7D7D7D7D7D7D7D7D7D7D7D7D7D7D7D7D7D7D7D7D7D7D7D7D7D7D7D7D7D7D7D7D7D7D7D7D7D7D7D7D7D7D7D7
310
D7D7D7D7D7D7D7D7D7D7D7D7D7D7D7D7D7D7D7D7D7D7D7D7D7D7D7D7D7D7D7D7D7D7D7D7D7D7D7D7D7D7D7D7D7D7D7D7D7D7D7D7D7D7D7D7D7D7D7D7D7D7D7D7D7D7D7D7D7D7D7D7D7D7D7D7D7D7D7D7D7D7D7D7D7D7D7D7D7D7D7D7D7D700D7D7D7D7D7D7D7D7D70000D7D7D7D7D7D7D7D7D7D700D7D7D7D7D7D7D7D7D700
310
D7D7D7D7D7D7D7D7D7D7D7D7D7D7D7D7D7D7D7D7D7D7D7D7D7D7D7D7D7D7D7D7D7D7D700D7D7D7D7D7D7D7D7D7D7D7D7D7D7D7D7D7D7D7D7D7D7D7D7D7D7D7D7D7D7D7D7D7D7D7D7D7D7D7D7D7D7D7D7D7D7D7D7D7D7D7D70000D7D7D7D7D7D7D7D7D7D7D7D7D7D7D7D7D7D7D7D7D7D7D7D7D7D7D7D7D7D7D7D7D7D7D7D7D7
310
D7D7D7D7D7D7D7D7D7D7D7D7D7D7D7D7D7D7D7D7D7D7D7D7D7D7D7D7D7D7D7D7D7D7D7D7D7D7D7D7D7D7D7D7D7D7D7D7D7D7D7D700D7D7D7D7D7D7D7D7D70000D7D7D7D7D7D7D7D7D7D700D7D7D7D7D70000D7D7D700D7D7D7D7D7D700D7D7D7D70000D7D7D7D7D7D7D7D7D700D7D70000D7D7D70000D7D70000D7D7D70000
310
D7D7D7D7D7D7D7D70000D7D7D7D7D7D700D7D7D70000D7D700D700D7D700D7D7D7D7D7D700D7D70000D7D7D7D7D70000D7D7D7D7D7D7D7D70000D7D7D70000D7D7D700D7D7D7D700D700D7D7D700D700D7D7D7D7D7D7D7D7D7D7D7D7D7D7D7D7D7D7D7D7D7D7D7D7D7D7D7D7D7D7D7D7D7D7D7D7D7D7D7D7D7D7D7D7D7D7D7
310
D7D7D7D7D7D7D7D7D7D700D7D7D7D7D7D7D7D7D70000D7D7D7D7D7D7D7D7D7D700D7D7D7D7D7D7D7D7D7D700D7D7D7D7D7D700D7D7D7D7D7D7D7D7D7D7D7D7D7D7D700D700D7D7D7D700D700D7D7D700D7D7D7D7D7D7D7D7D7D7D7D7D700D700D7D7D7D700D700D7D7D7D7D7D70000D7D7D7D700D7D7D7D7D700D7D7D7D7D7
310
D7D7D7D7D7D7D7D7D7D7D7D7D7D7D7D7D7D7D7D7D7D7D7D700D7D7D700D7D7D700D7D700D700D7D7D7D7D7D7D7D7D7D7D7D7D7D7D7D7D7D7D7D7D7D7D7D7D7D7D7D7D7D7D7D7D7D7D7D7D7D7D7D7D7D7D7D7D7D7D7D7D7D7D7D7D7D7D7D7D700D7D7D7D7D7D7D7D7D70000D7D7D7D7D7D7D7D7D7D700D7D7D7D7D7D7D7D7D7
310
D700D7D7D7D7D70000D7D7D7D7D7D7D7D7D7D7D7D7D7D7D700D700D700D7D700D700D7D7D700D7D7D7D700D7D7D7D7D7D7D7D700D700D7D7D7D700D700D7D7D7D7D7D70000D7D7D7D7D7D7D7D7D7D700D7D7D7D7D7D7D7D7D7D7D7D7D7D7D7D7D7D7D7D7D7D7D7D7D7D7D7D7D700D7D7D700D7D7D700D7D700D700D7D7D7D7
310
D7D7D7D7D7D7D7D7D7D7D7D7D7D7D7D7D7D7D7D7D7D7D7D7D7D7D7D7D7D7D7D7D7D7D7D7D7D7D7D7D7D7D7D7D7D7D7D7D7D7D7D7D700D7D7D7D7D7D7D7D7D70000D7D7D7D7D7D7D7D7D7D700D7D7D7D7D7D7D7D7D7D7D7D7D7D7D700D700D7D7D7D7D7D7D7D7D7D7D7D7D7D7D700D7D7D7D7D7D7D7D700D7D7D7D7D7D7D7D7
310
D7D7D7D7D7D7D7D7D700D7D7D7D7D7D7D7D7D7D7D7D7D7D7D700D7D7D7D7D7D7D7D7D7D7D700D7D7D7D7D7D7D7D7D7D7D7D7D7D7D7D7D7D7D7D7D7D7D7D7D7D7D7D7D7D7D7D7D7D7D7D7D7D7D7D7D7D700D7D7D7D7D7D7D7D7D7D7D7D7D7D7D7D7D7D7D7D7D7D7D7D7D7D7D7D7D7D7D7D7D7D7D7D7D7D7D7D7D7D7D7D7D7D7
310
D7D7D7D7D7D7D7D7D7D7D700D7D7D7D7D7D7D7D7D70000D7D7D7D7D7D7D7D7D7D700D7D7D7D7D7D7D7D7D700D7D7D7D7D7D7D700D7D7D7D7D7D7D7D7D7D7D7D7D7D7D700D7D7D7D7D7D7D7D700D7D7D7D7D7D7D7D7D7D7D7D7D7D7D7D7D700D7D7D7D7D7D7D7D7D7D7D7D7D7D7D700D7D7D7D7D7D7D7D7D7D7D700D7D7D7D7
310
D7D7D7D7D7D7D7D7D7D7D7D7D7D7D7D7D7D7D7D7D7D7D7D7D7D7D7D7D7D7D7D7D7D7D7D700D700D7D7D7D7D7D7D7D7D7D7D7D7D7D7D7D7D7D7D7D7D7D7D7D7D7D7D7D7D7D7D7D7D7D7D7D7D7D7D7D7D7D7D7D7D7D7D7D7D7D7D7D7D7D7D7D7D700D7D7D7D7D7D7D7D7D70000D7D7D7D7D7D7D7D7D7D700D7D7D7D7D7D7D7D7
310
D7D7D7D7D7D7D7D7D7D7D7D7D7D7D7D7D7D7D7D7D7D7D7D7D7D7D7D7D7D7D7D7D7D7D7D7D7D7D7D7D7D7D7D7D7D7D7D7D7D7D7D7D7D7D7D7D7D7D7D7D7D7D7D7D7D7D7D7D7D7D7D7D7D7D7D7D7D7D7D7D7D7D7D7D7D7D7D7D7D7D7D7D7D7D7D7D7D7D7D7D7D7D7D7D7D7D7D7D7D7D7D7D7D7D7D7D7D7D7D7D7D7D7D7D7D7D7
310
D7D7D7D7D7D7D7D7D7D7D7D7D7D7D7D7D7D7D7D7D7D7D7D7D7D7D7D7D7D7D7D7D7D7D7D7D7D7D7D7D7D7D7D7D7D7D7D7D7D7D7D7D7D700D7D7D7D7D7D7D7D7D70000D7D7D7D7D7D7D7D7D7D700D7D7D7D7D7D7D7D7D7D7D7D7D7D7D7D7D7D7D7D7D7D7D7D7D7D7D7D7D7D7D7D7D7D7D7D7D7D7D7D7D7D7D7D7D7D7D7D7D7D7
310
D7D7D7D7D7D7D7D7D7D7D7D7D7D7D7D7D7D7D7D7D7D7D7D7D7D7D7D7D7D7D7D7D7D7D7D7D7D7D7D7D7D7D7D7D7D7D7D7D7D7D7D7D7D7D7D7D7D7D7D7D7D7D7D7D7D7D7D7D7D7D7D7D7D7D7D7D7D7D7D7D7D7D7D7D7D7D7D7D7D7D7D7D7D7D7D7D7D7D7D7D7D7D7D7D7D7D7D7D7D7D7D7D7D7D7D7D7D7D7D7D7D7D7D7D7D7D7
310
D7D7D7D7D7D7D7D7D7D7D7D700D7D7D7D7D7D7D7D7D70000D7D7D7D7D7D7D7D7D7D700D7D7D7D7D7D7D7D7D7D7D7D7D7D7D7D7D7D7D7D7D7D7D7D7D7D7D7D7D7D7D7D7D7D7D7D7D7D7D7D7D7D7D7D7D7D7D7D7D7D7D7D7D7D7D7D7D7D7D7D7D7D7D7D7D7D7D7D7D7D7D7D7D7D7D7D7D7D7D7D7D7D7D7D7D7D7D7D7D7D7D7D7
310
D7D7D7D7D7D7D7D7D7D7D7D7D7D7D7D7D7D7D7D7D7D7D7D7D7D7D7D7D7D7D7D7D7D7D7D7D7D7D7D7D7D7D7D7D7D7D7D7D7D7D7D7D7D7D7D7D7D7D7D7D7D7D7D7D7D7D7D7D7D7D7D7D7D7D7D7D7D7D7D7D7D7D7D7D7D7D7D7D7D7D7D7D7D7D7D7D700D7D7D7D7D7D7D7D7D70000D7D7D7D7D7D7D7D7D7D700D7D7D7D7D70000
310
D7D7D7D7D700D7D7D700D700D7D700D700D7D7D70000D7D7D700D7D7D700D700D7D700D7D7D700D700D7D7D7D7D7D7D7D7D7D7D7D7D7D7D7D7D7D7D7D7D7D7D7D7D7D7D7D7D7D7D7D7D7D7D7D7D7D7D7D7D7D7D7D7D7D7D7D7D7D7D7D7D7D7D7D7D7D7D7D7D7D7D7D7D7D7D7D7D7D7D7D7D7D7D7D7D7D7D7D7D7D7D7D7D7D7
310
D7D7D7D7D7D7D7D7D7D7D7D7D7D7D7D7D7D7D7D7D7D7D7D7D7D7D7D7D7D7D7D7D7D7D7D7D7D7D7D7D7D7D7D7D7D7D7D7D7D7D7D7D7D7D700D7D7D7D7D7D7D7D7D70000D7D7D7D7D7D7D7D7D7D700D7D7D7D7D7D7D700D7D7D700D700D7D700D700D7D700D700D7D700D7D7D7D700D700D7D7D7D700D700D700D7D700D700D7
310
D7D7D7D7D7D7D7D7D7D7D7D7D7D7D7D7D7D7D7D7D7D7D7D7D7D7D7D7D7D7D7D7D7D7D7D7D7D7D7D7D7D7D7D7D7D7D7D7D7D7D7D7D7D7D7D7D7D7D7D7D7D7D7D7D7D7D7D7D7D7D7D7D7D7D7D7D7D7D7D7D7D7D7D7D7D7D7D7D7D7D7D7D7D7D7D7D7D7D7D7D7D7D7D7D7D7D7D7D7D7D7D7D7D7D7D7D7D7D7D7D7D7D7D7D7D7D7
310
D7D7D7D7D7D7D7D7D7D7D7D7D700D7D7D7D7D7D7D7D7D70000D7D7D7D7D7D7D7D7D7D700D7D7D7D7D7D7D7D7D7D7D700D700D7D700D700D7D700D700D7D700D700D7D700D700D7D7D7D700D700D700D7D700D700D7D7D7D7D7D7D7D7D7D7D7D7D7D7D7D7D7D7D7D7D7D7D7D7D7D7D7D7D7D7D7D7D7D7D7D7D7D7D7D7D7D7D7
310
D7D7D7D7D7D7D7D7D7D7D7D7D7D7D7D7D7D7D7D7D7D7D7D7D7D7D7D7D7D7D7D7D7D7D7D7D7D7D7D7D7D7D7D7D7D7D7D7D7D7D7D7D7D7D7D7D7D7D7D7D7D7D7D7D7D7D7D7D7D7D7D7D7D7D7D7D7D7D7D7D7D7D7D7D7D7D7D7D7D7D7D7D7D7D7D7D7D700D7D7D7D7D7D7D7D7D70000D7D7D7D7D7D7D7D7D7D700D7D7D7D7D7D7
310
D7D7D7D7D7D700D7D7D70000D7D7D70000D7D7D7D700D7D7D7D700D7D70000D700D7D700D7D7D70000D7D7D7D7D7D7D7D7D7D7D7D7D7D7D7D7D7D7D7D7D7D7D7D7D7D7D7D7D7D7D7D7D7D7D7D7D7D7D7D7D7D7D7D7D7D7D7D7D7D7D7D7D7D7D7D7D7D7D7D7D7D7D7D7D7D7D7D7D7D7D7D7D7D7D7D7D7D7D7D7D7D7D7D7D7D7
310
D7D7D7D7D7D7D7D7D7D7D7D7D7D7D7D7D7D7D7D7D7D7D7D7D7D7D7D7D7D7D7D7D7D7D7D7D7D7D7D7D7D7D7D7D7D7D7D7D7D7D7D7D7D7D7D700D7D7D7D7D7D7D7D7D70000D7D7D7D7D7D7D7D7D7D700D7D7D7D7D70000D7D7D7D7D7D7D7D7D7D7D7D7D7D7D7D7D7D7D7D7D7D7D7D7D7D7D700D7D7D700D7D7D700D7D7D7D7D7
310
D7D7D7D7D7D7D7D700D7D7D7D7D7D7D7D7D7D7D7D7D7D7D7D7D7D7D7D7D7D7D7D7D7D7D7D7D7D7D7D7D7D7D7D700D7D7D7D7D7D7D7D7D7D7D7D7D7D7D7D7D7D7D7D7D7D7D7D7D7D7D7D7D7D7D7D7D7D7D7D7D7D7D7D7D7D7D7D7D7D7D7D7D7D7D7D7D7D7D7D7D7D7D7D7D7D7D7D7D7D7D7D7D7D7D7D7D7D7D7D7D7D7D7D7D7
310
D7D7D7D7D7D7D7D7D7D7D7D7D7D700D7D7D7D7D7D7D7D7D70000D7D7D7D7D7D7D7D7D7D700D7D7D7D7D7D7D7D7D7D7D7D7D7D7D7D7D7D7D7D7D7D7D7D7D7D7D7D7D7D7D7D7D7D700D7D7D7D7D7D7D700D7D7D7D7D7D7D7D7D7D7D7D700D7D7D7D7D7D7D7D7D7D7D7D7D7D7D7D7D7D7D7D7D7D7D7D7D7D7D7D7D7D7D7D7D7D7
310
D7D7D700D7D7D7D7D7D7D7D7D7D7D7D7D7D7D7D7D7D7D7D7D7D7D7D7D7D7D7D7D7D7D7D7D7D7D7D7D7D7D7D7D7D7D7D7D7D7D7D7D7D7D7D7D7D7D7D7D7D7D7D7D7D7D7D7D7D7D7D7D7D7D7D7D7D7D7D7D7D7D7D7D7D7D7D7D7D7D7D7D7D7D7D7D7D7D700D7D7D7D7D7D7D7D7D70000D7D7D7D7D7D7D7D7D7D700D7D7D7D7D7
310
D7D7D7D7D7D7D7D7D7D7D7D7D7D7D7D7D7D7D7D7D7D700D7D7D7D7D7D70000D7D7D7D7D700000000000000D7D700D700D700D7D7D7D7D7D7D7D7D7D7D7D7D7D7D7D7D7D7D7D7D7D7D7D7D7D7D7D7D7D7D7D7D7D7D7D7D7D700D7D7D7D7D7D7D7D7D7D7D7D7D7D7D7D7D7D7D7D7D7D7D7D7D7D7D7D7D7D7D7D7D7D7D7D7D7D7
310
D7D7D7D7D7D7D7D7D7D7D7D7D7D7D7D7D7D7D7D7D7D7D7D7D7D7D7D7D7D7D7D7D7D7D7D7D7D7D7D7D7D7D7D7D7D7D7D7D7D7D7D7D7D7D7D7D700D7D7D7D7D7D7D7D7D70000D7D7D7D7D7D7D7D7D7D700D7D7D7D7D7D7D7D7D7D7D7D7D7D7D7D7D7D7D7D7D7D7D7D7D7D7D700D7D7D7D7D7D70000D7D7D7D7D70000D7D7D7D7
310
00D7D70000D700D7D7D7D7D7D7D7D7D7D7D7D7D7D7D7D7D7D7D7D7D7D7D7D7D7D7D7D7D7D7D7D7D7D7D7D7D7D7D700D7D7D7D7D7D7D7D7D7D7D7D7D7D7D7D7D7D7D7D7D7D7D7D7D7D7D7D7D7D7D7D7D7D7D7D7D7D7D7D7D7D7D7D7D7D7D7D7D7D7D7D7D7D7D7D7D7D7D7D7D7D7D7D7D7D7D7D7D7D7D7D7D7D7D7D7D7D7D7D7
310
D7D7D7D7D7D7D7D7D7D7D7D7D7D7D700D7D7D7D7D7D7D7D7D70000D7D7D7D7D7D7D7D7D7D700D7D7D7D7D7D7D7D7D7D7D7D7D7D7D7D7D7D7D7D7D7D7D7D7D7D7D700D7D7D7D7D7D70000D7D7D7D7D70000D7D7D7D700D7D7D7D7D7D7D7D7D7D7D7D7D7D7D7D7D7D7D7D7D7D7D7D7D7D7D7D7D7D7D7D7D7D7D7D7D7D7D7D7D7
310
D7D7D7D700D7D7D7D7D7D7D7D7D7D7D7D7D7D7D7D7D7D7D7D7D7D7D7D7D7D7D7D7D7D7D7D7D7D7D7D7D7D7D7D7D7D7D7D7D7D7D7D7D7D7D7D7D7D7D7D7D7D7D7D7D7D7D7D7D7D7D7D7D7D7D7D7D7D7D7D7D7D7D7D7D7D7D7D7D7D7D7D7D7D7D7D7D7D7D700D7D7D7D7D7D7D7D7D70000D7D7D7D7D7D7D7D7D7D700D7D7D7D7
310
D7D7D7D7D7D7D7D7D7D7D7D7D7D7D7D7D7D7D7D7D7D7D7D700D7D7D7D70000D7D7D7D7D7D7D700D7D7D7D700D7D7D70000000000000000000000000000000000000000000000000000000000000000000000000000000000D700D7D7D7D7D7D7D7D7D7D7D7D7D7D7D7D7D7D7D7D7D7D7D7D7D7D7D7D7D7D7D7D7D7D7D7D7D7
310
D7D7D7D7D7D7D7D7D7D7D7D7D7D7D7D7D7D7D7D7D7D7D7D7D7D7D7D7D7D7D7D7D7D7D7D7D7D7D7D7D7D7D7D7D7D7D7D7D7D7D7D7D7D7D7D7D7D700D7D7D7D7D7D7D7D7D70000D7D7D7D7D7D7D7D7D7D700D7D7D7D7D7D7D7D7D7D7D7D7D7D7D7D7D7D7D7D7D7D7D7D7D7D7D7D700D7D7D7D70000D7D7D7D7D7D7D70000D7D7
310
D700D7D7D700D7D7D7D7D7D7D7D7D7D7D7D7D7D7D7D7D7D7D7D7D7D7D7D7D7D7D7D7D7D7D7D7D7D7D7D7D7D7D7D7D700D7D7D7D7D7D7D7D7D7D7D7D7D7D7D7D7D7D7D7D7D7D7D7D7D7D7D7D7D7D7D7D7D7D7D7D7D7D7D7D7D7D7D7D7D7D7D7D7D7D7D7D7D7D7D7D7D7D7D7D7D7D7D7D7D7D7D7D7D7D7D7D7D7D7D7D7D7D7D7
310
D7D7D7D7D7D7D7D7D7D7D7D7D7D7D7D700D7D7D7D7D7D7D7D7D70000D7D7D7D7D7D7D7D7D7D700D7D7D7D7D7D7D7D7D7D7D7D7D7D7D7D7D7D7D7D7D7D7D7D7D7D7D7D700D7D7D7D70000D7D7D7D7D7D7D700D7D7D7D700D7D7D700D7D7D7D7D7D7D7D7D7D7D7D7D7D7D7D7D7D7D7D7D7D7D7D7D7D7D7D7D7D7D7D7D7D7D7D7
310
D7D7D7D7D700D7D7D7D7D7D7D7D7D7D7D7D7D7D7D7D7D7D7D7D7D7D7D7D7D7D7D7D7D7D7D7D7D7D7D7D7D7D7D7D7D7D7D7D7D7D7D7D7D7D7D7D7D7D7D7D7D7D7D7D7D7D7D7D7D7D7D7D7D7D7D7D7D7D7D7D7D7D7D7D7D7D7D7D7D7D7D7D7D7D7D7D7D7D7D700D7D7D7D7D7D7D7D7D70000D7D7D7D7D7D7D7D7D7D700D7D7D7
310
D7D7D7D7D7D7D7D7D7D7D7D7D7D7D7D7D7D7D7D7D7D7D7D7D7D7D7D7D7D7D700D700D7D7D700D700D7D7D70000D7D7D700D7D7D7D7D7D7D7D7000000D7D7D7D7D7D7D7D7D7D7D7D7D7D7D7D7D7D7D7D7D7D7D7D7D7D7D7D7D7D700D7D7D7D7D7D7D7D7D7D7D7D7D7D7D7D7D7D7D7D7D7D7D7D7D7D7D7D7D7D7D7D7D7D7D7D7
310
D7D7D7D7D7D7D7D7D7D7D7D7D7D7D7D7D7D7D7D7D7D7D7D7D7D7D7D7D7D7D7D7D7D7D7D7D7D7D7D7D7D7D7D7D7D7D7D7D7D7D7D7D7D7D7D7D7D7D700D7D7D7D7D7D7D7D7D70000D7D7D7D7D7D7D7D7D7D700D7D7D7D7D7D7D7D7D7D7D7D7D7D7D7D7D7D7D7D7D7D7D7D7D7D7D7D7D7D7D7D7D7D700D700D7D7D700D700D7D7
310
D7D700D7D7D700D7D7D7D7D7D7D7D700D700D7D7D7D7D7D7D7D7D7D7D7D7D7D7D7D7D7D7D7D7D7D7D7D7D7D7D7D7D7D700D7D7D7D7D7D7D7D7D7D7D7D7D7D7D7D7D7D7D7D7D7D7D7D7D7D7D7D7D7D7D7D7D7D7D7D7D7D7D7D7D7D7D7D7D7D7D7D7D7D7D7D7D7D7D7D7D7D7D7D7D7D7D7D7D7D7D7D7D7D7D7D7D7D7D7D7D7D7
310
D7D7D7D7D7D7D7D7D7D7D7D7D7D7D7D7D700D7D7D7D7D7D7D7D7D70000D7D7D7D7D7D7D7D7D7D700D7D7D7D7D7D7D7D7D7D7D7D7D7D7D7D7D7D7D7D7D7D7D7D7D7D7D7D7D700D7D700D700D7D700D700D7D700D7D7D7D700D7D7D700D7D7D7D7D7D7D7D7D7D7D7D7D7D7D7D7D7D7D7D7D7D7D7D7D7D7D7D7D7D7D7D7D7D7D7
310
D7D7D7D7D7D700D7D7D7D7D7D7D7D7D7D7D7D7D7D7D7D7D7D7D7D7D7D7D7D7D7D7D7D7D7D7D7D7D7D7D7D7D7D7D7D7D7D7D7D7D7D7D7D7D7D7D7D7D7D7D7D7D7D7D7D7D7D7D7D7D7D7D7D7D7D7D7D7D7D7D7D7D7D7D7D7D7D7D7D7D7D7D7D7D7D7D7D7D7D7D700D7D7D7D7D7D7D7D7D70000D7D7D7D7D7D7D7D7D7D700D7D7
310
D7D7D7D7D7D7D7D7D7D7D7D7D7D7D7D7D7D7D7D7D7D7D7D7D7D7D700D7D700D700D7D700D700D7D700D7D7D7D700D7D7D700D7D7D7D7D7D7D7D7D7D7D7D7D7D7D7D7D7D7D7D7D7D7D7D7D7D7D7D7D7D7D7D7D7D7D7D7D7D7D7D7D700D7D7D7D7D7D7D7D7D7D7D7D7D7D7D7D7D7D7D7D7D7D7D7D7D7D7D7D7D7D7D7D7D7D7D7
310
D7D7D7D7D7D7D7D7D7D7D7D7D7D7D7D7D7D7D7D7D7D7D7D7D7D7D7D7D7D7D7D7D7D7D7D7D7D7D7D7D7D7D7D7D7D7D7D7D7D7D7D7D7D7D7D7D7D7D7D700D7D7D7D7D7D7D7D7D70000D7D7D7D7D7D7D7D7D7D700D7D7D7D7D7D7D7D7D7D7D7D7D7D7D7D7D7D7D7D7D7D7D7D7D7D7D7D7D700D7D700D700D7D700D700D7D700D7
310
D7D7D700D7D7D700D7D7D7D7D7D7D7D7D7D7D7D7D7D7D7D7D7D7D7D7D7D7D7D7D7D7D7D7D7D7D7D7D7D7D7D7D7D7D7D7D700D7D7D7D7D7D7D7D7D7D7D7D7D7D7D7D7D7D7D7D7D7D7D7D700D7D7D7D7D7D7D7D7D7D7D7D7D7D7D7D7D7D7D7D7D7D7D7D7D7D7D7D7D7D7D7D7D7D7D7D7D7D7D7D7D7D7D7D7D7D7D7D7D7D7D7D7
310
D7D7D7D7D7D7D7D7D7D700D7D700D7D7D7D700D7D7D7D7D7D7D7D7D70000D7D7D7D7D7D7D7D7D7D700D7D7D7D7D7D7D7D7D7D7D7D7D7D7D7D7D7D7D7D7D7D7D7D7D7D7D7D7D700D7D700D700D7D700D700D7D70000D7D7D700D7D7D700D7D7D7D7D7D7D7D7D7D7D7D7D7D7D7D7D7D7D7D7D7D7D7D7D7D7D7D7D7D7D7D7D7D7
310
D7D7D7D7D7D7D700D7D7D7D7D7D7D7D7D7D7D7D7D7D7D7D7D7D7D7D7D7D7D700D700D7D7D7D7D7D7D7D7D7D7D7D7D7D7D7D7D7D7D7D7D7D7D7D7D7D7D7D7D7D7D7D7D7D7D7D7D7D7D7D7D7D7D7D7D7D7D7D7D7D7D7D7D7D7D7D7D7D7D7D7D7D700D7D700D7D7D700D7D7D7D7D7D7D7D7D70000D7D7D7D7D7D7D7D7D7D700D7
310
D7D7D7D7D7D7D7D7D7D7D7D7D7D7D7D7D7D7D7D7D7D7D7D7D7D7D7D7D70000D7D700D7D7D7D7D7D7D700D7D7D7D700D7D7D700D7D7D7D7D7D7D7D7D7D7D7D7D7D7D7D7D7D7D7D7D7D7D7D7D7D7D7D7D7D7D7D7D7D7D7D7D7D7D7D7D700D7D700D700D7D700D700D7D7D7D700D700D700D700D7D700D700D7D7D7D7D7D70000
310
D7D7D7D7D700D700D700D7D700D700D7D700D700D7D700D7D7D7D7D700D7D7D7D7D7D7D7D7D7D7D7D7D7D700D7D7D700D700D7D7D7D700D7D7D7D7D7D700D7D7D7D7D7D7D7D7D70000D7D7D7D7D7D7D7D7D7D700D7D7D7D7D7D7D7D7D7D7D7D7D7D7D7D7D7D7D7D7D7D7D7D7D7D7D7D7D7D70000D7D700D7D7D7D7D7D7D700
310
D7D7D70000D7D7D700D7D7D7D7D7D7D7D7D7D7D7D7D7D7D7D7D7D7D7D7D7D7D7D7D7D7D7D7D7D7D7D7D7D7D7D7D7D7D7D7D700D7D700D700D7D7D7D700D7D7D7D700D700D700D700D7D700D700D7D7D7D7D7D70000D7D7D7D7D700D700D700D7D700D700D7D700D700D7D700D7D7D7D7D7D7D7D7D7D7D7D7D7D7D7D7D7D7D7
310
D700D7D7D700D700D7D7D7D700D7D7D7D7D7D700D7D7D7D7D7D7D7D7D70000D7D7D7D7D7D7D7D7D7D700D7D7D7D7D7D7D7D7D7D7D7D7D7D7D7D7D7D7D7D7D7D7D7D7D7D7D7D7D7D70000D7D700D7D7D7D7D7D7D700D7D7D7D700D7D7D700D7D7D7D7D7D7D7D7D7D7D7D7D7D7D7D7D7D7D7D7D7D7D7D7D7D7D7D7D7D7D7D7D7
310
D7D7D7D7D7D7D7D700D7D70000D7D7D7D70000D7D7D7D700D700D70000D7D7D7D70000D7D7D7D7D700D700D7D7D7D70000D70000D7D7D7D700D7D7D700D700D7D700D7D7D7D70000D7D7D70000D7D7D7D7D7D700000000D7D7D70000D7D7D7D70000D7D7D7D7D7D700D7D7D7D7D7D7D7D7D70000D7D7D7D7D7D7D7D7D7D700
310
D7D7D7D7D7D7D7D7D7D7D7D7D7D7D7D7D7D7D7D7D7D7D7D7D7D7D7D7D7D7D7D7D7D700D7D7D700D7D7D700D7D7D7D700D7D7D700D7D7D7D7D7D7D7D7D7D7D7D7D7D7D7D7D7D7D7D7D7D7D7D7D7D7D7D7D7D7D7D7D7D7D7D7D7D7D7D7D700D7D7D7D7D7D7D7D7D7D7D7D7D7D700D700D7D7D7D7D7D7D7D7D7D7D7D7D7D7D7D7
310
D7D7D7D7D7D700D700D7D7D7D7D7D7D7D7D7D7D7D7D7D700D7D7D7D7D7D7D7D7D7D7D7D7D7D7D7D7D7D7D7D700D7D7D7D7D7D7D7D7D7D7D7D700D7D7D7D700D7D7D7D7D7D7D7D7D70000D7D7D7D7D7D7D7D7D7D700D7D7D7D7D7D7D7D7D7D7D7D7D7D7D7D7D7D7D7D7D7D7D7D7D7D7D7D7D7D7D7D7D7D700D7D7D700D7D7D7
310
00D7D7D7D700D7D7D700D7D7D7D7D7D7D7D7D7D7D7D7D7D7D7D7D7D7D7D7D7D7D7D7D7D7D7D7D7D7D7D7D7D7D7D7D7D7D7D7D700D7D7D7D7D7D7D7D7D7D7D7D7D7D7D7D7D7D7D7D7D7D7D7D7D7D7D7D7D7D7D7D7D7D7D7D7D7D7D7D7D7D7D7D7D7D7D7D7D7D7D7D7D7D7D7D7D7D7D7D7D7D7D7D7D7D7D7D7D7D7D7D7D7D7D7
310
D7D7D7D7D7D7D7D7D7D7D7D7D7D7D7D7D7D7D7D700D7D7D7D7D7D7D7D7D70000D7D7D7D7D7D7D7D7D7D700D7D7D7D7D7D7D7D7D7D7D7D7D7D7D7D7D7D7D7D7D7D7D7D7D7D7D7D7D7D7D7D7D7D700D7D7D700D7D7D700D7D7D7D700D7D7D700D70000D7D7D7D7D7D7D7D7D7D7D7D7D7D7D7D7D7D7D7D7D7D7D7D7D7D7D7D7D7
310
D7D7D7D7D7D7D700D700D7D7D7D7D7D7D7D7D7D7D7D7D7D7D7D7D7D7D7D7D7D7D7D7D7D7D7D7D7D7D7D7D7D7D7D7D7D7D7D7D7D7D7D7D7D7D7D7D7D7D7D7D7D7D7D7D7D7D7D7D7D7D7D7D7D7D7D7D7D7D7D7D7D7D7D7D7D7D7D7D7D7D7D7D7D7D7D7D7D7D7D7D7D7D700D7D7D7D7D7D7D7D7D70000D7D7D7D7D7D7D7D7D7D7
310
00D7D7D7D7D7D7D7D7D7D7D7D7D7D7D7D7D7D7D7D7D7D7D7D7D7D7D7D7D7D70000D7D700D7D7D7D7D7D7D70000D7D7D700D7D7D70000D700D7D7D7D7D7D7D7D7D7D7D7D7D7D7D7D7D7D7D7D7D7D7D7D7D7D7D7D7D7D7D7D7D7D7D7D7000000D7D7D7D7D7D7D7D7D7D7D7D7D7D7D7D7D7D7D7D7D7D7D7D7D7D7D7D7D7D7D7D7
310
D7D7D7D7D7D7D7D7D7D7D7D7D7D7D7D7D7D7D7D7D7D7D7D7D7D7D7D7D7D7D7D7D7D7D7D7D7D7D7D7D7D7D7D7D7D7D7D7D7D7D7D7D7D7D7D7D7D7D7D7D7D7D700D7D7D7D7D7D7D7D7D70000D7D7D7D7D7D7D7D7D7D700D7D7D7D7D7D7D7D7D7D7D7D7D7D7D7D7D7D7D7D7D7D7D7D7D7D7D7D7D7D70000D7D700D7D7D7D7D7D7
310
D700D7D7000000D7D7D700D70000D7D7D7D7D7D7D7D7D7D7D7D7D7D7D7D7D7D7D7D7D7D7D7D7D7D7D7D7D7D7D7D7D7D7D7D700D7D7D7D7D7D7D700D7D7D7D7D7D7D7D7D7D7D7D7D7D7D7D7D7D7D7D7D7D7D7D7D7D7D7D7D7D7D7D7D7D7D7D7D7D7D7D7D7D7D7D7D7D7D7D7D7D7D7D7D7D7D7D7D7D7D7D7D7D7D7D7D7D7D7D7
310
D7D7D7D7D7D7D7D7D7D7D7D7D7D7D7D7D7D7D7D7D700D7D7D7D7D7D7D7D7D70000D7D7D7D7D7D7D7D7D7D700D7D7D7D7D7D7D7D7D7D7D7D7D7D7D7D7D7D7D7D7D7D7D7D7D7D7D7D7D7D70000D7D700D7D7D7D7D7D7D700D7D7D70000D7D7D700000000D7D7D7D7D7D7D7D7D7D7D7D7D7D7D7D7D7D7D7D7D7D7D7D7D7D7D7D7
310
D7D7D7D7D7D7D7D700D7D7D7D7D7D700D7D7D700D700D7D700D7D7D7D7D700D7D7D7D7D700D700D7D7D7D7D7D7D700D700D7D7D7D700D700D7D700D700D7D7D7D7D7D7D7D7D7D7D700D700D700D7D7D7D7D7D7D7D700D7D7D7D700D7D7D7D700D7D7D7D7D7D7D7D7D7D700D7D7D7D7D7D7D7D7D70000D7D7D7D7D7D7D7D7D7
310
D700D7D7D7D7D7D7D7D7D7D7D7D7D7D7D7D7D7D7D7D7D7D7D7D7D7D7D7D7D700D7D700D700D7D700D700D7D700D7D7D7D700D7D7D700D7D7D700000000D7D7D7D7D7D7D7D7D7D7D7D7D7D7D7D7D7D7D7D7D7D7D7D7D7D7D7D7D7D7D7D700D7D7D7D7D7D700D7D7D700D700D7D7000000D7D7D700D7D7D7D7D700D700D7D7D7
310
D7D7D7D700D700D7D7D7D7D70000D7D700D7D7D7D7D7D7D7D7D7D7D7D7D700D700D700D7D7D7D7D7D7D7D700D7D7D7D7D700D7D7D700D7D70000D7D7D7D7D7D700D7D7D7D7D7D7D7D7D70000D7D7D7D7D7D7D7D7D7D700D7D7D7D7D7D7D7D7D7D7D7D7D7D7D7D7D7D7D7D7D7D7D7D7D7D7D7D7D700D7D700D700D7D700D700
310
D7D700D7D7D7D700D7D7D700D7D7D7D7D7D7D7D7D7D7D700000000D7D7D7D7D7D7D7D7D7D7D7D7D7D7D7D7D7D7D7D7D7D7D7D700D7D7D7D7D7D700D7D7D7D70000D7D7D700D7D7D700D7D7D70000D70000D7D7D7D7D70000D7D700D7D7D7D7D7D70000D7D7D700D7D7D70000D7D7D70000D7D700000000D7D7D7D70000D7D7
310
D7D700D7D7D7D700D7D70000D7D700D7D7D7D7D7D7D700D7D7D7D7D7D7D7D7D70000D7D7D7D7D7D7D7D7D7D700D7D7D7D7D7D7D7D7D7D7D7D7D7D7D7D7D7D7D7D7D7D7D7D7D7D7D7D7D700D7D700D700D7D700D700D7D700D7D7D7D700D7D7D700D7D7D7D7D7D7D7D7D7D7D7D7D7D7D700000000D7D7D7D7D7D7D7D7D7D7D7
310
D7D7D7D7D7D7D7D7D700D7D7D7D7D7D7D700D7D7D7D700D7D7D7D7D7D7D7D7D7D7D7D7D7D700D7D7D7D7D7D7D7D7D7D7D7D7D7D7D7D7D7D7D7D7D7D7D7D7D7D7D7D7D7D7D7D7D7D7D7D7D7D7D7D7D7D7D7D7D7D7D7D7D7D7D7D7D7D7D7D7D7D700D7D7D7D7D7D7D7D7D7D700D7D7D7D7D7D7D7D7D70000D7D7D7D7D7D7D7D7
310
D7D700D7D7D7D7D7D7D7D7D7D7D7D7D7D7D7D7D7D7D7D7D7D7D7D7D7D7D7D7D7D7D7D7D7D700D700D7D7D700D700D7D7D7D700D7D7D700D7D7D7D7D7D7D7D7D7D7D7D7D7D7D7D7D7D7D7D7D7D7D7D7000000D7D7D7D7D7D7D7D7D7D7D7D700D7D7D7D7D7D7D7D7D7D7D7D7D7D7D7D7D7D7D7D7D7D7D7D7D7D7D7D7D7D7D7D7
310
D7D7D7D7D7D7D7D7D7D7D7D7D7D7D7D7D7D7D7D7D7D7D7D7D7D7D7D7D7D7D7D7D7D7D7D7D7D7D7D7D7D7D7D7D7D7D7D7D7D7D7D7D7D7D7D7D7D7D7D7D7D7D7D7D700D7D7D7D7D7D7D7D7D70000D7D7D7D7D7D7D7D7D7D700D7D7D7D7D7D7D7D7D7D7D7D7D7D7D7D7D7D7D7D7D7D7D7D7D7D7D7D7D7D7D7D7D7D700D700D7D7
310
D700D700D700D7D700D7D7D700D7D7D7D7D7D7D7D7D7D7D7D7D7D7D7D7D7D7D7D7D7D7D7D7D7D7D7D7D7D7D7D700000000D7D7D700D7D7D7D7D7D7D7D7D7D7D7D7D7D7D7D7D7D7D7D7D7D7D7D7D7D7D7D7D7D7D7D7D7D7D7D7D7D7D7D7D7D7D7D7D7D7D7D7D7D7D7D7D7D7D7D7D7D7D7D7D7D7D7D7D7D7D7D7D7D7D7D7D7D7
310
D7D7D7D7D7D7D7D7D7D7D7D7D7D7D7D7D7D7D7D7D7D7D700D7D7D7D7D7D7D7D7D70000D7D7D7D7D7D7D7D7D7D700D7D7D7D7D7D7D7D7D7D7D7D7D7D7D7D7D7D7D7D7D7D7D7D7D7D7D7D7D7D7D7D7D7D700D700D7D7D700D700D7D7D7D700D7D7D700D7D7D7D7D7D7D7D7D7D7D7D7D7D7D7D7D7D7D7D7D7D7D7D7D7D7D7D7D7
310
D7D7D7D7D7D7D700000000D7D7D7D7D7D7D7D7D7D7D7D7D7D7D7D7D7D7D7D7D7D7D7D7D7D7D7D7D7D7D7D7D7D7D7D7D7D7D7D7D7D7D7D7D7D7D7D7D7D7D7D7D7D7D7D7D7D7D7D7D7D7D7D7D7D7D7D7D7D7D7D7D7D7D7D7D7D7D7D7D7D7D7D7D7D7D7D7D7D7D7D7D7D7D7D7D700D7D7D7D7D7D7D7D7D70000D7D7D7D7D7D7D7
310
D7D7D700D7D7D7D7D7D7D7D7D7D7D7D7D7D7D7D7D7D7D7D7D7D7D7D7D7D7D7D700D7D7D7D70000D7D7D7D7D7D7D700D7D7D70000D7D7D700D7D7D7D7D7D7D7D7000000D7D7D7D7D7D7D7D7D7D7D7D7D7D7D7D7D7D7D7D7D7D7D7D7D7D7D7D700D7D7D7D700000000D7D7D7D7D7D7D7D7D7D7D7D7D7D7D7D7D7D7D7D7D7D7D7
310
D7D7D7D7D7D7D7D7D700D7D7D7D7D7D7D7D7D7D7D7D7D7D7D7D7D7D7D7D7D7D7D7D7D7D7D7D7D7D7D7D7D7D7D7D7D7D7D7D7D7D7D7D7D7D7D7D7D7D7D7D7D7D7D7D700D7D7D7D7D7D7D7D7D70000D7D7D7D7D7D7D7D7D7D700D7D7D7D7D7D7D7D7D7D7D7D7D7D7D7D7D7D7D7D7D7D7D7D7D7D7D7D700D7D7D7D70000D7D7D7
310
D7D7D7D700D7D7D7D700D7D7D700D7D7D7D7D7D7D7D700D700D7D7D7D7D7D7D7D7D7D7D7D7D7D7D7D7D7D7D7D7D7D7D7D7D7D7D7D700D7D7D7D7D7D7D7D700000000D7D7D7D7D7D7D7D7D7D7D7D7000000D7D7D70000D7D7D70000D7D70000D7D7D70000D7D7D7D7D7D7D7D7000000D7D7D700D7D700D7D7D7D700D7D7D7D7
310
D7D7D7D7D7D7D7D7D7D7D7D7D7D7D7D7D7D7D7D7D7D7D7D700D7D7D7D7D7D7D7D7D70000D7D7D7D7D7D7D7D7D7D700D7D7D7D7D7D7D7D7D7D7D7D7D7D7D7D7D7D7D7D7D7D7D7D7D7D7D7D700D7D7D7D70000D7D7D7D7D7D7D700D7D7D7D700D7D700D7D7D7D7D7D7D7D7D7D70000D7D7D7D7D7D7D7D7D7D7D7D7D7D7D7D7D7
310
D7D7D7D7D7D7D7D7D7D7D700D7D7D7D7D7D7D7D7D7D7D7D7D7D7D7D70000D7D7D7D7D7D700D7D7D7D7000000D7D700D700D7D7D700D7D7D70000D7D7D7D7D7D7D7D700D7D700D7D700D700D7D7D7D700D7D7D70000D7D7D7D7D7D7D7D7D7D7D7D7D7D7D7D7D7D7D7D7D7D7D7D700D7D7D7D7D7D7D7D7D70000D7D7D7D7D7D7
310
D7D7D7D700D7D7D7D7D7D7D7D7D7D7D7D7D7D7D7D7D7D7D7D7D7D7D7D7D7D7D700D7D7D7D7D7D70000D7D7D7D7D70000D7D7D7D700D700D7D7D7D7D7D7D7D7D7D7D7D7D7D7D7D7D7D7D7D7D7D7D7D7D7D7D7D7D7D7D7D7D7D7D7D7D7D7D7D7D700D7D7D7D7D7D7D7D7D7D7D7D7D7D7D7D7D7D7D7D7D7D7D7D700D7D7D7D700
310
D700D7D700D700D7D7D700D7D7D7D7D7D7D7D7D7D7D7D7D700000000D7D700D700D7D7D7D700D700D7D700D7D7D7D7D7D7D7D7D7D7D7D7D7D7D7D7D7D7D7D7D7D7D7D700D7D7D7D7D7D7D7D7D70000D7D7D7D7D7D7D7D7D7D700D7D7D7D7D7D7D7D7D7D7D7D7D7D7D7D7D7D7D7D7D7D7D7D7D7D7D700D7D7D7D7D7D70000D7
310
D7D7D7D70000D7D7D7D7000000000000000000000000000000000060000000000000000000000000000000000000000000600000000000D7D7D7D7D7D7D7D7D7D7D7D7D7D7D7D7D7D7D7D7D7D7D7D700D7D7D7D7D7D7D7D7D7D7D700D7D7D7D7D7D7D7D7D7D7D7D7D7D7D7D7D700D7D700D7D700D7D7D7D7D7D7D7D7D7D7D7
310
D7D7D7D7D7D7D7D7D7D7D7D7D7D7D7D7D7D7D7D7D7D7D7D7D700D7D7D7D7D7D7D7D7D70000D7D7D7D7D7D7D7D7D7D700D7D7D7D7D7D7D7D7D7D7D7D7D7D7D7D7D7D7D7D7D7D7D7D7D7D7D700D7D7D7D7D7D70000D7D7D7D7D70000D700D7D700D7D7D7D7D7D7D7D7D7D7D7D7D7D7D7D760D7D7D7D7D7D7D7D7D7D7D7D7D7D7
310
D7D7D7D7D7D7D73CD7D7D7D700D7D7D7D7D7D7D7D7D7D7D7D7D7D7D7D7D7D7D7D7D7D7D7D7D7D7D7D7D7D7D7D7D7D7D7D7D7D7D7D7D7D7D7D7D7D7D7D7D7D7D7D7D7D7D7D7D7D7D7D7D7D7D7D7D7D7D7D7D7D7D7D7D7D7D7D7D7D7D7D7D7D7D7D7D7D7D7D7D7D7D7D7D7D7D7D7D700D7D7D7D7D7D7D7D7D70000D7D7D7D7D7
310
D7D7D7D7D700D7D7D7D7D7D7D7D7D7D7D7D7D7D7D7D7D7D7D7D7D7D7D7D7D7D7D7D7D7D7D7D7D7D700D7D7D7D7D7D7D700D7D7D7D700D7D7D7D7D7D7D7D7D7D7D7D7D7D7D7D73CD7D7D7D7D7D7D7D7D7D7D7D7D7D7D7D7D7D7D7D7D760D7D7D7D700D7D7D7D7D7D7D7D7D7D7D7D7D7D7D7D7D7D7D7D7D7D7D7D7D7D7D7D7D7
310
D7D7D7D7D7D7D7D7D7D7D7D7D7D7D7D7D7D7D7D7D7D7D7D7D7D7D7D7D7D7D7D7D7D7D7D7D7D7D7D7D7D7D7D7D7D7D7D7D7D7D7D7D7D7D7D7D7D7D7D7D7D7D7D7D7D7D7D700D7D7D7D7D7D7D7D7D70000D7D7D7D7D7D7D7D7D7D700D7D7D7D7D7D7D7D7D7D7D7D7D7D7D7D7D7D7D7D7D7D7D7D7D7D7D7000000000000000000
310
00000000000000D7D7D70000D7D7D7D7D7D7D7D7D7D7D7D7D7D7D7D760D7D7D7D7D7D7D7D7D7D7D7D7D7D7D7D7D7D7D7D7D760D7D7D7D700D7D7D7D7D7D7D7D7D7D7D7D7D7D7D7D7D7D7D7D7D7D7D7D7D7D7D7D7D7D7D7D7D7D7D7D7D7D7D7D7D7D7D7D7D7D7D7D7D7D7D7D7D7D7D7D7D7D7D7D7D7D7D7D7D7D7D7D7D7D7D7
310
D7D7D7D7D7D7D7D7D7D7D7D7D7D7D7D7D7D7D7D7D7D7D7D7D7D700D7D7D7D7D7D7D7D7D70000D7D7D7D7D7D7D7D7D7D700D7D7D7D7D7D7D7D7D7D7D7D7D7D7D7D7D7D7D7D7D7D7D7D7D7D7D7D7D7D7D7D7D7D700D7D7D7D7D7D7D700D7D7D7D700D7D7D7D7D7D7D7D7D7D7D7D7D7D7D7D760D7D7D7D7D7D7D7D7D7D7D7D7D7
310
D7D7D7D7D7D7D7D760D7D7D7D700D7D7D7D7D7D7D7D7D7D7D7D7D7D7D7D7D7D7D7D7D7D7D7D7D7D7D7D7D7D7D7D7D7D7D7D7D7D7D7D7D7D7D7D7D7D7D7D7D7D7D7D7D7D7D7D7D7D7D7D7D7D7D7D7D7D7D7D7D7D7D7D7D7D7D7D7D7D7D7D7D7D7D7D7D7D7D7D7D7D7D7D7D7D7D7D7D700D7D7D7D7D7D7D7D7D70000D7D7D7D7
310
D7D7D7D7D7D700D7D7D7D7D7D7D7D7D7D7D7D7D7D7D7D7D7D7D7D7D7D7D7D7D7D7D7D7D7D7D7D7D7D700D7D7D7D7D7D7D700D7D700D700D7D7D7D7D7D7D7D7D7D7D7D7D7D7D7D760D7D7D7D7D7D7D7D7D7D7D7D7D7D7D7D7D7D7D7D7D73CD7D7D7D700D7D7D7D7D7D7D7D7D7D7D7D7D7D7D7D7D7D7D7D7D7D7D7D7D7D7D7D7
310
D7D7D7D7D7D7D7D7D7D7D7D7D7D7D7D7D7D7D7D7D7D7D7D7D7D7D7D7D7D7D7D7D7D7D7D7D7D7D7D7D7D7D7D7D7D7D7D7D7D7D7D7D7D7D7D7D7D7D7D7D7D7D7D7D7D7D7D7D700D7D7D7D7D7D7D7D7D70000D7D7D7D7D7D7D7D7D7D700D7D7D7D7D7D7D7D7D7D7D7D7D7D7D7D7D7D7D7D7D7D7D7D7D7D7D7D7D7D7D7D7D7D700
310
D7D7D7D7D7D7D70000000000000000000000000000000000000000000060000000000000000000000000000000000000000000600000000000D7D7D7D7D7D7D7D7D7D7D7D7D7D7D7D7D7D7D7D7D7D7D7D7D7D7D7D7D7D7D7D7D7D7D7D7D7D7D7D7D7D7D7D7D7D7D7D7D7D7D7D7D7D7D7D7D7D7D7D7D7D7D7D7D7D7D7D7D7D7
310
D7D7D7D7D7D7D7D7D7D7D7D7D7D7D7D7D7D7D7D7D7D7D7D7D7D7D700D7D7D7D7D7D7D7D7D70000D7D7D7D7D7D7D7D7D7D700D7D7D7D7D7D7D7D7D7D7D7D7D7D7D7D7D7D7D7D7D7D7D7D7D7D7D7D7D7D7D7D7D7D700D7D7D7D7D7D7D700D7D7D7D7D7D7D700D7D7D700D7D7D7D7D7D7D7D7D766D7D7D7D7D7D7D7D7D7D7D7D7
310
D700D7D7D7D7D7D7D760D7D7D7D700D7D7D7D7D7D7D7D7D7D7D7D7D7D7D7D7D7D7D7D7D7D7D7D7D7D7D7D7D7D7D7D7D7D7D7D7D7D7D7D7D7D7D7D7D7D7D7D7D7D7D7D7D7D7D7D7D7D7D7D7D7D7D7D7D7D7D7D7D7D7D7D7D7D7D7D7D7D7D7D7D7D7D7D7D7D7D7D7D7D7D7D7D7D7D7D7D700D7D7D7D7D7D7D7D7D70000D7D7D7
310
D7D7D7D7D7D7D700D7D7D7D7D7D7D7D7D7D7D7D7D7D7D7D7D7D7D7D7D7D7D7D7D7D7D7D7D7D7D7D7D7D700D7D7D7D7D7D7D700D7D700D7D7D7D7D7D7D70000D7D7D7D7D7D700D7D760D7D7D7D7D7D7D7D7D7D7D7D7D7D7D7D7D7D7D7D70060D7D7D7D700D7D7D7D7D7D7D7D7D7D7D7D7D7D7D7D7D7D7D7D7D7D7D7D7D7D7D7
310
D7D7D7D7D7D7D7D7D7D7D7D7D7D7D7D7D7D7D7D7D7D7D7D7D7D7D7D7D7D7D7D7D7D7D7D7D7D7D7D7D7D7D7D7D7D7D7D7D7D7D7D7D7D7D7D7D7D7D7D7D7D7D7D7D7D7D7D7D7D700D7D7D7D7D7D7D7D7D70000D7D7D7D7D7D7D7D7D7D700D7D7D7D7D7D7D7D7D7D7D7D7D7D7D7D7D7D7D7D7D7D7D7D7D7D7D7D7D7D7D7D7D7D7
310
00D7D7D7D7D7D7D700D7D7D7D7D7D7D7D7D700D7D70000D7D7D700D7D7D760D7D7D700D7D7D7D7D7D7D700D7D7D7D7D7D7D700D73CD7D7D7D700D7D7D7D7D7D7D7D7D7D7D7D7D7D7D7D7D7D7D7D7D7D7D7D7D7D7D7D7D7D7D7D7D7D7D7D7D7D7D7D7D7D7D7D7D7D7D7D7D7D7D7D7D7D7D7D7D7D7D7D7D7D7D7D7D7D7D7D7D7
310
D7D7D7D7D7D7D7D7D7D7D7D7D7D7D7D7D7D7D7D7D7D7D7D7D7D7D7D700D7D7D7D7D7D7D7D7D70000D7D7D7D7D7D7D7D7D7D700D7D7D7D7D7D7D7D7D7D7D7D7D7D7D7D7D7D7D7D7D7D7D7D7D7D7D7D7D7D7D7D7D7D700D7D7D7D7D7D7D7000000D7D7D7D7D7D7D7D7D7D7D7D7D70000D70000D7D7D7D7D7D7D7D7D7D7D7D7D7
310
D7D7D7D7D7D7D7D7D7D7D7D7D7D7D7D7D7D7D7D7D7D7D7D7D7D7D7D7D7D7D7D7D7D7D7D7D7D7D7D7D7D7D7D7D7D7D7D7D7D7D7D7D7D7D7D7D7D7D7D7D7D7D7D7D7D7D7D7D7D7D7D7D7D7D7D7D7D7D7D7D7D7D7D7D7D7D7D7D7D7D7D7D7D7D7D7D7D7D7D7D7D7D7D7D7D7D7D7D7D7D7D7D700D7D7D7D7D7D7D7D7D70000D7D7
310
D7D7D7D7D7D7D7D700D7D7D7D7D7D7D7D7D7D7D7D7D7D7D7D7D7D7D7D7D7D7D7D7D7D7D7D7D7D7D7D7D7D700D7D7D7D7D7D7D700D7D70000D7D7D7D7D7D7D7D7D7D7D7D7000000D7D7D7D7D7D7D7D7D7D7D7D7D7D7D7D7D7D7D7D7D7D7D7D7D7D7D7D7D7D7D7D7D7D7D7D7D7D7D7D7D7D7D7D7D7D7D7D7D7D7D7D7D7D7D7D7
310
D7D7D7D7D7D7D7D7D7D7D7D7D7D7D7D7D7D7D7D7D7D7D7D7D7D7D7D7D7D7D7D7D7D7D7D7D7D7D7D7D7D7D7D7D7D7D7D7D7D7D7D7D7D7D7D7D7D7D7D7D7D7D7D7D7D7D7D7D7D7D700D7D7D7D7D7D7D7D7D70000D7D7D7D7D7D7D7D7D7D700D7D7D7D7D7D7D7D7D7D7D7D7D7D7D7D7D7D7D7D7D7D7D7D7D7D7D7D7D7D7D7D7D7
310
D700D7D7D7D7D7D7D700D7D7D7D7D7D70000D7D7D7D70000D7D7D7D7D7D7D70000D7D7D7D7D7D7D7D7D7D7D7D7D7D7D7D7D7D7D7D7D7D7D7D7D7D7D7D7D7D7D7D7D7D7D7D7D7D7D7D7D7D7D7D7D7D7D7D7D7D7D7D7D7D7D7D7D7D7D7D7D7D7D7D7D7D7D7D7D7D7D7D7D7D7D7D7D7D7D7D7D7D7D7D7D7D7D7D7D7D7D7D7D7D7
310
D7D7D7D7D7D7D7D7D7D7D7D7D7D7D7D7D7D7D7D7D7D7D7D7D7D7D7D7D700D7D7D7D7D7D7D7D7D70000D7D7D7D7D7D7D7D7D7D700D7D7D7D7D7D7D7D7D7D7D7D7D7D7D7D7D7D7D7D7D7D7D7D7D7D7D7D7D7D7D7D7D7D700D7D7D7D7D7D7D700D7D7D7D7D7D7D7D700000000D7D7D7D7D7D7D7D7D7D7D7D70000D7D7D7D7D7D7
310
D7D7D7D7D7D7D7D7D7D7D7D7D7D7D7D7D7D7D7D7D7D7D7D7D7D7D7D7D7D7D7D7D7D7D7D7D7D7D7D7D7D7D7D7D7D7D7D7D7D7D7D7D7D7D7D7D7D7D7D7D7D7D7D7D7D7D7D7D7D7D7D7D7D7D7D7D7D7D7D7D7D7D7D7D7D7D7D7D7D7D7D7D7D7D7D7D7D7D7D7D7D7D7D7D7D7D7D7D7D7D7D7D7D700D7D7D7D7D7D7D7D7D70000D7
310
D7D7D7D7D7D7D7D7D700D7D7D7D7D7D7D7D7D7D7D7D7D7D7D7D7D7D7D7D7D7D7D7D7D7D7D7D7D7D7D7D7D7D700D7D7D7D7D7D7D700D7D7D7D7D7D70000D7D7D7D70000D7D7D7D7D7D7D7D7D7D7D7D70000D7D7D7D7D7D7D7D7D7D7D7D7D7D7D7D7D7D7D7D7D7D7D7D7D7D7D7D7D7D7D7D7D7D7D7D7D7D7D7D7D7D7D7D7D7D7
310
D7D7D7D7D7D7D7D7D7D7D7D7D7D7D7D7D7D7D7D7D7D7D7D7D7D7D7D7D7D7D7D7D7D7D7D7D7D7D7D7D7D7D7D7D7D7D7D7D7D7D7D7D7D7D7D7D7D7D7D7D7D7D7D7D7D7D7D7D7D7D7D700D7D7D7D7D7D7D7D7D70000D7D7D7D7D7D7D7D7D7D700D7D7D7D7D7D7D7D7D7D7D7D7D7D7D7D7D7D7D7D7D7D7D7D7D7D7D7D7D7D7D7D7
310
D7D700D7D7D7D7D7D7D700D7D70000D7D7D7D7D7D7D7D7D7D7D7D70000D7D7D7D7D7D7D7D7D7D7D7D70000D7D7D7D7D7D7D7D7D7D7D7D7D7D7D7D7D7D7D7D7D7D7D7D7D7D7D7D7D7D7D7D7D7D7D7D7D7D7D7D7D7D7D7D7D7D7D7D7D7D7D7D7D7D7D7D7D7D7D7D7D7D7D7D7D7D7D7D7D7D7D7D7D7D7D7D7D7D7D7D7D7D7D7D7
310
D7D7D7D7D7D7D7D7D7D7D7D7D7D7D7D7D7D7D7D7D7D7D7D7D7D7D7D7D7D700D7D7D7D7D7D7D7D7D70000D7D7D7D7D7D7D7D7D7D700D7D7D7D7D7D7D7D7D7D7D7D7D7D7D7D7D7D7D7D7D7D7D7D7D7D7D7D7D7D7D7D7D7D700D7D7D7D7D7D7D7000000D7D7D7D7D7D7D7D7D7D7D7D7D7D7D7D70000D7D7D7D7D7D7D7D7D7D7D7
310
D70000D7D7D7D7D7D7D7D7D7D7D7D7D7D7D7D7D7D7D7D7D7D7D7D7D7D7D7D7D7D7D7D7D7D7D7D7D7D7D7D7D7D7D7D7D7D7D7D7D7D7D7D7D7D7D7D7D7D7D7D7D7D7D7D7D7D7D7D7D7D7D7D7D7D7D7D7D7D7D7D7D7D7D7D7D7D7D7D7D7D7D7D7D7D7D7D7D7D7D7D7D7D7D7D7D7D7D7D7D7D7
  0
ENDSEC
  0
EOF
