  0
SECTION
  2
HEADER
  9
$ACADVER
  1
AC1015
  9
$ACADMAINTVER
 70
     6
  9
$DWGCODEPAGE
  3
ANSI_1252
  9
$INSBASE
 10
0.0
 20
0.0
 30
0.0
  9
$EXTMIN
 10
-7.260660000000001
 20
-7.254899999999999
 30
0.0
  9
$EXTMAX
 10
152.47386
 20
152.3529
 30
0.0
  9
$LIMMIN
 10
-7.260660000000001
 20
-7.254899999999999
  9
$LIMMAX
 10
152.47386
 20
152.3529
  9
$ORTHOMODE
 70
     0
  9
$REGENMODE
 70
     1
  9
$FILLMODE
 70
     1
  9
$QTEXTMODE
 70
     0
  9
$MIRRTEXT
 70
     1
  9
$LTSCALE
 40
1.0
  9
$ATTMODE
 70
     1
  9
$TEXTSIZE
 40
0.2
  9
$TRACEWID
 40
0.05
  9
$TEXTSTYLE
  7
Standard
  9
$CLAYER
  8
0
  9
$CELTYPE
  6
ByLayer
  9
$CECOLOR
 62
   256
  9
$CELTSCALE
 40
1.0
  9
$DISPSILH
 70
     0
  9
$DIMSCALE
 40
1.0
  9
$DIMASZ
 40
0.18
  9
$DIMEXO
 40
0.0625
  9
$DIMDLI
 40
0.38
  9
$DIMRND
 40
0.0
  9
$DIMDLE
 40
0.0
  9
$DIMEXE
 40
0.18
  9
$DIMTP
 40
0.0
  9
$DIMTM
 40
0.0
  9
$DIMTXT
 40
0.18
  9
$DIMCEN
 40
0.09
  9
$DIMTSZ
 40
0.0
  9
$DIMTOL
 70
     0
  9
$DIMLIM
 70
     0
  9
$DIMTIH
 70
     1
  9
$DIMTOH
 70
     1
  9
$DIMSE1
 70
     0
  9
$DIMSE2
 70
     0
  9
$DIMTAD
 70
     0
  9
$DIMZIN
 70
     0
  9
$DIMBLK
  1

  9
$DIMASO
 70
     1
  9
$DIMSHO
 70
     1
  9
$DIMPOST
  1

  9
$DIMAPOST
  1

  9
$DIMALT
 70
     0
  9
$DIMALTD
 70
     2
  9
$DIMALTF
 40
25.4
  9
$DIMLFAC
 40
1.0
  9
$DIMTOFL
 70
     0
  9
$DIMTVP
 40
0.0
  9
$DIMTIX
 70
     0
  9
$DIMSOXD
 70
     0
  9
$DIMSAH
 70
     0
  9
$DIMBLK1
  1

  9
$DIMBLK2
  1

  9
$DIMSTYLE
  2
Standard
  9
$DIMCLRD
 70
     0
  9
$DIMCLRE
 70
     0
  9
$DIMCLRT
 70
     0
  9
$DIMTFAC
 40
1.0
  9
$DIMGAP
 40
0.09
  9
$DIMJUST
 70
     0
  9
$DIMSD1
 70
     0
  9
$DIMSD2
 70
     0
  9
$DIMTOLJ
 70
     1
  9
$DIMTZIN
 70
     0
  9
$DIMALTZ
 70
     0
  9
$DIMALTTZ
 70
     0
  9
$DIMUPT
 70
     0
  9
$DIMDEC
 70
     4
  9
$DIMTDEC
 70
     4
  9
$DIMALTU
 70
     2
  9
$DIMALTTD
 70
     2
  9
$DIMTXSTY
  7
Standard
  9
$DIMAUNIT
 70
     0
  9
$DIMADEC
 70
     0
  9
$DIMALTRND
 40
0.0
  9
$DIMAZIN
 70
     0
  9
$DIMDSEP
 70
    46
  9
$DIMATFIT
 70
     3
  9
$DIMFRAC
 70
     0
  9
$DIMLDRBLK
  1

  9
$DIMLUNIT
 70
     2
  9
$DIMLWD
 70
    -2
  9
$DIMLWE
 70
    -2
  9
$DIMTMOVE
 70
     0
  9
$LUNITS
 70
     2
  9
$LUPREC
 70
     4
  9
$SKETCHINC
 40
0.1
  9
$FILLETRAD
 40
0.5
  9
$AUNITS
 70
     0
  9
$AUPREC
 70
     0
  9
$MENU
  1
.
  9
$ELEVATION
 40
0.0
  9
$PELEVATION
 40
0.0
  9
$THICKNESS
 40
0.0
  9
$LIMCHECK
 70
     0
  9
$CHAMFERA
 40
0.5
  9
$CHAMFERB
 40
0.5
  9
$CHAMFERC
 40
1.0
  9
$CHAMFERD
 40
0.0
  9
$SKPOLY
 70
     0
  9
$TDCREATE
 40
2456153.366524699
  9
$TDUCREATE
 40
2456153.616524699
  9
$TDUPDATE
 40
2456153.366524711
  9
$TDUUPDATE
 40
2456153.616524711
  9
$TDINDWG
 40
0.0000000116
  9
$TDUSRTIMER
 40
0.0000000116
  9
$USRTIMER
 70
     1
  9
$ANGBASE
 50
0.0
  9
$ANGDIR
 70
     0
  9
$PDMODE
 70
     0
  9
$PDSIZE
 40
0.0
  9
$PLINEWID
 40
0.0
  9
$SPLFRAME
 70
     0
  9
$SPLINETYPE
 70
     6
  9
$SPLINESEGS
 70
     8
  9
$HANDSEED
  5
480
  9
$SURFTAB1
 70
     6
  9
$SURFTAB2
 70
     6
  9
$SURFTYPE
 70
     6
  9
$SURFU
 70
     6
  9
$SURFV
 70
     6
  9
$UCSBASE
  2

  9
$UCSNAME
  2

  9
$UCSORG
 10
0.0
 20
0.0
 30
0.0
  9
$UCSXDIR
 10
1.0
 20
0.0
 30
0.0
  9
$UCSYDIR
 10
0.0
 20
1.0
 30
0.0
  9
$UCSORTHOREF
  2

  9
$UCSORTHOVIEW
 70
     0
  9
$UCSORGTOP
 10
0.0
 20
0.0
 30
0.0
  9
$UCSORGBOTTOM
 10
0.0
 20
0.0
 30
0.0
  9
$UCSORGLEFT
 10
0.0
 20
0.0
 30
0.0
  9
$UCSORGRIGHT
 10
0.0
 20
0.0
 30
0.0
  9
$UCSORGFRONT
 10
0.0
 20
0.0
 30
0.0
  9
$UCSORGBACK
 10
0.0
 20
0.0
 30
0.0
  9
$PUCSBASE
  2

  9
$PUCSNAME
  2

  9
$PUCSORG
 10
0.0
 20
0.0
 30
0.0
  9
$PUCSXDIR
 10
1.0
 20
0.0
 30
0.0
  9
$PUCSYDIR
 10
0.0
 20
1.0
 30
0.0
  9
$PUCSORTHOREF
  2

  9
$PUCSORTHOVIEW
 70
     0
  9
$PUCSORGTOP
 10
0.0
 20
0.0
 30
0.0
  9
$PUCSORGBOTTOM
 10
0.0
 20
0.0
 30
0.0
  9
$PUCSORGLEFT
 10
0.0
 20
0.0
 30
0.0
  9
$PUCSORGRIGHT
 10
0.0
 20
0.0
 30
0.0
  9
$PUCSORGFRONT
 10
0.0
 20
0.0
 30
0.0
  9
$PUCSORGBACK
 10
0.0
 20
0.0
 30
0.0
  9
$USERI1
 70
     0
  9
$USERI2
 70
     0
  9
$USERI3
 70
     0
  9
$USERI4
 70
     0
  9
$USERI5
 70
     0
  9
$USERR1
 40
0.0
  9
$USERR2
 40
0.0
  9
$USERR3
 40
0.0
  9
$USERR4
 40
0.0
  9
$USERR5
 40
0.0
  9
$WORLDVIEW
 70
     1
  9
$SHADEDGE
 70
     3
  9
$SHADEDIF
 70
    70
  9
$TILEMODE
 70
     1
  9
$MAXACTVP
 70
    64
  9
$PINSBASE
 10
0.0
 20
0.0
 30
0.0
  9
$PLIMCHECK
 70
     0
  9
$PEXTMIN
 10
1.000000000000000E+20
 20
1.000000000000000E+20
 30
1.000000000000000E+20
  9
$PEXTMAX
 10
-1.000000000000000E+20
 20
-1.000000000000000E+20
 30
-1.000000000000000E+20
  9
$PLIMMIN
 10
0.0
 20
0.0
  9
$PLIMMAX
 10
12.0
 20
9.0
  9
$UNITMODE
 70
     0
  9
$VISRETAIN
 70
     1
  9
$PLINEGEN
 70
     0
  9
$PSLTSCALE
 70
     1
  9
$TREEDEPTH
 70
  3020
  9
$CMLSTYLE
  2
Standard
  9
$CMLJUST
 70
     0
  9
$CMLSCALE
 40
1.0
  9
$PROXYGRAPHICS
 70
     1
  9
$MEASUREMENT
 70
     0
  9
$CELWEIGHT
370
    -1
  9
$ENDCAPS
280
     0
  9
$JOINSTYLE
280
     0
  9
$LWDISPLAY
290
     0
  9
$INSUNITS
 70
     4
  9
$HYPERLINKBASE
  1

  9
$STYLESHEET
  1

  9
$XEDIT
290
     1
  9
$CEPSNTYPE
380
     0
  9
$PSTYLEMODE
290
     1
  9
$FINGERPRINTGUID
  2
{CC78C523-78D4-4FBA-A606-1D44E9248430}
  9
$VERSIONGUID
  2
{FAEB1C32-E019-11D5-929B-00C0DF256EC4}
  9
$EXTNAMES
290
     1
  9
$PSVPSCALE
 40
0.0
  9
$OLESTARTUP
290
     0
  0
ENDSEC
  0
SECTION
  2
CLASSES
  0
CLASS
  1
ACDBDICTIONARYWDFLT
  2
AcDbDictionaryWithDefault
  3
ObjectDBX Classes
 90
        0
280
     0
281
     0
  0
CLASS
  1
VISUALSTYLE
  2
AcDbVisualStyle
  3
ObjectDBX Classes
 90
     4095
280
     0
281
     0
  0
CLASS
  1
MATERIAL
  2
AcDbMaterial
  3
ObjectDBX Classes
 90
     1153
280
     0
281
     0
  0
CLASS
  1
DICTIONARYVAR
  2
AcDbDictionaryVar
  3
ObjectDBX Classes
 90
        0
280
     0
281
     0
  0
CLASS
  1
ACDBPLACEHOLDER
  2
AcDbPlaceHolder
  3
ObjectDBX Classes
 90
        0
280
     0
281
     0
  0
CLASS
  1
LAYOUT
  2
AcDbLayout
  3
ObjectDBX Classes
 90
        0
280
     0
281
     0
  0
ENDSEC
  0
SECTION
  2
TABLES
  0
TABLE
  2
VPORT
  5
8
330
0
100
AcDbSymbolTable
 70
     1
  0
VPORT
  5
29
330
8
100
AcDbSymbolTableRecord
100
AcDbViewportTableRecord
  2
*Active
 70
     0
 10
0.0
 20
0.0
 11
1.0
 21
1.0
 12
-7.260660000000001
 22
72.54899999999999
 13
0.0
 23
0.0
 14
0.5
 24
0.5
 15
0.5
 25
0.5
 16
0.0
 26
0.0
 36
1.0
 17
0.0
 27
0.0
 37
0.0
 40
159.6078
 41
0.1112524372596638
 42
50.0
 43
0.0
 44
0.0
 50
0.0
 51
0.0
 71
     0
 72
   100
 73
     1
 74
     3
 75
     0
 76
     0
 77
     0
 78
     0
281
     0
 65
     1
110
0.0
120
0.0
130
0.0
111
1.0
121
0.0
131
0.0
112
0.0
122
1.0
132
0.0
 79
     0
146
0.0
  0
ENDTAB
  0
TABLE
  2
LTYPE
  5
5
330
0
100
AcDbSymbolTable
 70
    10
  0
LTYPE
  5
14
330
5
100
AcDbSymbolTableRecord
100
AcDbLinetypeTableRecord
  2
ByBlock
 70
     0
  3

 72
    65
 73
     0
 40
0.0
  0
LTYPE
  5
15
330
5
100
AcDbSymbolTableRecord
100
AcDbLinetypeTableRecord
  2
ByLayer
 70
     0
  3

 72
    65
 73
     0
 40
0.0
  0
LTYPE
  5
16
330
5
100
AcDbSymbolTableRecord
100
AcDbLinetypeTableRecord
  2
Continuous
 70
     0
  3
Solid line
 72
    65
 73
     0
 40
0.0
  0
LTYPE
  5
53
330
5
100
AcDbSymbolTableRecord
100
AcDbLinetypeTableRecord
  2
ZIGZAG
 70
     0
  3
/\/\/\/\/\/\/\/\
 72
    65
 73
     4
 40
20.32254
 49
0.00254
 74
     0
 49
-5.08
 74
     4
 75
   131
340
52
 46
5.08
 50
0.0
 44
-5.08
 45
0.0
 49
-10.16
 74
     4
 75
   131
340
52
 46
5.08
 50
180.0
 44
5.08
 45
0.0
 49
-5.08
 74
     0
  0
LTYPE
  5
54
330
5
100
AcDbSymbolTableRecord
100
AcDbLinetypeTableRecord
  2
BATTING
 70
     0
  3
 SSSSSSSSSSSSSSSSSSSSSS
 72
    65
 73
     4
 40
10.16254
 49
0.00254
 74
     0
 49
-2.54
 74
     4
 75
   134
340
52
 46
2.54
 50
0.0
 44
-2.54
 45
0.0
 49
-5.08
 74
     4
 75
   134
340
52
 46
2.54
 50
180.0
 44
2.54
 45
0.0
 49
-2.54
 74
     0
  0
LTYPE
  5
55
330
5
100
AcDbSymbolTableRecord
100
AcDbLinetypeTableRecord
  2
DASHDOT
 70
     0
  3
DASHDOT
 72
    65
 73
     4
 40
1.0
 49
0.5
 74
     0
 49
-0.25
 74
     0
 49
0.0001
 74
     0
 49
-0.25
 74
     0
  0
LTYPE
  5
56
330
5
100
AcDbSymbolTableRecord
100
AcDbLinetypeTableRecord
  2
DASHDOTX2
 70
     0
  3
DASHDOTX2
 72
    65
 73
     4
 40
1.0
 49
1.0
 74
     0
 49
-0.5
 74
     0
 49
0.0002
 74
     0
 49
-0.5
 74
     0
  0
LTYPE
  5
57
330
5
100
AcDbSymbolTableRecord
100
AcDbLinetypeTableRecord
  2
DASHED
 70
     0
  3
DASHED
 72
    65
 73
     2
 40
0.75
 49
0.5
 74
     0
 49
-0.25
 74
     0
  0
LTYPE
  5
58
330
5
100
AcDbSymbolTableRecord
100
AcDbLinetypeTableRecord
  2
TRACKS
 70
     0
  3
TRACKS
 72
    65
 73
     2
 40
7.62
 49
3.81
 74
     0
 49
3.81
 74
     0
  0
LTYPE
  5
59
330
5
100
AcDbSymbolTableRecord
100
AcDbLinetypeTableRecord
  2
DOT
 70
     0
  3
DOT
 72
    65
 73
     2
 40
0.25
 49
0.0001
 74
     0
 49
-0.25
 74
     0
  0
LTYPE
  5
5A
330
5
100
AcDbSymbolTableRecord
100
AcDbLinetypeTableRecord
  2
DIVIDE
 70
     0
  3
DIVIDE
 72
    65
 73
     6
 40
1.25
 49
0.5
 74
     0
 49
-0.25
 74
     0
 49
0.0001
 74
     0
 49
-0.25
 74
     0
 49
0.0001
 74
     0
 49
-0.25
 74
     0
  0
LTYPE
  5
5B
330
5
100
AcDbSymbolTableRecord
100
AcDbLinetypeTableRecord
  2
PHANTOM
 70
     0
  3
PHANTOM
 72
    65
 73
     6
 40
2.5
 49
1.25
 74
     0
 49
-0.25
 74
     0
 49
0.25
 74
     0
 49
-0.25
 74
     0
 49
0.25
 74
     0
 49
-0.25
 74
     0
  0
ENDTAB
  0
TABLE
  2
LAYER
  5
2
330
0
100
AcDbSymbolTable
 70
   249
  0
LAYER
  5
10
330
2
100
AcDbSymbolTableRecord
100
AcDbLayerTableRecord
  2
0
 70
     0
 62
     7
  6
Continuous
370
    35
390
F
  0
LAYER
  5
5C
330
2
100
AcDbSymbolTableRecord
100
AcDbLayerTableRecord
  2
TEXT
 70
     0
 62
     7
  6
Continuous
370
    35
390
F
  0
LAYER
  5
5D
330
2
100
AcDbSymbolTableRecord
100
AcDbLayerTableRecord
  2
2 Drafting Aux Lines
 70
     0
 62
     7
  6
Continuous
370
    35
390
F
  0
LAYER
  5
5E
330
2
100
AcDbSymbolTableRecord
100
AcDbLayerTableRecord
  2
3 Texts
 70
     0
 62
     7
  6
Continuous
370
    35
390
F
  0
LAYER
  5
5F
330
2
100
AcDbSymbolTableRecord
100
AcDbLayerTableRecord
  2
4 Dimensions
 70
     0
 62
     7
  6
Continuous
370
    35
390
F
  0
LAYER
  5
60
330
2
100
AcDbSymbolTableRecord
100
AcDbLayerTableRecord
  2
5 Hatches
 70
     0
 62
     7
  6
Continuous
370
    35
390
F
  0
LAYER
  5
61
330
2
100
AcDbSymbolTableRecord
100
AcDbLayerTableRecord
  2
6 Drawing Origin Marker
 70
     0
 62
     7
  6
Continuous
370
    35
390
F
  0
LAYER
  5
62
330
2
100
AcDbSymbolTableRecord
100
AcDbLayerTableRecord
  2
7 Sheet
 70
     0
 62
     7
  6
Continuous
370
    35
390
F
  0
LAYER
  5
63
330
2
100
AcDbSymbolTableRecord
100
AcDbLayerTableRecord
  2
8 Other
 70
     0
 62
     7
  6
Continuous
370
    35
390
F
  0
LAYER
  5
64
330
2
100
AcDbSymbolTableRecord
100
AcDbLayerTableRecord
  2
9 Never-Hiding Lines
 70
     0
 62
     7
  6
Continuous
370
    35
390
F
  0
LAYER
  5
65
330
2
100
AcDbSymbolTableRecord
100
AcDbLayerTableRecord
  2
10 Raster Images
 70
     0
 62
     7
  6
Continuous
370
    35
390
F
  0
LAYER
  5
66
330
2
100
AcDbSymbolTableRecord
100
AcDbLayerTableRecord
  2
11 Wall Rough Frame
 70
     0
 62
     7
  6
Continuous
370
    35
390
F
  0
LAYER
  5
67
330
2
100
AcDbSymbolTableRecord
100
AcDbLayerTableRecord
  2
12 Wall Ext Surface
 70
     0
 62
     7
  6
Continuous
370
    35
390
F
  0
LAYER
  5
68
330
2
100
AcDbSymbolTableRecord
100
AcDbLayerTableRecord
  2
13 Wall Int Surface
 70
     0
 62
     7
  6
Continuous
370
    35
390
F
  0
LAYER
  5
69
330
2
100
AcDbSymbolTableRecord
100
AcDbLayerTableRecord
  2
14 Wall Other Lines
 70
     0
 62
     7
  6
Continuous
370
    35
390
F
  0
LAYER
  5
6A
330
2
100
AcDbSymbolTableRecord
100
AcDbLayerTableRecord
  2
16 Wall Insulation
 70
     0
 62
     7
  6
Continuous
370
    35
390
F
  0
LAYER
  5
6B
330
2
100
AcDbSymbolTableRecord
100
AcDbLayerTableRecord
  2
17 Wall Framing Lines
 70
     0
 62
     7
  6
Continuous
370
    35
390
F
  0
LAYER
  5
6C
330
2
100
AcDbSymbolTableRecord
100
AcDbLayerTableRecord
  2
18 Wall Bottom Plate
 70
     0
 62
    -7
  6
Continuous
370
    35
390
F
  0
LAYER
  5
6D
330
2
100
AcDbSymbolTableRecord
100
AcDbLayerTableRecord
  2
19 Wall Hatch Patterns
 70
     0
 62
     7
  6
Continuous
370
    35
390
F
  0
LAYER
  5
6E
330
2
100
AcDbSymbolTableRecord
100
AcDbLayerTableRecord
  2
20 Wall_ Space Divider
 70
     0
 62
     7
  6
Continuous
370
    35
390
F
  0
LAYER
  5
6F
330
2
100
AcDbSymbolTableRecord
100
AcDbLayerTableRecord
  2
21 Foundation
 70
     0
 62
     7
  6
Continuous
370
    35
390
F
  0
LAYER
  5
70
330
2
100
AcDbSymbolTableRecord
100
AcDbLayerTableRecord
  2
22 Fill (Color)
 70
     0
 62
     7
  6
Continuous
370
    35
390
F
  0
LAYER
  5
71
330
2
100
AcDbSymbolTableRecord
100
AcDbLayerTableRecord
  2
23 Foundation Hatch
 70
     0
 62
     7
  6
Continuous
370
    35
390
F
  0
LAYER
  5
72
330
2
100
AcDbSymbolTableRecord
100
AcDbLayerTableRecord
  2
24 Module lines (grid)
 70
     0
 62
     7
  6
Continuous
370
    35
390
F
  0
LAYER
  5
73
330
2
100
AcDbSymbolTableRecord
100
AcDbLayerTableRecord
  2
25 Opening Labels
 70
     0
 62
     7
  6
Continuous
370
    35
390
F
  0
LAYER
  5
74
330
2
100
AcDbSymbolTableRecord
100
AcDbLayerTableRecord
  2
26 Openings Windows
 70
     0
 62
     7
  6
Continuous
370
    35
390
F
  0
LAYER
  5
75
330
2
100
AcDbSymbolTableRecord
100
AcDbLayerTableRecord
  2
27 Openings Doors
 70
     0
 62
     7
  6
Continuous
370
    35
390
F
  0
LAYER
  5
76
330
2
100
AcDbSymbolTableRecord
100
AcDbLayerTableRecord
  2
28 Openings Other
 70
     0
 62
     7
  6
Continuous
370
    35
390
F
  0
LAYER
  5
77
330
2
100
AcDbSymbolTableRecord
100
AcDbLayerTableRecord
  2
31 Wall Color Fill
 70
     0
 62
     7
  6
Continuous
370
    35
390
F
  0
LAYER
  5
78
330
2
100
AcDbSymbolTableRecord
100
AcDbLayerTableRecord
  2
32 Wall Center Line
 70
     0
 62
    -7
  6
Continuous
370
    35
390
F
  0
LAYER
  5
79
330
2
100
AcDbSymbolTableRecord
100
AcDbLayerTableRecord
  2
33 Opening Sheet Labels
 70
     0
 62
    -7
  6
Continuous
370
    35
390
F
  0
LAYER
  5
7A
330
2
100
AcDbSymbolTableRecord
100
AcDbLayerTableRecord
  2
34 Outdoor Components
 70
     0
 62
     7
  6
Continuous
370
    35
390
F
  0
LAYER
  5
7B
330
2
100
AcDbSymbolTableRecord
100
AcDbLayerTableRecord
  2
35 Lawn Furniture
 70
     0
 62
     7
  6
Continuous
370
    35
390
F
  0
LAYER
  5
7C
330
2
100
AcDbSymbolTableRecord
100
AcDbLayerTableRecord
  2
36 Furniture
 70
     0
 62
     7
  6
Continuous
370
    35
390
F
  0
LAYER
  5
7D
330
2
100
AcDbSymbolTableRecord
100
AcDbLayerTableRecord
  2
37 Extra Materials
 70
     0
 62
     7
  6
Continuous
370
    35
390
F
  0
LAYER
  5
7E
330
2
100
AcDbSymbolTableRecord
100
AcDbLayerTableRecord
  2
38 Furniture markings
 70
     0
 62
    -7
  6
Continuous
370
    35
390
F
  0
LAYER
  5
7F
330
2
100
AcDbSymbolTableRecord
100
AcDbLayerTableRecord
  2
39 Furniture labels
 70
     0
 62
    -7
  6
Continuous
370
    35
390
F
  0
LAYER
  5
80
330
2
100
AcDbSymbolTableRecord
100
AcDbLayerTableRecord
  2
40 Floor Shape Lines
 70
     0
 62
     7
  6
Continuous
370
    35
390
F
  0
LAYER
  5
81
330
2
100
AcDbSymbolTableRecord
100
AcDbLayerTableRecord
  2
41 Surface Hatch
 70
     0
 62
     7
  6
Continuous
370
    35
390
F
  0
LAYER
  5
82
330
2
100
AcDbSymbolTableRecord
100
AcDbLayerTableRecord
  2
42 Framing Pieces
 70
     0
 62
     7
  6
Continuous
370
    35
390
F
  0
LAYER
  5
83
330
2
100
AcDbSymbolTableRecord
100
AcDbLayerTableRecord
  2
43 Piece Labels
 70
     0
 62
     7
  6
Continuous
370
    35
390
F
  0
LAYER
  5
84
330
2
100
AcDbSymbolTableRecord
100
AcDbLayerTableRecord
  2
44 Piece Schedules
 70
     0
 62
     7
  6
Continuous
370
    35
390
F
  0
LAYER
  5
85
330
2
100
AcDbSymbolTableRecord
100
AcDbLayerTableRecord
  2
45 Pan.Layout Center Lns
 70
     0
 62
     7
  6
Continuous
370
    35
390
F
  0
LAYER
  5
86
330
2
100
AcDbSymbolTableRecord
100
AcDbLayerTableRecord
  2
46 2nd Pan.CL
 70
     0
 62
     7
  6
Continuous
370
    35
390
F
  0
LAYER
  5
87
330
2
100
AcDbSymbolTableRecord
100
AcDbLayerTableRecord
  2
47 Outlines
 70
     0
 62
     7
  6
Continuous
370
    35
390
F
  0
LAYER
  5
88
330
2
100
AcDbSymbolTableRecord
100
AcDbLayerTableRecord
  2
48 Labels
 70
     0
 62
     7
  6
Continuous
370
    35
390
F
  0
LAYER
  5
89
330
2
100
AcDbSymbolTableRecord
100
AcDbLayerTableRecord
  2
49 Assembly
 70
     0
 62
     7
  6
Continuous
370
    35
390
F
  0
LAYER
  5
8A
330
2
100
AcDbSymbolTableRecord
100
AcDbLayerTableRecord
  2
50 Ceiling Shape Lines
 70
     0
 62
     7
  6
Continuous
370
    35
390
F
  0
LAYER
  5
8B
330
2
100
AcDbSymbolTableRecord
100
AcDbLayerTableRecord
  2
51 Surface Hatch
 70
     0
 62
     7
  6
Continuous
370
    35
390
F
  0
LAYER
  5
8C
330
2
100
AcDbSymbolTableRecord
100
AcDbLayerTableRecord
  2
52 Framing Pieces
 70
     0
 62
     7
  6
Continuous
370
    35
390
F
  0
LAYER
  5
8D
330
2
100
AcDbSymbolTableRecord
100
AcDbLayerTableRecord
  2
53 Piece Labels
 70
     0
 62
     7
  6
Continuous
370
    35
390
F
  0
LAYER
  5
8E
330
2
100
AcDbSymbolTableRecord
100
AcDbLayerTableRecord
  2
54 Structural Design Labels
 70
     0
 62
    -7
  6
Continuous
370
    35
390
F
  0
LAYER
  5
8F
330
2
100
AcDbSymbolTableRecord
100
AcDbLayerTableRecord
  2
55 Room Labels
 70
     0
 62
     7
  6
Continuous
370
    35
390
F
  0
LAYER
  5
90
330
2
100
AcDbSymbolTableRecord
100
AcDbLayerTableRecord
  2
56 Room Hatch
 70
     0
 62
     7
  6
Continuous
370
    35
390
F
  0
LAYER
  5
91
330
2
100
AcDbSymbolTableRecord
100
AcDbLayerTableRecord
  2
57 Floor Area
 70
     0
 62
     7
  6
Continuous
370
    35
390
F
  0
LAYER
  5
92
330
2
100
AcDbSymbolTableRecord
100
AcDbLayerTableRecord
  2
58 Total Floor Area
 70
     0
 62
     7
  6
Continuous
370
    35
390
F
  0
LAYER
  5
93
330
2
100
AcDbSymbolTableRecord
100
AcDbLayerTableRecord
  2
59 Component color fill
 70
     0
 62
    -7
  6
Continuous
370
    35
390
F
  0
LAYER
  5
94
330
2
100
AcDbSymbolTableRecord
100
AcDbLayerTableRecord
  2
60 Electrical Symbols
 70
     0
 62
     7
  6
Continuous
370
    35
390
F
  0
LAYER
  5
95
330
2
100
AcDbSymbolTableRecord
100
AcDbLayerTableRecord
  2
61 Cables
 70
     0
 62
     7
  6
Continuous
370
    35
390
F
  0
LAYER
  5
96
330
2
100
AcDbSymbolTableRecord
100
AcDbLayerTableRecord
  2
62 Legend
 70
     0
 62
     7
  6
Continuous
370
    35
390
F
  0
LAYER
  5
97
330
2
100
AcDbSymbolTableRecord
100
AcDbLayerTableRecord
  2
63 Text & Dimensions
 70
     0
 62
     7
  6
Continuous
370
    35
390
F
  0
LAYER
  5
98
330
2
100
AcDbSymbolTableRecord
100
AcDbLayerTableRecord
  2
64 Ceiling Lights
 70
     0
 62
     7
  6
Continuous
370
    35
390
F
  0
LAYER
  5
99
330
2
100
AcDbSymbolTableRecord
100
AcDbLayerTableRecord
  2
65 HVAC Symbols
 70
     0
 62
     7
  6
Continuous
370
    35
390
F
  0
LAYER
  5
9A
330
2
100
AcDbSymbolTableRecord
100
AcDbLayerTableRecord
  2
66 Piping
 70
     0
 62
     7
  6
Continuous
370
    35
390
F
  0
LAYER
  5
9B
330
2
100
AcDbSymbolTableRecord
100
AcDbLayerTableRecord
  2
67 Legend
 70
     0
 62
     7
  6
Continuous
370
    35
390
F
  0
LAYER
  5
9C
330
2
100
AcDbSymbolTableRecord
100
AcDbLayerTableRecord
  2
68 Text & Dimensions
 70
     0
 62
     7
  6
Continuous
370
    35
390
F
  0
LAYER
  5
9D
330
2
100
AcDbSymbolTableRecord
100
AcDbLayerTableRecord
  2
69 HVAC fittings and furnitures
 70
     0
 62
    -7
  6
Continuous
370
    35
390
F
  0
LAYER
  5
9E
330
2
100
AcDbSymbolTableRecord
100
AcDbLayerTableRecord
  2
70 Plumbing Symbols
 70
     0
 62
     7
  6
Continuous
370
    35
390
F
  0
LAYER
  5
9F
330
2
100
AcDbSymbolTableRecord
100
AcDbLayerTableRecord
  2
71 Piping
 70
     0
 62
     7
  6
Continuous
370
    35
390
F
  0
LAYER
  5
A0
330
2
100
AcDbSymbolTableRecord
100
AcDbLayerTableRecord
  2
72 Legend
 70
     0
 62
     7
  6
Continuous
370
    35
390
F
  0
LAYER
  5
A1
330
2
100
AcDbSymbolTableRecord
100
AcDbLayerTableRecord
  2
73 Text & Dimensions
 70
     0
 62
     7
  6
Continuous
370
    35
390
F
  0
LAYER
  5
A2
330
2
100
AcDbSymbolTableRecord
100
AcDbLayerTableRecord
  2
74 Texts of the Stairs
 70
     0
 62
    -7
  6
Continuous
370
    35
390
F
  0
LAYER
  5
A3
330
2
100
AcDbSymbolTableRecord
100
AcDbLayerTableRecord
  2
75 Appliances
 70
     0
 62
     7
  6
Continuous
370
    35
390
F
  0
LAYER
  5
A4
330
2
100
AcDbSymbolTableRecord
100
AcDbLayerTableRecord
  2
76 Cabinets & Vanities
 70
     0
 62
     7
  6
Continuous
370
    35
390
F
  0
LAYER
  5
A5
330
2
100
AcDbSymbolTableRecord
100
AcDbLayerTableRecord
  2
77 Texts
 70
     0
 62
     7
  6
Continuous
370
    35
390
F
  0
LAYER
  5
A6
330
2
100
AcDbSymbolTableRecord
100
AcDbLayerTableRecord
  2
78 Dimensions
 70
     0
 62
     7
  6
Continuous
370
    35
390
F
  0
LAYER
  5
A7
330
2
100
AcDbSymbolTableRecord
100
AcDbLayerTableRecord
  2
79 Hardware
 70
     0
 62
     7
  6
Continuous
370
    35
390
F
  0
LAYER
  5
A8
330
2
100
AcDbSymbolTableRecord
100
AcDbLayerTableRecord
  2
80 Countertop
 70
     0
 62
     7
  6
Continuous
370
    35
390
F
  0
LAYER
  5
A9
330
2
100
AcDbSymbolTableRecord
100
AcDbLayerTableRecord
  2
81 Countertop Hatch
 70
     0
 62
    -7
  6
Continuous
370
    35
390
F
  0
LAYER
  5
AA
330
2
100
AcDbSymbolTableRecord
100
AcDbLayerTableRecord
  2
82 Stairs
 70
     0
 62
     7
  6
Continuous
370
    35
390
F
  0
LAYER
  5
AB
330
2
100
AcDbSymbolTableRecord
100
AcDbLayerTableRecord
  2
83 Railings
 70
     0
 62
     7
  6
Continuous
370
    35
390
F
  0
LAYER
  5
AC
330
2
100
AcDbSymbolTableRecord
100
AcDbLayerTableRecord
  2
84 Fireplaces
 70
     0
 62
     7
  6
Continuous
370
    35
390
F
  0
LAYER
  5
AD
330
2
100
AcDbSymbolTableRecord
100
AcDbLayerTableRecord
  2
85 Bulkheads
 70
     0
 62
     7
  6
Continuous
370
    35
390
F
  0
LAYER
  5
AE
330
2
100
AcDbSymbolTableRecord
100
AcDbLayerTableRecord
  2
86 Closet Shelving
 70
     0
 62
     7
  6
Continuous
370
    35
390
F
  0
LAYER
  5
AF
330
2
100
AcDbSymbolTableRecord
100
AcDbLayerTableRecord
  2
87 Chimneys
 70
     0
 62
     7
  6
Continuous
370
    35
390
F
  0
LAYER
  5
B0
330
2
100
AcDbSymbolTableRecord
100
AcDbLayerTableRecord
  2
88 Additional components_ decorations etc
 70
     0
 62
    -7
  6
Continuous
370
    35
390
F
  0
LAYER
  5
B1
330
2
100
AcDbSymbolTableRecord
100
AcDbLayerTableRecord
  2
89 Constr.Det.Macros
 70
     0
 62
    -7
  6
Continuous
370
    35
390
F
  0
LAYER
  5
B2
330
2
100
AcDbSymbolTableRecord
100
AcDbLayerTableRecord
  2
90 Section marks
 70
     0
 62
     7
  6
Continuous
370
    35
390
F
  0
LAYER
  5
B3
330
2
100
AcDbSymbolTableRecord
100
AcDbLayerTableRecord
  2
91 Profile Detailing
 70
     0
 62
     7
  6
Continuous
370
    35
390
F
  0
LAYER
  5
B4
330
2
100
AcDbSymbolTableRecord
100
AcDbLayerTableRecord
  2
92 Dimension Constraints
 70
     0
 62
     7
  6
Continuous
370
    35
390
F
  0
LAYER
  5
B5
330
2
100
AcDbSymbolTableRecord
100
AcDbLayerTableRecord
  2
93 Dashing Ground Line
 70
     0
 62
     7
  6
Continuous
370
    35
390
F
  0
LAYER
  5
B6
330
2
100
AcDbSymbolTableRecord
100
AcDbLayerTableRecord
  2
94 Clipping Ground Line
 70
     0
 62
     7
  6
Continuous
370
    35
390
F
  0
LAYER
  5
B7
330
2
100
AcDbSymbolTableRecord
100
AcDbLayerTableRecord
  2
95 Shadows
 70
     0
 62
     7
  6
Continuous
370
    35
390
F
  0
LAYER
  5
B8
330
2
100
AcDbSymbolTableRecord
100
AcDbLayerTableRecord
  2
96 Elev. Color Fill
 70
     0
 62
     7
  6
Continuous
370
    35
390
F
  0
LAYER
  5
B9
330
2
100
AcDbSymbolTableRecord
100
AcDbLayerTableRecord
  2
97 Simplifying lines
 70
     0
 62
     7
  6
Continuous
370
    35
390
F
  0
LAYER
  5
BA
330
2
100
AcDbSymbolTableRecord
100
AcDbLayerTableRecord
  2
98 Floor Area Text
 70
     0
 62
    -7
  6
Continuous
370
    35
390
F
  0
LAYER
  5
BB
330
2
100
AcDbSymbolTableRecord
100
AcDbLayerTableRecord
  2
099
 70
     0
 62
    -7
  6
Continuous
370
    35
390
F
  0
LAYER
  5
BC
330
2
100
AcDbSymbolTableRecord
100
AcDbLayerTableRecord
  2
100
 70
     0
 62
    -7
  6
Continuous
370
    35
390
F
  0
LAYER
  5
BD
330
2
100
AcDbSymbolTableRecord
100
AcDbLayerTableRecord
  2
102
 70
     0
 62
    -7
  6
Continuous
370
    35
390
F
  0
LAYER
  5
BE
330
2
100
AcDbSymbolTableRecord
100
AcDbLayerTableRecord
  2
103 Roof Shape Lines
 70
     0
 62
     7
  6
Continuous
370
    35
390
F
  0
LAYER
  5
BF
330
2
100
AcDbSymbolTableRecord
100
AcDbLayerTableRecord
  2
104 Roof Hatch Patterns
 70
     0
 62
     7
  6
Continuous
370
    35
390
F
  0
LAYER
  5
C0
330
2
100
AcDbSymbolTableRecord
100
AcDbLayerTableRecord
  2
105 Framing Pieces
 70
     0
 62
     7
  6
Continuous
370
    35
390
F
  0
LAYER
  5
C1
330
2
100
AcDbSymbolTableRecord
100
AcDbLayerTableRecord
  2
106 Piece Labels
 70
     0
 62
     7
  6
Continuous
370
    35
390
F
  0
LAYER
  5
C2
330
2
100
AcDbSymbolTableRecord
100
AcDbLayerTableRecord
  2
107 Grilles
 70
     0
 62
     7
  6
Continuous
370
    35
390
F
  0
LAYER
  5
C3
330
2
100
AcDbSymbolTableRecord
100
AcDbLayerTableRecord
  2
108 Eave Lines
 70
     0
 62
     7
  6
Continuous
370
    35
390
F
  0
LAYER
  5
C4
330
2
100
AcDbSymbolTableRecord
100
AcDbLayerTableRecord
  2
109 Soffits
 70
     0
 62
     7
  6
Continuous
370
    35
390
F
  0
LAYER
  5
C5
330
2
100
AcDbSymbolTableRecord
100
AcDbLayerTableRecord
  2
110 Window_Door Trim
 70
     0
 62
     7
  6
Continuous
370
    35
390
F
  0
LAYER
  5
C6
330
2
100
AcDbSymbolTableRecord
100
AcDbLayerTableRecord
  2
111 Window Grilles
 70
     0
 62
    -7
  6
Continuous
370
    35
390
F
  0
LAYER
  5
C7
330
2
100
AcDbSymbolTableRecord
100
AcDbLayerTableRecord
  2
112 Window Shutters
 70
     0
 62
     7
  6
Continuous
370
    35
390
F
  0
LAYER
  5
C8
330
2
100
AcDbSymbolTableRecord
100
AcDbLayerTableRecord
  2
113 Corner Trim
 70
     0
 62
     7
  6
Continuous
370
    35
390
F
  0
LAYER
  5
C9
330
2
100
AcDbSymbolTableRecord
100
AcDbLayerTableRecord
  2
114 Louver Vents
 70
     0
 62
     7
  6
Continuous
370
    35
390
F
  0
LAYER
  5
CA
330
2
100
AcDbSymbolTableRecord
100
AcDbLayerTableRecord
  2
115 Edge Line of 2D-Based Opening Trim
 70
     0
 62
     7
  6
Continuous
370
    35
390
F
  0
LAYER
  5
CB
330
2
100
AcDbSymbolTableRecord
100
AcDbLayerTableRecord
  2
116 Hole Line of 2D-Based Opening Trim
 70
     0
 62
     7
  6
Continuous
370
    35
390
F
  0
LAYER
  5
CC
330
2
100
AcDbSymbolTableRecord
100
AcDbLayerTableRecord
  2
117 Roof Accessories
 70
     0
 62
    -7
  6
Continuous
370
    35
390
F
  0
LAYER
  5
CD
330
2
100
AcDbSymbolTableRecord
100
AcDbLayerTableRecord
  2
118
 70
     0
 62
    -7
  6
Continuous
370
    35
390
F
  0
LAYER
  5
CE
330
2
100
AcDbSymbolTableRecord
100
AcDbLayerTableRecord
  2
119
 70
     0
 62
    -7
  6
Continuous
370
    35
390
F
  0
LAYER
  5
CF
330
2
100
AcDbSymbolTableRecord
100
AcDbLayerTableRecord
  2
120
 70
     0
 62
    -7
  6
Continuous
370
    35
390
F
  0
LAYER
  5
D0
330
2
100
AcDbSymbolTableRecord
100
AcDbLayerTableRecord
  2
121 Beam Pocket Symbols
 70
     0
 62
     7
  6
Continuous
370
    35
390
F
  0
LAYER
  5
D1
330
2
100
AcDbSymbolTableRecord
100
AcDbLayerTableRecord
  2
122 Beam Lines & Labels
 70
     0
 62
     7
  6
Continuous
370
    35
390
F
  0
LAYER
  5
D2
330
2
100
AcDbSymbolTableRecord
100
AcDbLayerTableRecord
  2
123 Column Sym & Labels
 70
     0
 62
     7
  6
Continuous
370
    35
390
F
  0
LAYER
  5
D3
330
2
100
AcDbSymbolTableRecord
100
AcDbLayerTableRecord
  2
124 Beam Center Lines
 70
     0
 62
     7
  6
Continuous
370
    35
390
F
  0
LAYER
  5
D4
330
2
100
AcDbSymbolTableRecord
100
AcDbLayerTableRecord
  2
125 Form Text
 70
     0
 62
     7
  6
Continuous
370
    35
390
F
  0
LAYER
  5
D5
330
2
100
AcDbSymbolTableRecord
100
AcDbLayerTableRecord
  2
126 Form Outer
 70
     0
 62
     7
  6
Continuous
370
    35
390
F
  0
LAYER
  5
D6
330
2
100
AcDbSymbolTableRecord
100
AcDbLayerTableRecord
  2
127 Form Inner
 70
     0
 62
     7
  6
Continuous
370
    35
390
F
  0
LAYER
  5
D7
330
2
100
AcDbSymbolTableRecord
100
AcDbLayerTableRecord
  2
128 Form Name
 70
     0
 62
     7
  6
Continuous
370
    35
390
F
  0
LAYER
  5
D8
330
2
100
AcDbSymbolTableRecord
100
AcDbLayerTableRecord
  2
129
 70
     0
 62
    -7
  6
Continuous
370
    35
390
F
  0
LAYER
  5
D9
330
2
100
AcDbSymbolTableRecord
100
AcDbLayerTableRecord
  2
130
 70
     0
 62
    -7
  6
Continuous
370
    35
390
F
  0
LAYER
  5
DA
330
2
100
AcDbSymbolTableRecord
100
AcDbLayerTableRecord
  2
131 Translation Spanish
 70
     0
 62
    -7
  6
Continuous
370
    35
390
F
  0
LAYER
  5
DB
330
2
100
AcDbSymbolTableRecord
100
AcDbLayerTableRecord
  2
132 Translation French
 70
     0
 62
    -7
  6
Continuous
370
    35
390
F
  0
LAYER
  5
DC
330
2
100
AcDbSymbolTableRecord
100
AcDbLayerTableRecord
  2
133 Translation German
 70
     0
 62
    -7
  6
Continuous
370
    35
390
F
  0
LAYER
  5
DD
330
2
100
AcDbSymbolTableRecord
100
AcDbLayerTableRecord
  2
134 Translation Finnish
 70
     0
 62
    -7
  6
Continuous
370
    35
390
F
  0
LAYER
  5
DE
330
2
100
AcDbSymbolTableRecord
100
AcDbLayerTableRecord
  2
135
 70
     0
 62
    -7
  6
Continuous
370
    35
390
F
  0
LAYER
  5
DF
330
2
100
AcDbSymbolTableRecord
100
AcDbLayerTableRecord
  2
136
 70
     0
 62
    -7
  6
Continuous
370
    35
390
F
  0
LAYER
  5
E0
330
2
100
AcDbSymbolTableRecord
100
AcDbLayerTableRecord
  2
137
 70
     0
 62
    -7
  6
Continuous
370
    35
390
F
  0
LAYER
  5
E1
330
2
100
AcDbSymbolTableRecord
100
AcDbLayerTableRecord
  2
138
 70
     0
 62
    -7
  6
Continuous
370
    35
390
F
  0
LAYER
  5
E2
330
2
100
AcDbSymbolTableRecord
100
AcDbLayerTableRecord
  2
139
 70
     0
 62
    -7
  6
Continuous
370
    35
390
F
  0
LAYER
  5
E3
330
2
100
AcDbSymbolTableRecord
100
AcDbLayerTableRecord
  2
140 Sheet Area Line
 70
     0
 62
     7
  6
Continuous
370
    35
390
F
  0
LAYER
  5
E4
330
2
100
AcDbSymbolTableRecord
100
AcDbLayerTableRecord
  2
141 Sheet Label
 70
     0
 62
     7
  6
Continuous
370
    35
390
F
  0
LAYER
  5
E5
330
2
100
AcDbSymbolTableRecord
100
AcDbLayerTableRecord
  2
142 Sheet Schedule
 70
     0
 62
     7
  6
Continuous
370
    35
390
F
  0
LAYER
  5
E6
330
2
100
AcDbSymbolTableRecord
100
AcDbLayerTableRecord
  2
143
 70
     0
 62
    -7
  6
Continuous
370
    35
390
F
  0
LAYER
  5
E7
330
2
100
AcDbSymbolTableRecord
100
AcDbLayerTableRecord
  2
144
 70
     0
 62
    -7
  6
Continuous
370
    35
390
F
  0
LAYER
  5
E8
330
2
100
AcDbSymbolTableRecord
100
AcDbLayerTableRecord
  2
145
 70
     0
 62
    -7
  6
Continuous
370
    35
390
F
  0
LAYER
  5
E9
330
2
100
AcDbSymbolTableRecord
100
AcDbLayerTableRecord
  2
146
 70
     0
 62
    -7
  6
Continuous
370
    35
390
F
  0
LAYER
  5
EA
330
2
100
AcDbSymbolTableRecord
100
AcDbLayerTableRecord
  2
147
 70
     0
 62
    -7
  6
Continuous
370
    35
390
F
  0
LAYER
  5
EB
330
2
100
AcDbSymbolTableRecord
100
AcDbLayerTableRecord
  2
148
 70
     0
 62
    -7
  6
Continuous
370
    35
390
F
  0
LAYER
  5
EC
330
2
100
AcDbSymbolTableRecord
100
AcDbLayerTableRecord
  2
149
 70
     0
 62
    -7
  6
Continuous
370
    35
390
F
  0
LAYER
  5
ED
330
2
100
AcDbSymbolTableRecord
100
AcDbLayerTableRecord
  2
150 1st Stud Locations
 70
     0
 62
     7
  6
Continuous
370
    35
390
F
  0
LAYER
  5
EE
330
2
100
AcDbSymbolTableRecord
100
AcDbLayerTableRecord
  2
151 Wall Framing Pieces
 70
     0
 62
     7
  6
Continuous
370
    35
390
F
  0
LAYER
  5
EF
330
2
100
AcDbSymbolTableRecord
100
AcDbLayerTableRecord
  2
152 Wall Framing Pieces_Hidden
 70
     0
 62
     7
  6
Continuous
370
    35
390
F
  0
LAYER
  5
F0
330
2
100
AcDbSymbolTableRecord
100
AcDbLayerTableRecord
  2
153 Siding Boards
 70
     0
 62
    -7
  6
Continuous
370
    35
390
F
  0
LAYER
  5
F1
330
2
100
AcDbSymbolTableRecord
100
AcDbLayerTableRecord
  2
154 Openings
 70
     0
 62
     7
  6
Continuous
370
    35
390
F
  0
LAYER
  5
F2
330
2
100
AcDbSymbolTableRecord
100
AcDbLayerTableRecord
  2
155 Internal Sheathing
 70
     0
 62
     7
  6
Continuous
370
    35
390
F
  0
LAYER
  5
F3
330
2
100
AcDbSymbolTableRecord
100
AcDbLayerTableRecord
  2
156 External Sheathing
 70
     0
 62
     7
  6
Continuous
370
    35
390
F
  0
LAYER
  5
F4
330
2
100
AcDbSymbolTableRecord
100
AcDbLayerTableRecord
  2
157 Internal Sec. Sheat.
 70
     0
 62
    -7
  6
Continuous
370
    35
390
F
  0
LAYER
  5
F5
330
2
100
AcDbSymbolTableRecord
100
AcDbLayerTableRecord
  2
158 External Sec. Sheat.
 70
     0
 62
    -7
  6
Continuous
370
    35
390
F
  0
LAYER
  5
F6
330
2
100
AcDbSymbolTableRecord
100
AcDbLayerTableRecord
  2
159 Insulation
 70
     0
 62
     7
  6
Continuous
370
    35
390
F
  0
LAYER
  5
F7
330
2
100
AcDbSymbolTableRecord
100
AcDbLayerTableRecord
  2
160 Loads
 70
     0
 62
     7
  6
Continuous
370
    35
390
F
  0
LAYER
  5
F8
330
2
100
AcDbSymbolTableRecord
100
AcDbLayerTableRecord
  2
161 Loads
 70
     0
 62
     7
  6
Continuous
370
    35
390
F
  0
LAYER
  5
F9
330
2
100
AcDbSymbolTableRecord
100
AcDbLayerTableRecord
  2
162 Dimensions
 70
     0
 62
     7
  6
Continuous
370
    35
390
F
  0
LAYER
  5
FA
330
2
100
AcDbSymbolTableRecord
100
AcDbLayerTableRecord
  2
163 Backer_
 70
     0
 62
    -7
  6
Continuous
370
    35
390
F
  0
LAYER
  5
FB
330
2
100
AcDbSymbolTableRecord
100
AcDbLayerTableRecord
  2
164 Panel Elev._Electr.
 70
     0
 62
    -7
  6
Continuous
370
    35
390
F
  0
LAYER
  5
FC
330
2
100
AcDbSymbolTableRecord
100
AcDbLayerTableRecord
  2
165 Panel Elev._Electr.
 70
     0
 62
    -7
  6
Continuous
370
    35
390
F
  0
LAYER
  5
FD
330
2
100
AcDbSymbolTableRecord
100
AcDbLayerTableRecord
  2
166 Panel Elev._Plmbng
 70
     0
 62
    -7
  6
Continuous
370
    35
390
F
  0
LAYER
  5
FE
330
2
100
AcDbSymbolTableRecord
100
AcDbLayerTableRecord
  2
167 Panel Elev._Plmbng
 70
     0
 62
     7
  6
Continuous
370
    35
390
F
  0
LAYER
  5
FF
330
2
100
AcDbSymbolTableRecord
100
AcDbLayerTableRecord
  2
168 Panel Layout_Backer
 70
     0
 62
     7
  6
Continuous
370
    35
390
F
  0
LAYER
  5
100
330
2
100
AcDbSymbolTableRecord
100
AcDbLayerTableRecord
  2
169 Studs_ Bearing Walls
 70
     0
 62
     7
  6
Continuous
370
    35
390
F
  0
LAYER
  5
101
330
2
100
AcDbSymbolTableRecord
100
AcDbLayerTableRecord
  2
170 Elems in Floor Plan
 70
     0
 62
     7
  6
Continuous
370
    35
390
F
  0
LAYER
  5
102
330
2
100
AcDbSymbolTableRecord
100
AcDbLayerTableRecord
  2
171 Check elem geometry
 70
     0
 62
    -7
  6
Continuous
370
    35
390
F
  0
LAYER
  5
103
330
2
100
AcDbSymbolTableRecord
100
AcDbLayerTableRecord
  2
172 Studs_ Non-Brg Walls
 70
     0
 62
     7
  6
Continuous
370
    35
390
F
  0
LAYER
  5
104
330
2
100
AcDbSymbolTableRecord
100
AcDbLayerTableRecord
  2
173 Panel Pce Label in FP
 70
     0
 62
     7
  6
Continuous
370
    35
390
F
  0
LAYER
  5
105
330
2
100
AcDbSymbolTableRecord
100
AcDbLayerTableRecord
  2
174
 70
     0
 62
    -7
  6
Continuous
370
    35
390
F
  0
LAYER
  5
106
330
2
100
AcDbSymbolTableRecord
100
AcDbLayerTableRecord
  2
175 Profile Color Fills
 70
     0
 62
     7
  6
Continuous
370
    35
390
F
  0
LAYER
  5
107
330
2
100
AcDbSymbolTableRecord
100
AcDbLayerTableRecord
  2
176 Pipe Colorfills
 70
     0
 62
    -7
  6
Continuous
370
    35
390
F
  0
LAYER
  5
108
330
2
100
AcDbSymbolTableRecord
100
AcDbLayerTableRecord
  2
177 Bottom Plate in Floor Plan
 70
     0
 62
     7
  6
Continuous
370
    35
390
F
  0
LAYER
  5
109
330
2
100
AcDbSymbolTableRecord
100
AcDbLayerTableRecord
  2
178 Top Plate in Floor Plan
 70
     0
 62
     7
  6
Continuous
370
    35
390
F
  0
LAYER
  5
10A
330
2
100
AcDbSymbolTableRecord
100
AcDbLayerTableRecord
  2
179
 70
     0
 62
    -7
  6
Continuous
370
    35
390
F
  0
LAYER
  5
10B
330
2
100
AcDbSymbolTableRecord
100
AcDbLayerTableRecord
  2
180 Int NB Brick Wall
 70
     0
 62
     7
  6
Continuous
370
    35
390
F
  0
LAYER
  5
10C
330
2
100
AcDbSymbolTableRecord
100
AcDbLayerTableRecord
  2
181 Int NB Brick Wall Hatch
 70
     0
 62
     7
  6
Continuous
370
    35
390
F
  0
LAYER
  5
10D
330
2
100
AcDbSymbolTableRecord
100
AcDbLayerTableRecord
  2
182 Int B Brick Wall
 70
     0
 62
    -7
  6
Continuous
370
    35
390
F
  0
LAYER
  5
10E
330
2
100
AcDbSymbolTableRecord
100
AcDbLayerTableRecord
  2
183 Int B Brick Wall Hatch
 70
     0
 62
    -7
  6
Continuous
370
    35
390
F
  0
LAYER
  5
10F
330
2
100
AcDbSymbolTableRecord
100
AcDbLayerTableRecord
  2
184
 70
     0
 62
    -7
  6
Continuous
370
    35
390
F
  0
LAYER
  5
110
330
2
100
AcDbSymbolTableRecord
100
AcDbLayerTableRecord
  2
185 Int B Wall Rough Frame
 70
     0
 62
     7
  6
Continuous
370
    35
390
F
  0
LAYER
  5
111
330
2
100
AcDbSymbolTableRecord
100
AcDbLayerTableRecord
  2
186 Int B Wall Surfaces
 70
     0
 62
     7
  6
Continuous
370
    35
390
F
  0
LAYER
  5
112
330
2
100
AcDbSymbolTableRecord
100
AcDbLayerTableRecord
  2
187 Int B Wall Other Lines
 70
     0
 62
     7
  6
Continuous
370
    35
390
F
  0
LAYER
  5
113
330
2
100
AcDbSymbolTableRecord
100
AcDbLayerTableRecord
  2
188 Int B Wall Insulation
 70
     0
 62
     7
  6
Continuous
370
    35
390
F
  0
LAYER
  5
114
330
2
100
AcDbSymbolTableRecord
100
AcDbLayerTableRecord
  2
189 Int B Wall Bottom Plat
 70
     0
 62
    -7
  6
Continuous
370
    35
390
F
  0
LAYER
  5
115
330
2
100
AcDbSymbolTableRecord
100
AcDbLayerTableRecord
  2
190 Int B Wall Hatch Patte
 70
     0
 62
     7
  6
Continuous
370
    35
390
F
  0
LAYER
  5
116
330
2
100
AcDbSymbolTableRecord
100
AcDbLayerTableRecord
  2
191 Hot Water Pipes
 70
     0
 62
    -7
  6
Continuous
370
    35
390
F
  0
LAYER
  5
117
330
2
100
AcDbSymbolTableRecord
100
AcDbLayerTableRecord
  2
192 Cold Water Pipes
 70
     0
 62
    -7
  6
Continuous
370
    35
390
F
  0
LAYER
  5
118
330
2
100
AcDbSymbolTableRecord
100
AcDbLayerTableRecord
  2
193 Waste Water Pipes
 70
     0
 62
    -7
  6
Continuous
370
    35
390
F
  0
LAYER
  5
119
330
2
100
AcDbSymbolTableRecord
100
AcDbLayerTableRecord
  2
194 Gas Pipes
 70
     0
 62
    -7
  6
Continuous
370
    35
390
F
  0
LAYER
  5
11A
330
2
100
AcDbSymbolTableRecord
100
AcDbLayerTableRecord
  2
195 Int NB Wall Rough Frame
 70
     0
 62
     7
  6
Continuous
370
    35
390
F
  0
LAYER
  5
11B
330
2
100
AcDbSymbolTableRecord
100
AcDbLayerTableRecord
  2
196 Int NB Wall Surfaces
 70
     0
 62
     7
  6
Continuous
370
    35
390
F
  0
LAYER
  5
11C
330
2
100
AcDbSymbolTableRecord
100
AcDbLayerTableRecord
  2
197 Int NB Wall Other Lines
 70
     0
 62
     7
  6
Continuous
370
    35
390
F
  0
LAYER
  5
11D
330
2
100
AcDbSymbolTableRecord
100
AcDbLayerTableRecord
  2
198 Int NB Wall Insulation
 70
     0
 62
     7
  6
Continuous
370
    35
390
F
  0
LAYER
  5
11E
330
2
100
AcDbSymbolTableRecord
100
AcDbLayerTableRecord
  2
199 Int NB Wall Bottom Plat
 70
     0
 62
    -7
  6
Continuous
370
    35
390
F
  0
LAYER
  5
11F
330
2
100
AcDbSymbolTableRecord
100
AcDbLayerTableRecord
  2
200 Int NB Wall Hatch Patte
 70
     0
 62
     7
  6
Continuous
370
    35
390
F
  0
LAYER
  5
120
330
2
100
AcDbSymbolTableRecord
100
AcDbLayerTableRecord
  2
201 Utility hole lines
 70
     0
 62
    -7
  6
Continuous
370
    35
390
F
  0
LAYER
  5
121
330
2
100
AcDbSymbolTableRecord
100
AcDbLayerTableRecord
  2
202
 70
     0
 62
    -7
  6
Continuous
370
    35
390
F
  0
LAYER
  5
122
330
2
100
AcDbSymbolTableRecord
100
AcDbLayerTableRecord
  2
203
 70
     0
 62
    -7
  6
Continuous
370
    35
390
F
  0
LAYER
  5
123
330
2
100
AcDbSymbolTableRecord
100
AcDbLayerTableRecord
  2
205
 70
     0
 62
    -7
  6
Continuous
370
    35
390
F
  0
LAYER
  5
124
330
2
100
AcDbSymbolTableRecord
100
AcDbLayerTableRecord
  2
206
 70
     0
 62
    -7
  6
Continuous
370
    35
390
F
  0
LAYER
  5
125
330
2
100
AcDbSymbolTableRecord
100
AcDbLayerTableRecord
  2
207
 70
     0
 62
    -7
  6
Continuous
370
    35
390
F
  0
LAYER
  5
126
330
2
100
AcDbSymbolTableRecord
100
AcDbLayerTableRecord
  2
208
 70
     0
 62
    -7
  6
Continuous
370
    35
390
F
  0
LAYER
  5
127
330
2
100
AcDbSymbolTableRecord
100
AcDbLayerTableRecord
  2
210 Joist Hangers
 70
     0
 62
    -7
  6
Continuous
370
    35
390
F
  0
LAYER
  5
128
330
2
100
AcDbSymbolTableRecord
100
AcDbLayerTableRecord
  2
211 Hangers_ Schedule and labels
 70
     0
 62
    -7
  6
Continuous
370
    35
390
F
  0
LAYER
  5
129
330
2
100
AcDbSymbolTableRecord
100
AcDbLayerTableRecord
  2
212
 70
     0
 62
    -7
  6
Continuous
370
    35
390
F
  0
LAYER
  5
12A
330
2
100
AcDbSymbolTableRecord
100
AcDbLayerTableRecord
  2
213
 70
     0
 62
    -7
  6
Continuous
370
    35
390
F
  0
LAYER
  5
12B
330
2
100
AcDbSymbolTableRecord
100
AcDbLayerTableRecord
  2
214
 70
     0
 62
    -7
  6
Continuous
370
    35
390
F
  0
LAYER
  5
12C
330
2
100
AcDbSymbolTableRecord
100
AcDbLayerTableRecord
  2
215 Special Opening Detail Labels
 70
     0
 62
    -7
  6
Continuous
370
    35
390
F
  0
LAYER
  5
12D
330
2
100
AcDbSymbolTableRecord
100
AcDbLayerTableRecord
  2
216
 70
     0
 62
    -7
  6
Continuous
370
    35
390
F
  0
LAYER
  5
12E
330
2
100
AcDbSymbolTableRecord
100
AcDbLayerTableRecord
  2
217
 70
     0
 62
    -7
  6
Continuous
370
    35
390
F
  0
LAYER
  5
12F
330
2
100
AcDbSymbolTableRecord
100
AcDbLayerTableRecord
  2
218 Construction Line
 70
     0
 62
    -7
  6
Continuous
370
    35
390
F
  0
LAYER
  5
130
330
2
100
AcDbSymbolTableRecord
100
AcDbLayerTableRecord
  2
219 Brochure Wall Fill
 70
     0
 62
    -7
  6
Continuous
370
    35
390
F
  0
LAYER
  5
131
330
2
100
AcDbSymbolTableRecord
100
AcDbLayerTableRecord
  2
220 Framing Detail Symbols
 70
     0
 62
     7
  6
Continuous
370
    35
390
F
  0
LAYER
  5
132
330
2
100
AcDbSymbolTableRecord
100
AcDbLayerTableRecord
  2
221 Hangers
 70
     0
 62
     7
  6
Continuous
370
    35
390
F
  0
LAYER
  5
133
330
2
100
AcDbSymbolTableRecord
100
AcDbLayerTableRecord
  2
222 Connectors
 70
     0
 62
     7
  6
Continuous
370
    35
390
F
  0
LAYER
  5
134
330
2
100
AcDbSymbolTableRecord
100
AcDbLayerTableRecord
  2
223 Fillers_ Stiffeners_ Backers and Blocks
 70
     0
 62
     7
  6
Continuous
370
    35
390
F
  0
LAYER
  5
135
330
2
100
AcDbSymbolTableRecord
100
AcDbLayerTableRecord
  2
224 Engineering Labels
 70
     0
 62
     7
  6
Continuous
370
    35
390
F
  0
LAYER
  5
136
330
2
100
AcDbSymbolTableRecord
100
AcDbLayerTableRecord
  2
225 Custom Layer
 70
     0
 62
    -7
  6
Continuous
370
    35
390
F
  0
LAYER
  5
137
330
2
100
AcDbSymbolTableRecord
100
AcDbLayerTableRecord
  2
226 Custom Layer
 70
     0
 62
    -7
  6
Continuous
370
    35
390
F
  0
LAYER
  5
138
330
2
100
AcDbSymbolTableRecord
100
AcDbLayerTableRecord
  2
227 Custom Layer
 70
     0
 62
    -7
  6
Continuous
370
    35
390
F
  0
LAYER
  5
139
330
2
100
AcDbSymbolTableRecord
100
AcDbLayerTableRecord
  2
228 Custom Layer
 70
     0
 62
    -7
  6
Continuous
370
    35
390
F
  0
LAYER
  5
13A
330
2
100
AcDbSymbolTableRecord
100
AcDbLayerTableRecord
  2
229 Custom Layer
 70
     0
 62
    -7
  6
Continuous
370
    35
390
F
  0
LAYER
  5
13B
330
2
100
AcDbSymbolTableRecord
100
AcDbLayerTableRecord
  2
230 Custom Layer
 70
     0
 62
    -7
  6
Continuous
370
    35
390
F
  0
LAYER
  5
13C
330
2
100
AcDbSymbolTableRecord
100
AcDbLayerTableRecord
  2
231 Custom Layer
 70
     0
 62
    -7
  6
Continuous
370
    35
390
F
  0
LAYER
  5
13D
330
2
100
AcDbSymbolTableRecord
100
AcDbLayerTableRecord
  2
232 Custom Layer
 70
     0
 62
    -7
  6
Continuous
370
    35
390
F
  0
LAYER
  5
13E
330
2
100
AcDbSymbolTableRecord
100
AcDbLayerTableRecord
  2
233 Custom Layer
 70
     0
 62
    -7
  6
Continuous
370
    35
390
F
  0
LAYER
  5
13F
330
2
100
AcDbSymbolTableRecord
100
AcDbLayerTableRecord
  2
234 Custom Layer
 70
     0
 62
    -7
  6
Continuous
370
    35
390
F
  0
LAYER
  5
140
330
2
100
AcDbSymbolTableRecord
100
AcDbLayerTableRecord
  2
235 Custom Layer
 70
     0
 62
    -7
  6
Continuous
370
    35
390
F
  0
LAYER
  5
141
330
2
100
AcDbSymbolTableRecord
100
AcDbLayerTableRecord
  2
236 Custom Layer
 70
     0
 62
    -7
  6
Continuous
370
    35
390
F
  0
LAYER
  5
142
330
2
100
AcDbSymbolTableRecord
100
AcDbLayerTableRecord
  2
237 Custom Layer
 70
     0
 62
    -7
  6
Continuous
370
    35
390
F
  0
LAYER
  5
143
330
2
100
AcDbSymbolTableRecord
100
AcDbLayerTableRecord
  2
238 Custom Layer
 70
     0
 62
    -7
  6
Continuous
370
    35
390
F
  0
LAYER
  5
144
330
2
100
AcDbSymbolTableRecord
100
AcDbLayerTableRecord
  2
239 Custom Layer
 70
     0
 62
    -7
  6
Continuous
370
    35
390
F
  0
LAYER
  5
145
330
2
100
AcDbSymbolTableRecord
100
AcDbLayerTableRecord
  2
240
 70
     0
 62
    -7
  6
Continuous
370
    35
390
F
  0
LAYER
  5
146
330
2
100
AcDbSymbolTableRecord
100
AcDbLayerTableRecord
  2
241
 70
     0
 62
    -7
  6
Continuous
370
    35
390
F
  0
LAYER
  5
147
330
2
100
AcDbSymbolTableRecord
100
AcDbLayerTableRecord
  2
242
 70
     0
 62
    -7
  6
Continuous
370
    35
390
F
  0
LAYER
  5
148
330
2
100
AcDbSymbolTableRecord
100
AcDbLayerTableRecord
  2
243
 70
     0
 62
    -7
  6
Continuous
370
    35
390
F
  0
LAYER
  5
149
330
2
100
AcDbSymbolTableRecord
100
AcDbLayerTableRecord
  2
244
 70
     0
 62
    -7
  6
Continuous
370
    35
390
F
  0
LAYER
  5
14A
330
2
100
AcDbSymbolTableRecord
100
AcDbLayerTableRecord
  2
245 Red Pen Markings
 70
     0
 62
    -7
  6
Continuous
370
    35
390
F
  0
LAYER
  5
14B
330
2
100
AcDbSymbolTableRecord
100
AcDbLayerTableRecord
  2
246 Red Pen Markings
 70
     0
 62
    -7
  6
Continuous
370
    35
390
F
  0
LAYER
  5
14C
330
2
100
AcDbSymbolTableRecord
100
AcDbLayerTableRecord
  2
247 Red Pen Markings
 70
     0
 62
    -7
  6
Continuous
370
    35
390
F
  0
LAYER
  5
14D
330
2
100
AcDbSymbolTableRecord
100
AcDbLayerTableRecord
  2
248 Red Pen Markings
 70
     0
 62
    -7
  6
Continuous
370
    35
390
F
  0
LAYER
  5
14E
330
2
100
AcDbSymbolTableRecord
100
AcDbLayerTableRecord
  2
249 Red Pen Markings
 70
     0
 62
    -7
  6
Continuous
370
    35
390
F
  0
LAYER
  5
14F
330
2
100
AcDbSymbolTableRecord
100
AcDbLayerTableRecord
  2
250 Red Pen Markings
 70
     0
 62
    -7
  6
Continuous
370
    35
390
F
  0
LAYER
  5
150
330
2
100
AcDbSymbolTableRecord
100
AcDbLayerTableRecord
  2
251 Red Pen Markings
 70
     0
 62
    -7
  6
Continuous
370
    35
390
F
  0
LAYER
  5
151
330
2
100
AcDbSymbolTableRecord
100
AcDbLayerTableRecord
  2
252 Red Pen Markings
 70
     0
 62
    -7
  6
Continuous
370
    35
390
F
  0
LAYER
  5
152
330
2
100
AcDbSymbolTableRecord
100
AcDbLayerTableRecord
  2
253 Red Pen Markings
 70
     0
 62
    -7
  6
Continuous
370
    35
390
F
  0
LAYER
  5
153
330
2
100
AcDbSymbolTableRecord
100
AcDbLayerTableRecord
  2
254 Red Pen Markings
 70
     0
 62
    -7
  6
Continuous
370
    35
390
F
  0
ENDTAB
  0
TABLE
  2
STYLE
  5
3
330
0
100
AcDbSymbolTable
 70
    11
  0
STYLE
  5
11
330
3
100
AcDbSymbolTableRecord
100
AcDbTextStyleTableRecord
  2
Standard
 70
     0
 40
0.0
 41
1.0
 50
0.0
 71
     0
 42
0.2
  3
txt
  4

  0
STYLE
  5
40
330
3
100
AcDbSymbolTableRecord
100
AcDbTextStyleTableRecord
  2
Arial
 70
     0
 40
0.0
 41
1.0
 50
0.0
 71
     0
 42
0.2
  3
ARIAL.TTF
  4

1001
ACAD
1000
Arial
1071
       34
  0
STYLE
  5
41
330
3
100
AcDbSymbolTableRecord
100
AcDbTextStyleTableRecord
  2
Courier New
 70
     0
 40
0.0
 41
1.0
 50
0.0
 71
     0
 42
0.2
  3
COUR.TTF
  4

1001
ACAD
1000
Courier New
1071
       34
  0
STYLE
  5
42
330
3
100
AcDbSymbolTableRecord
100
AcDbTextStyleTableRecord
  2
Arial Narrow
 70
     0
 40
0.0
 41
1.0
 50
0.0
 71
     0
 42
0.2
  3
ARIALN.TTF
  4

1001
ACAD
1000
Arial Narrow
1071
       34
  0
STYLE
  5
43
330
3
100
AcDbSymbolTableRecord
100
AcDbTextStyleTableRecord
  2
Times New Roman
 70
     0
 40
0.0
 41
1.0
 50
0.0
 71
     0
 42
0.2
  3
TIMES.TTF
  4

1001
ACAD
1000
Times New Roman
1071
       34
  0
STYLE
  5
44
330
3
100
AcDbSymbolTableRecord
100
AcDbTextStyleTableRecord
  2
Impact
 70
     0
 40
0.0
 41
1.0
 50
0.0
 71
     0
 42
0.2
  3
IMPACT.TTF
  4

1001
ACAD
1000
Impact
1071
       34
  0
STYLE
  5
45
330
3
100
AcDbSymbolTableRecord
100
AcDbTextStyleTableRecord
  2
Arial Black
 70
     0
 40
0.0
 41
1.0
 50
0.0
 71
     0
 42
0.2
  3
ARIBLK.TTF
  4

1001
ACAD
1000
Arial Black
1071
       34
  0
STYLE
  5
46
330
3
100
AcDbSymbolTableRecord
100
AcDbTextStyleTableRecord
  2
Symbol
 70
     0
 40
0.0
 41
1.0
 50
0.0
 71
     0
 42
0.2
  3
SYMBOL.TTF
  4

1001
ACAD
1000
Symbol
1071
       34
  0
STYLE
  5
47
330
3
100
AcDbSymbolTableRecord
100
AcDbTextStyleTableRecord
  2
Comic Sans MS
 70
     0
 40
0.0
 41
1.0
 50
0.0
 71
     0
 42
0.2
  3
COMIC.TTF
  4

1001
ACAD
1000
Comic Sans MS
1071
       34
  0
STYLE
  5
48
330
3
100
AcDbSymbolTableRecord
100
AcDbTextStyleTableRecord
  2
Trebuchet MS
 70
     0
 40
0.0
 41
1.0
 50
0.0
 71
     0
 42
0.2
  3
TREBUC.TTF
  4

1001
ACAD
1000
Trebuchet MS
1071
       34
  0
STYLE
  5
52
330
3
100
AcDbSymbolTableRecord
100
AcDbTextStyleTableRecord
  2

 70
     1
 40
0.0
 41
1.0
 50
0.0
 71
     0
 42
22.45
  3
ltypeshp.shx
  4

  0
ENDTAB
  0
TABLE
  2
VIEW
  5
6
330
0
100
AcDbSymbolTable
 70
     0
  0
ENDTAB
  0
TABLE
  2
UCS
  5
7
330
0
100
AcDbSymbolTable
 70
     0
  0
ENDTAB
  0
TABLE
  2
APPID
  5
9
330
0
100
AcDbSymbolTable
 70
     2
  0
APPID
  5
12
330
9
100
AcDbSymbolTableRecord
100
AcDbRegAppTableRecord
  2
ACAD
 70
     0
  0
APPID
  5
3F
330
9
100
AcDbSymbolTableRecord
100
AcDbRegAppTableRecord
  2
Vertex
 70
     0
  0
ENDTAB
  0
TABLE
  2
DIMSTYLE
  5
A
330
0
100
AcDbSymbolTable
 70
     3
100
AcDbDimStyleTable
  0
DIMSTYLE
105
27
330
A
100
AcDbSymbolTableRecord
100
AcDbDimStyleTableRecord
  2
Standard
 70
     0
178
     0
340
11
  0
DIMSTYLE
105
49
330
A
100
AcDbSymbolTableRecord
100
AcDbDimStyleTableRecord
  2
Vertex Style
 70
     0
 41
0.078740157480315
 44
0.0393700787401575
 46
0.0393700787401575
 73
     0
 74
     0
 77
     1
 78
     8
 79
     2
144
25.4
146
0.65
147
0.0669291338582677
172
     1
173
     1
176
   160
177
   160
178
     0
179
     1
271
     1
340
40
343
4A
344
4A
371
    25
372
    25
  0
DIMSTYLE
105
51
330
A
100
AcDbSymbolTableRecord
100
AcDbDimStyleTableRecord
  2
Vertex Style (Inches)
 70
     0
 41
0.078740157480315
 44
0.0393700787401575
 46
0.0393700787401575
 73
     0
 74
     0
 77
     1
 79
     2
146
0.65
147
0.0669291338582677
172
     1
173
     1
176
   160
177
   160
178
     0
179
     1
276
     2
277
     4
340
40
343
4A
344
4A
371
    25
372
    25
  0
ENDTAB
  0
TABLE
  2
BLOCK_RECORD
  5
1
330
0
100
AcDbSymbolTable
 70
     7
  0
BLOCK_RECORD
  5
1F
330
1
100
AcDbSymbolTableRecord
100
AcDbBlockTableRecord
  2
*Model_Space
340
22
  0
BLOCK_RECORD
  5
1B
330
1
100
AcDbSymbolTableRecord
100
AcDbBlockTableRecord
  2
*Paper_Space
340
1E
  0
BLOCK_RECORD
  5
23
330
1
100
AcDbSymbolTableRecord
100
AcDbBlockTableRecord
  2
*Paper_Space0
340
26
  0
BLOCK_RECORD
  5
4A
330
1
100
AcDbSymbolTableRecord
100
AcDbBlockTableRecord
  2
_CLOSED
340
0
  0
BLOCK_RECORD
  5
154
330
1
100
AcDbSymbolTableRecord
100
AcDbBlockTableRecord
  2
GROUP_0_cf7a7263-52a3-4af9-b95f-2cb79a24fea1
340
0
102
{BLKREFS
331
450
102
}
  0
BLOCK_RECORD
  5
157
330
1
100
AcDbSymbolTableRecord
100
AcDbBlockTableRecord
  2
HATCH_1_4948ade9-4a9f-47ff-b7cf-84647bd6d86b
340
0
102
{BLKREFS
331
451
102
}
  0
BLOCK_RECORD
  5
1EA
330
1
100
AcDbSymbolTableRecord
100
AcDbBlockTableRecord
  2
HATCH_2_dc6b0f86-4209-4004-b5f2-9212e5be736a
340
0
102
{BLKREFS
331
452
102
}
  0
BLOCK_RECORD
  5
27D
330
1
100
AcDbSymbolTableRecord
100
AcDbBlockTableRecord
  2
HATCH_3_c921b24b-3a8f-44df-992c-2ce89c1dcc5d
340
0
102
{BLKREFS
331
453
102
}
  0
BLOCK_RECORD
  5
3E1
330
1
100
AcDbSymbolTableRecord
100
AcDbBlockTableRecord
  2
HATCH_4_50aed048-3173-437f-a9eb-0063e47d797e
340
0
102
{BLKREFS
331
454
102
}
  0
ENDTAB
  0
ENDSEC
  0
SECTION
  2
BLOCKS
  0
BLOCK
  5
20
330
1F
100
AcDbEntity
  8
0
100
AcDbBlockBegin
  2
*Model_Space
 70
     0
 10
0.0
 20
0.0
 30
0.0
  3
*Model_Space
  1

  0
ENDBLK
  5
21
330
1F
100
AcDbEntity
  8
0
100
AcDbBlockEnd
  0
BLOCK
  5
1C
330
1B
100
AcDbEntity
 67
     1
  8
0
100
AcDbBlockBegin
  2
*Paper_Space
 70
     0
 10
0.0
 20
0.0
 30
0.0
  3
*Paper_Space
  1

  0
ENDBLK
  5
1D
330
1B
100
AcDbEntity
 67
     1
  8
0
100
AcDbBlockEnd
  0
BLOCK
  5
24
330
23
100
AcDbEntity
  8
0
100
AcDbBlockBegin
  2
*Paper_Space0
 70
     0
 10
0.0
 20
0.0
 30
0.0
  3
*Paper_Space0
  1

  0
ENDBLK
  5
25
330
23
100
AcDbEntity
  8
0
100
AcDbBlockEnd
  0
BLOCK
  5
4B
330
4A
100
AcDbEntity
  8
0
100
AcDbBlockBegin
  2
_CLOSED
 70
     0
 10
0.0
 20
0.0
 30
0.0
  3
_CLOSED
  1

  0
LINE
  5
4D
330
4A
100
AcDbEntity
  8
0
  6
ByBlock
 62
     0
370
    -2
100
AcDbLine
 10
-1.0
 20
0.166667
 30
0.0
 11
0.0
 21
0.0
 31
0.0
  0
LINE
  5
4E
330
4A
100
AcDbEntity
  8
0
  6
ByBlock
 62
     0
370
    -2
100
AcDbLine
 10
0.0
 20
0.0
 30
0.0
 11
-1.0
 21
-0.166667
 31
0.0
  0
LINE
  5
4F
330
4A
100
AcDbEntity
  8
0
  6
ByBlock
 62
     0
370
    -2
100
AcDbLine
 10
-1.0
 20
0.166667
 30
0.0
 11
-1.0
 21
-0.166667
 31
0.0
  0
LINE
  5
50
330
4A
100
AcDbEntity
  8
0
  6
ByBlock
 62
     0
370
    -2
100
AcDbLine
 10
0.0
 20
0.0
 30
0.0
 11
-1.0
 21
0.0
 31
0.0
  0
ENDBLK
  5
4C
330
4A
100
AcDbEntity
  8
0
100
AcDbBlockEnd
  0
BLOCK
  5
155
330
154
100
AcDbEntity
  8
0
100
AcDbBlockBegin
  2
GROUP_0_cf7a7263-52a3-4af9-b95f-2cb79a24fea1
 70
     0
 10
0.0
 20
0.0
 30
0.0
  3
GROUP_0_cf7a7263-52a3-4af9-b95f-2cb79a24fea1
  1

  0
LWPOLYLINE
  5
3F5
330
154
100
AcDbEntity
  8
0
  6
Continuous
 62
     7
 48
12.0
370
    25
100
AcDbPolyline
 90
        4
 70
     1
 43
0.0
 10
0.0
 20
0.0
 10
0.0
 20
145.098
 10
145.2132
 20
145.098
 10
145.2132
 20
0.0
  0
LWPOLYLINE
  5
3F6
330
154
100
AcDbEntity
  8
0
  6
Continuous
 62
     7
 48
12.0
370
    25
100
AcDbPolyline
 90
        4
 70
     1
 43
0.0
 10
0.0
 20
133.6872
 10
0.0
 20
145.098
 10
13.1028
 20
145.098
 10
13.1028
 20
133.6872
  0
ENDBLK
  5
156
330
154
100
AcDbEntity
  8
0
100
AcDbBlockEnd
  0
BLOCK
  5
158
330
157
100
AcDbEntity
  8
0
100
AcDbBlockBegin
  2
HATCH_1_4948ade9-4a9f-47ff-b7cf-84647bd6d86b
 70
     0
 10
0.0
 20
0.0
 30
0.0
  3
HATCH_1_4948ade9-4a9f-47ff-b7cf-84647bd6d86b
  1

  0
LINE
  5
15A
330
157
100
AcDbEntity
  8
5 Hatches
 62
     0
370
     9
100
AcDbLine
 10
37.05
 20
115.0
 30
0.0
 11
37.0
 21
115.0
 31
0.0
  0
LINE
  5
15B
330
157
100
AcDbEntity
  8
5 Hatches
 62
     0
370
     9
100
AcDbLine
 10
37.05
 20
114.0
 30
0.0
 11
37.0
 21
114.0
 31
0.0
  0
LINE
  5
15C
330
157
100
AcDbEntity
  8
5 Hatches
 62
     0
370
     9
100
AcDbLine
 10
37.05
 20
113.0
 30
0.0
 11
37.0
 21
113.0
 31
0.0
  0
LINE
  5
15D
330
157
100
AcDbEntity
  8
5 Hatches
 62
     0
370
     9
100
AcDbLine
 10
37.05
 20
112.0
 30
0.0
 11
37.0
 21
112.0
 31
0.0
  0
LINE
  5
15E
330
157
100
AcDbEntity
  8
5 Hatches
 62
     0
370
     9
100
AcDbLine
 10
37.05
 20
111.0
 30
0.0
 11
37.0
 21
111.0
 31
0.0
  0
LINE
  5
15F
330
157
100
AcDbEntity
  8
5 Hatches
 62
     0
370
     9
100
AcDbLine
 10
37.05
 20
110.0
 30
0.0
 11
37.0
 21
110.0
 31
0.0
  0
LINE
  5
160
330
157
100
AcDbEntity
  8
5 Hatches
 62
     0
370
     9
100
AcDbLine
 10
38.05
 20
110.0
 30
0.0
 11
38.0
 21
110.0
 31
0.0
  0
LINE
  5
161
330
157
100
AcDbEntity
  8
5 Hatches
 62
     0
370
     9
100
AcDbLine
 10
39.05
 20
110.0
 30
0.0
 11
39.0
 21
110.0
 31
0.0
  0
LINE
  5
162
330
157
100
AcDbEntity
  8
5 Hatches
 62
     0
370
     9
100
AcDbLine
 10
40.05
 20
110.0
 30
0.0
 11
40.0
 21
110.0
 31
0.0
  0
LINE
  5
163
330
157
100
AcDbEntity
  8
5 Hatches
 62
     0
370
     9
100
AcDbLine
 10
41.05
 20
110.0
 30
0.0
 11
41.0
 21
110.0
 31
0.0
  0
LINE
  5
164
330
157
100
AcDbEntity
  8
5 Hatches
 62
     0
370
     9
100
AcDbLine
 10
42.05
 20
110.0
 30
0.0
 11
42.0
 21
110.0
 31
0.0
  0
LINE
  5
165
330
157
100
AcDbEntity
  8
5 Hatches
 62
     0
370
     9
100
AcDbLine
 10
43.05
 20
110.0
 30
0.0
 11
43.0
 21
110.0
 31
0.0
  0
LINE
  5
166
330
157
100
AcDbEntity
  8
5 Hatches
 62
     0
370
     9
100
AcDbLine
 10
44.05
 20
110.0
 30
0.0
 11
44.0
 21
110.0
 31
0.0
  0
LINE
  5
167
330
157
100
AcDbEntity
  8
5 Hatches
 62
     0
370
     9
100
AcDbLine
 10
45.05
 20
110.0
 30
0.0
 11
45.0
 21
110.0
 31
0.0
  0
LINE
  5
168
330
157
100
AcDbEntity
  8
5 Hatches
 62
     0
370
     9
100
AcDbLine
 10
46.05
 20
110.0
 30
0.0
 11
46.0
 21
110.0
 31
0.0
  0
LINE
  5
169
330
157
100
AcDbEntity
  8
5 Hatches
 62
     0
370
     9
100
AcDbLine
 10
47.05
 20
110.0
 30
0.0
 11
47.0
 21
110.0
 31
0.0
  0
LINE
  5
16A
330
157
100
AcDbEntity
  8
5 Hatches
 62
     0
370
     9
100
AcDbLine
 10
48.05
 20
110.0
 30
0.0
 11
48.0
 21
110.0
 31
0.0
  0
LINE
  5
16B
330
157
100
AcDbEntity
  8
5 Hatches
 62
     0
370
     9
100
AcDbLine
 10
49.05
 20
110.0
 30
0.0
 11
49.0
 21
110.0
 31
0.0
  0
LINE
  5
16C
330
157
100
AcDbEntity
  8
5 Hatches
 62
     0
370
     9
100
AcDbLine
 10
50.05
 20
110.0
 30
0.0
 11
50.0
 21
110.0
 31
0.0
  0
LINE
  5
16D
330
157
100
AcDbEntity
  8
5 Hatches
 62
     0
370
     9
100
AcDbLine
 10
51.05
 20
110.0
 30
0.0
 11
51.0
 21
110.0
 31
0.0
  0
LINE
  5
16E
330
157
100
AcDbEntity
  8
5 Hatches
 62
     0
370
     9
100
AcDbLine
 10
52.05
 20
110.0
 30
0.0
 11
52.0
 21
110.0
 31
0.0
  0
LINE
  5
16F
330
157
100
AcDbEntity
  8
5 Hatches
 62
     0
370
     9
100
AcDbLine
 10
53.05
 20
110.0
 30
0.0
 11
53.0
 21
110.0
 31
0.0
  0
LINE
  5
170
330
157
100
AcDbEntity
  8
5 Hatches
 62
     0
370
     9
100
AcDbLine
 10
54.05
 20
110.0
 30
0.0
 11
54.0
 21
110.0
 31
0.0
  0
LINE
  5
171
330
157
100
AcDbEntity
  8
5 Hatches
 62
     0
370
     9
100
AcDbLine
 10
55.05
 20
110.0
 30
0.0
 11
55.0
 21
110.0
 31
0.0
  0
LINE
  5
172
330
157
100
AcDbEntity
  8
5 Hatches
 62
     0
370
     9
100
AcDbLine
 10
56.05
 20
110.0
 30
0.0
 11
56.0
 21
110.0
 31
0.0
  0
LINE
  5
173
330
157
100
AcDbEntity
  8
5 Hatches
 62
     0
370
     9
100
AcDbLine
 10
57.05
 20
110.0
 30
0.0
 11
57.0
 21
110.0
 31
0.0
  0
LINE
  5
174
330
157
100
AcDbEntity
  8
5 Hatches
 62
     0
370
     9
100
AcDbLine
 10
58.05
 20
110.0
 30
0.0
 11
58.0
 21
110.0
 31
0.0
  0
LINE
  5
175
330
157
100
AcDbEntity
  8
5 Hatches
 62
     0
370
     9
100
AcDbLine
 10
59.05
 20
110.0
 30
0.0
 11
59.0
 21
110.0
 31
0.0
  0
LINE
  5
176
330
157
100
AcDbEntity
  8
5 Hatches
 62
     0
370
     9
100
AcDbLine
 10
60.05
 20
110.0
 30
0.0
 11
60.0
 21
110.0
 31
0.0
  0
LINE
  5
177
330
157
100
AcDbEntity
  8
5 Hatches
 62
     0
370
     9
100
AcDbLine
 10
38.05
 20
111.0
 30
0.0
 11
38.0
 21
111.0
 31
0.0
  0
LINE
  5
178
330
157
100
AcDbEntity
  8
5 Hatches
 62
     0
370
     9
100
AcDbLine
 10
39.05
 20
111.0
 30
0.0
 11
39.0
 21
111.0
 31
0.0
  0
LINE
  5
179
330
157
100
AcDbEntity
  8
5 Hatches
 62
     0
370
     9
100
AcDbLine
 10
40.05
 20
111.0
 30
0.0
 11
40.0
 21
111.0
 31
0.0
  0
LINE
  5
17A
330
157
100
AcDbEntity
  8
5 Hatches
 62
     0
370
     9
100
AcDbLine
 10
41.05
 20
111.0
 30
0.0
 11
41.0
 21
111.0
 31
0.0
  0
LINE
  5
17B
330
157
100
AcDbEntity
  8
5 Hatches
 62
     0
370
     9
100
AcDbLine
 10
42.05
 20
111.0
 30
0.0
 11
42.0
 21
111.0
 31
0.0
  0
LINE
  5
17C
330
157
100
AcDbEntity
  8
5 Hatches
 62
     0
370
     9
100
AcDbLine
 10
43.05
 20
111.0
 30
0.0
 11
43.0
 21
111.0
 31
0.0
  0
LINE
  5
17D
330
157
100
AcDbEntity
  8
5 Hatches
 62
     0
370
     9
100
AcDbLine
 10
44.05
 20
111.0
 30
0.0
 11
44.0
 21
111.0
 31
0.0
  0
LINE
  5
17E
330
157
100
AcDbEntity
  8
5 Hatches
 62
     0
370
     9
100
AcDbLine
 10
45.05
 20
111.0
 30
0.0
 11
45.0
 21
111.0
 31
0.0
  0
LINE
  5
17F
330
157
100
AcDbEntity
  8
5 Hatches
 62
     0
370
     9
100
AcDbLine
 10
46.05
 20
111.0
 30
0.0
 11
46.0
 21
111.0
 31
0.0
  0
LINE
  5
180
330
157
100
AcDbEntity
  8
5 Hatches
 62
     0
370
     9
100
AcDbLine
 10
47.05
 20
111.0
 30
0.0
 11
47.0
 21
111.0
 31
0.0
  0
LINE
  5
181
330
157
100
AcDbEntity
  8
5 Hatches
 62
     0
370
     9
100
AcDbLine
 10
48.05
 20
111.0
 30
0.0
 11
48.0
 21
111.0
 31
0.0
  0
LINE
  5
182
330
157
100
AcDbEntity
  8
5 Hatches
 62
     0
370
     9
100
AcDbLine
 10
49.05
 20
111.0
 30
0.0
 11
49.0
 21
111.0
 31
0.0
  0
LINE
  5
183
330
157
100
AcDbEntity
  8
5 Hatches
 62
     0
370
     9
100
AcDbLine
 10
50.05
 20
111.0
 30
0.0
 11
50.0
 21
111.0
 31
0.0
  0
LINE
  5
184
330
157
100
AcDbEntity
  8
5 Hatches
 62
     0
370
     9
100
AcDbLine
 10
51.05
 20
111.0
 30
0.0
 11
51.0
 21
111.0
 31
0.0
  0
LINE
  5
185
330
157
100
AcDbEntity
  8
5 Hatches
 62
     0
370
     9
100
AcDbLine
 10
52.05
 20
111.0
 30
0.0
 11
52.0
 21
111.0
 31
0.0
  0
LINE
  5
186
330
157
100
AcDbEntity
  8
5 Hatches
 62
     0
370
     9
100
AcDbLine
 10
53.05
 20
111.0
 30
0.0
 11
53.0
 21
111.0
 31
0.0
  0
LINE
  5
187
330
157
100
AcDbEntity
  8
5 Hatches
 62
     0
370
     9
100
AcDbLine
 10
54.05
 20
111.0
 30
0.0
 11
54.0
 21
111.0
 31
0.0
  0
LINE
  5
188
330
157
100
AcDbEntity
  8
5 Hatches
 62
     0
370
     9
100
AcDbLine
 10
55.05
 20
111.0
 30
0.0
 11
55.0
 21
111.0
 31
0.0
  0
LINE
  5
189
330
157
100
AcDbEntity
  8
5 Hatches
 62
     0
370
     9
100
AcDbLine
 10
56.05
 20
111.0
 30
0.0
 11
56.0
 21
111.0
 31
0.0
  0
LINE
  5
18A
330
157
100
AcDbEntity
  8
5 Hatches
 62
     0
370
     9
100
AcDbLine
 10
57.05
 20
111.0
 30
0.0
 11
57.0
 21
111.0
 31
0.0
  0
LINE
  5
18B
330
157
100
AcDbEntity
  8
5 Hatches
 62
     0
370
     9
100
AcDbLine
 10
58.05
 20
111.0
 30
0.0
 11
58.0
 21
111.0
 31
0.0
  0
LINE
  5
18C
330
157
100
AcDbEntity
  8
5 Hatches
 62
     0
370
     9
100
AcDbLine
 10
59.05
 20
111.0
 30
0.0
 11
59.0
 21
111.0
 31
0.0
  0
LINE
  5
18D
330
157
100
AcDbEntity
  8
5 Hatches
 62
     0
370
     9
100
AcDbLine
 10
60.05
 20
111.0
 30
0.0
 11
60.0
 21
111.0
 31
0.0
  0
LINE
  5
18E
330
157
100
AcDbEntity
  8
5 Hatches
 62
     0
370
     9
100
AcDbLine
 10
38.05
 20
112.0
 30
0.0
 11
38.0
 21
112.0
 31
0.0
  0
LINE
  5
18F
330
157
100
AcDbEntity
  8
5 Hatches
 62
     0
370
     9
100
AcDbLine
 10
39.05
 20
112.0
 30
0.0
 11
39.0
 21
112.0
 31
0.0
  0
LINE
  5
190
330
157
100
AcDbEntity
  8
5 Hatches
 62
     0
370
     9
100
AcDbLine
 10
40.05
 20
112.0
 30
0.0
 11
40.0
 21
112.0
 31
0.0
  0
LINE
  5
191
330
157
100
AcDbEntity
  8
5 Hatches
 62
     0
370
     9
100
AcDbLine
 10
41.05
 20
112.0
 30
0.0
 11
41.0
 21
112.0
 31
0.0
  0
LINE
  5
192
330
157
100
AcDbEntity
  8
5 Hatches
 62
     0
370
     9
100
AcDbLine
 10
42.05
 20
112.0
 30
0.0
 11
42.0
 21
112.0
 31
0.0
  0
LINE
  5
193
330
157
100
AcDbEntity
  8
5 Hatches
 62
     0
370
     9
100
AcDbLine
 10
43.05
 20
112.0
 30
0.0
 11
43.0
 21
112.0
 31
0.0
  0
LINE
  5
194
330
157
100
AcDbEntity
  8
5 Hatches
 62
     0
370
     9
100
AcDbLine
 10
44.05
 20
112.0
 30
0.0
 11
44.0
 21
112.0
 31
0.0
  0
LINE
  5
195
330
157
100
AcDbEntity
  8
5 Hatches
 62
     0
370
     9
100
AcDbLine
 10
45.05
 20
112.0
 30
0.0
 11
45.0
 21
112.0
 31
0.0
  0
LINE
  5
196
330
157
100
AcDbEntity
  8
5 Hatches
 62
     0
370
     9
100
AcDbLine
 10
46.05
 20
112.0
 30
0.0
 11
46.0
 21
112.0
 31
0.0
  0
LINE
  5
197
330
157
100
AcDbEntity
  8
5 Hatches
 62
     0
370
     9
100
AcDbLine
 10
47.05
 20
112.0
 30
0.0
 11
47.0
 21
112.0
 31
0.0
  0
LINE
  5
198
330
157
100
AcDbEntity
  8
5 Hatches
 62
     0
370
     9
100
AcDbLine
 10
48.05
 20
112.0
 30
0.0
 11
48.0
 21
112.0
 31
0.0
  0
LINE
  5
199
330
157
100
AcDbEntity
  8
5 Hatches
 62
     0
370
     9
100
AcDbLine
 10
49.05
 20
112.0
 30
0.0
 11
49.0
 21
112.0
 31
0.0
  0
LINE
  5
19A
330
157
100
AcDbEntity
  8
5 Hatches
 62
     0
370
     9
100
AcDbLine
 10
50.05
 20
112.0
 30
0.0
 11
50.0
 21
112.0
 31
0.0
  0
LINE
  5
19B
330
157
100
AcDbEntity
  8
5 Hatches
 62
     0
370
     9
100
AcDbLine
 10
51.05
 20
112.0
 30
0.0
 11
51.0
 21
112.0
 31
0.0
  0
LINE
  5
19C
330
157
100
AcDbEntity
  8
5 Hatches
 62
     0
370
     9
100
AcDbLine
 10
52.05
 20
112.0
 30
0.0
 11
52.0
 21
112.0
 31
0.0
  0
LINE
  5
19D
330
157
100
AcDbEntity
  8
5 Hatches
 62
     0
370
     9
100
AcDbLine
 10
53.05
 20
112.0
 30
0.0
 11
53.0
 21
112.0
 31
0.0
  0
LINE
  5
19E
330
157
100
AcDbEntity
  8
5 Hatches
 62
     0
370
     9
100
AcDbLine
 10
54.05
 20
112.0
 30
0.0
 11
54.0
 21
112.0
 31
0.0
  0
LINE
  5
19F
330
157
100
AcDbEntity
  8
5 Hatches
 62
     0
370
     9
100
AcDbLine
 10
55.05
 20
112.0
 30
0.0
 11
55.0
 21
112.0
 31
0.0
  0
LINE
  5
1A0
330
157
100
AcDbEntity
  8
5 Hatches
 62
     0
370
     9
100
AcDbLine
 10
56.05
 20
112.0
 30
0.0
 11
56.0
 21
112.0
 31
0.0
  0
LINE
  5
1A1
330
157
100
AcDbEntity
  8
5 Hatches
 62
     0
370
     9
100
AcDbLine
 10
57.05
 20
112.0
 30
0.0
 11
57.0
 21
112.0
 31
0.0
  0
LINE
  5
1A2
330
157
100
AcDbEntity
  8
5 Hatches
 62
     0
370
     9
100
AcDbLine
 10
58.05
 20
112.0
 30
0.0
 11
58.0
 21
112.0
 31
0.0
  0
LINE
  5
1A3
330
157
100
AcDbEntity
  8
5 Hatches
 62
     0
370
     9
100
AcDbLine
 10
59.05
 20
112.0
 30
0.0
 11
59.0
 21
112.0
 31
0.0
  0
LINE
  5
1A4
330
157
100
AcDbEntity
  8
5 Hatches
 62
     0
370
     9
100
AcDbLine
 10
60.05
 20
112.0
 30
0.0
 11
60.0
 21
112.0
 31
0.0
  0
LINE
  5
1A5
330
157
100
AcDbEntity
  8
5 Hatches
 62
     0
370
     9
100
AcDbLine
 10
38.05
 20
113.0
 30
0.0
 11
38.0
 21
113.0
 31
0.0
  0
LINE
  5
1A6
330
157
100
AcDbEntity
  8
5 Hatches
 62
     0
370
     9
100
AcDbLine
 10
39.05
 20
113.0
 30
0.0
 11
39.0
 21
113.0
 31
0.0
  0
LINE
  5
1A7
330
157
100
AcDbEntity
  8
5 Hatches
 62
     0
370
     9
100
AcDbLine
 10
40.05
 20
113.0
 30
0.0
 11
40.0
 21
113.0
 31
0.0
  0
LINE
  5
1A8
330
157
100
AcDbEntity
  8
5 Hatches
 62
     0
370
     9
100
AcDbLine
 10
41.05
 20
113.0
 30
0.0
 11
41.0
 21
113.0
 31
0.0
  0
LINE
  5
1A9
330
157
100
AcDbEntity
  8
5 Hatches
 62
     0
370
     9
100
AcDbLine
 10
42.05
 20
113.0
 30
0.0
 11
42.0
 21
113.0
 31
0.0
  0
LINE
  5
1AA
330
157
100
AcDbEntity
  8
5 Hatches
 62
     0
370
     9
100
AcDbLine
 10
43.05
 20
113.0
 30
0.0
 11
43.0
 21
113.0
 31
0.0
  0
LINE
  5
1AB
330
157
100
AcDbEntity
  8
5 Hatches
 62
     0
370
     9
100
AcDbLine
 10
44.05
 20
113.0
 30
0.0
 11
44.0
 21
113.0
 31
0.0
  0
LINE
  5
1AC
330
157
100
AcDbEntity
  8
5 Hatches
 62
     0
370
     9
100
AcDbLine
 10
45.05
 20
113.0
 30
0.0
 11
45.0
 21
113.0
 31
0.0
  0
LINE
  5
1AD
330
157
100
AcDbEntity
  8
5 Hatches
 62
     0
370
     9
100
AcDbLine
 10
46.05
 20
113.0
 30
0.0
 11
46.0
 21
113.0
 31
0.0
  0
LINE
  5
1AE
330
157
100
AcDbEntity
  8
5 Hatches
 62
     0
370
     9
100
AcDbLine
 10
47.05
 20
113.0
 30
0.0
 11
47.0
 21
113.0
 31
0.0
  0
LINE
  5
1AF
330
157
100
AcDbEntity
  8
5 Hatches
 62
     0
370
     9
100
AcDbLine
 10
48.05
 20
113.0
 30
0.0
 11
48.0
 21
113.0
 31
0.0
  0
LINE
  5
1B0
330
157
100
AcDbEntity
  8
5 Hatches
 62
     0
370
     9
100
AcDbLine
 10
49.05
 20
113.0
 30
0.0
 11
49.0
 21
113.0
 31
0.0
  0
LINE
  5
1B1
330
157
100
AcDbEntity
  8
5 Hatches
 62
     0
370
     9
100
AcDbLine
 10
50.05
 20
113.0
 30
0.0
 11
50.0
 21
113.0
 31
0.0
  0
LINE
  5
1B2
330
157
100
AcDbEntity
  8
5 Hatches
 62
     0
370
     9
100
AcDbLine
 10
51.05
 20
113.0
 30
0.0
 11
51.0
 21
113.0
 31
0.0
  0
LINE
  5
1B3
330
157
100
AcDbEntity
  8
5 Hatches
 62
     0
370
     9
100
AcDbLine
 10
52.05
 20
113.0
 30
0.0
 11
52.0
 21
113.0
 31
0.0
  0
LINE
  5
1B4
330
157
100
AcDbEntity
  8
5 Hatches
 62
     0
370
     9
100
AcDbLine
 10
53.05
 20
113.0
 30
0.0
 11
53.0
 21
113.0
 31
0.0
  0
LINE
  5
1B5
330
157
100
AcDbEntity
  8
5 Hatches
 62
     0
370
     9
100
AcDbLine
 10
54.05
 20
113.0
 30
0.0
 11
54.0
 21
113.0
 31
0.0
  0
LINE
  5
1B6
330
157
100
AcDbEntity
  8
5 Hatches
 62
     0
370
     9
100
AcDbLine
 10
55.05
 20
113.0
 30
0.0
 11
55.0
 21
113.0
 31
0.0
  0
LINE
  5
1B7
330
157
100
AcDbEntity
  8
5 Hatches
 62
     0
370
     9
100
AcDbLine
 10
56.05
 20
113.0
 30
0.0
 11
56.0
 21
113.0
 31
0.0
  0
LINE
  5
1B8
330
157
100
AcDbEntity
  8
5 Hatches
 62
     0
370
     9
100
AcDbLine
 10
57.05
 20
113.0
 30
0.0
 11
57.0
 21
113.0
 31
0.0
  0
LINE
  5
1B9
330
157
100
AcDbEntity
  8
5 Hatches
 62
     0
370
     9
100
AcDbLine
 10
58.05
 20
113.0
 30
0.0
 11
58.0
 21
113.0
 31
0.0
  0
LINE
  5
1BA
330
157
100
AcDbEntity
  8
5 Hatches
 62
     0
370
     9
100
AcDbLine
 10
59.05
 20
113.0
 30
0.0
 11
59.0
 21
113.0
 31
0.0
  0
LINE
  5
1BB
330
157
100
AcDbEntity
  8
5 Hatches
 62
     0
370
     9
100
AcDbLine
 10
60.05
 20
113.0
 30
0.0
 11
60.0
 21
113.0
 31
0.0
  0
LINE
  5
1BC
330
157
100
AcDbEntity
  8
5 Hatches
 62
     0
370
     9
100
AcDbLine
 10
38.05
 20
114.0
 30
0.0
 11
38.0
 21
114.0
 31
0.0
  0
LINE
  5
1BD
330
157
100
AcDbEntity
  8
5 Hatches
 62
     0
370
     9
100
AcDbLine
 10
39.05
 20
114.0
 30
0.0
 11
39.0
 21
114.0
 31
0.0
  0
LINE
  5
1BE
330
157
100
AcDbEntity
  8
5 Hatches
 62
     0
370
     9
100
AcDbLine
 10
40.05
 20
114.0
 30
0.0
 11
40.0
 21
114.0
 31
0.0
  0
LINE
  5
1BF
330
157
100
AcDbEntity
  8
5 Hatches
 62
     0
370
     9
100
AcDbLine
 10
41.05
 20
114.0
 30
0.0
 11
41.0
 21
114.0
 31
0.0
  0
LINE
  5
1C0
330
157
100
AcDbEntity
  8
5 Hatches
 62
     0
370
     9
100
AcDbLine
 10
42.05
 20
114.0
 30
0.0
 11
42.0
 21
114.0
 31
0.0
  0
LINE
  5
1C1
330
157
100
AcDbEntity
  8
5 Hatches
 62
     0
370
     9
100
AcDbLine
 10
43.05
 20
114.0
 30
0.0
 11
43.0
 21
114.0
 31
0.0
  0
LINE
  5
1C2
330
157
100
AcDbEntity
  8
5 Hatches
 62
     0
370
     9
100
AcDbLine
 10
44.05
 20
114.0
 30
0.0
 11
44.0
 21
114.0
 31
0.0
  0
LINE
  5
1C3
330
157
100
AcDbEntity
  8
5 Hatches
 62
     0
370
     9
100
AcDbLine
 10
45.05
 20
114.0
 30
0.0
 11
45.0
 21
114.0
 31
0.0
  0
LINE
  5
1C4
330
157
100
AcDbEntity
  8
5 Hatches
 62
     0
370
     9
100
AcDbLine
 10
46.05
 20
114.0
 30
0.0
 11
46.0
 21
114.0
 31
0.0
  0
LINE
  5
1C5
330
157
100
AcDbEntity
  8
5 Hatches
 62
     0
370
     9
100
AcDbLine
 10
47.05
 20
114.0
 30
0.0
 11
47.0
 21
114.0
 31
0.0
  0
LINE
  5
1C6
330
157
100
AcDbEntity
  8
5 Hatches
 62
     0
370
     9
100
AcDbLine
 10
48.05
 20
114.0
 30
0.0
 11
48.0
 21
114.0
 31
0.0
  0
LINE
  5
1C7
330
157
100
AcDbEntity
  8
5 Hatches
 62
     0
370
     9
100
AcDbLine
 10
49.05
 20
114.0
 30
0.0
 11
49.0
 21
114.0
 31
0.0
  0
LINE
  5
1C8
330
157
100
AcDbEntity
  8
5 Hatches
 62
     0
370
     9
100
AcDbLine
 10
50.05
 20
114.0
 30
0.0
 11
50.0
 21
114.0
 31
0.0
  0
LINE
  5
1C9
330
157
100
AcDbEntity
  8
5 Hatches
 62
     0
370
     9
100
AcDbLine
 10
51.05
 20
114.0
 30
0.0
 11
51.0
 21
114.0
 31
0.0
  0
LINE
  5
1CA
330
157
100
AcDbEntity
  8
5 Hatches
 62
     0
370
     9
100
AcDbLine
 10
52.05
 20
114.0
 30
0.0
 11
52.0
 21
114.0
 31
0.0
  0
LINE
  5
1CB
330
157
100
AcDbEntity
  8
5 Hatches
 62
     0
370
     9
100
AcDbLine
 10
53.05
 20
114.0
 30
0.0
 11
53.0
 21
114.0
 31
0.0
  0
LINE
  5
1CC
330
157
100
AcDbEntity
  8
5 Hatches
 62
     0
370
     9
100
AcDbLine
 10
54.05
 20
114.0
 30
0.0
 11
54.0
 21
114.0
 31
0.0
  0
LINE
  5
1CD
330
157
100
AcDbEntity
  8
5 Hatches
 62
     0
370
     9
100
AcDbLine
 10
55.05
 20
114.0
 30
0.0
 11
55.0
 21
114.0
 31
0.0
  0
LINE
  5
1CE
330
157
100
AcDbEntity
  8
5 Hatches
 62
     0
370
     9
100
AcDbLine
 10
56.05
 20
114.0
 30
0.0
 11
56.0
 21
114.0
 31
0.0
  0
LINE
  5
1CF
330
157
100
AcDbEntity
  8
5 Hatches
 62
     0
370
     9
100
AcDbLine
 10
57.05
 20
114.0
 30
0.0
 11
57.0
 21
114.0
 31
0.0
  0
LINE
  5
1D0
330
157
100
AcDbEntity
  8
5 Hatches
 62
     0
370
     9
100
AcDbLine
 10
58.05
 20
114.0
 30
0.0
 11
58.0
 21
114.0
 31
0.0
  0
LINE
  5
1D1
330
157
100
AcDbEntity
  8
5 Hatches
 62
     0
370
     9
100
AcDbLine
 10
59.05
 20
114.0
 30
0.0
 11
59.0
 21
114.0
 31
0.0
  0
LINE
  5
1D2
330
157
100
AcDbEntity
  8
5 Hatches
 62
     0
370
     9
100
AcDbLine
 10
60.05
 20
114.0
 30
0.0
 11
60.0
 21
114.0
 31
0.0
  0
LINE
  5
1D3
330
157
100
AcDbEntity
  8
5 Hatches
 62
     0
370
     9
100
AcDbLine
 10
38.05
 20
115.0
 30
0.0
 11
38.0
 21
115.0
 31
0.0
  0
LINE
  5
1D4
330
157
100
AcDbEntity
  8
5 Hatches
 62
     0
370
     9
100
AcDbLine
 10
39.05
 20
115.0
 30
0.0
 11
39.0
 21
115.0
 31
0.0
  0
LINE
  5
1D5
330
157
100
AcDbEntity
  8
5 Hatches
 62
     0
370
     9
100
AcDbLine
 10
40.05
 20
115.0
 30
0.0
 11
40.0
 21
115.0
 31
0.0
  0
LINE
  5
1D6
330
157
100
AcDbEntity
  8
5 Hatches
 62
     0
370
     9
100
AcDbLine
 10
41.05
 20
115.0
 30
0.0
 11
41.0
 21
115.0
 31
0.0
  0
LINE
  5
1D7
330
157
100
AcDbEntity
  8
5 Hatches
 62
     0
370
     9
100
AcDbLine
 10
42.05
 20
115.0
 30
0.0
 11
42.0
 21
115.0
 31
0.0
  0
LINE
  5
1D8
330
157
100
AcDbEntity
  8
5 Hatches
 62
     0
370
     9
100
AcDbLine
 10
43.05
 20
115.0
 30
0.0
 11
43.0
 21
115.0
 31
0.0
  0
LINE
  5
1D9
330
157
100
AcDbEntity
  8
5 Hatches
 62
     0
370
     9
100
AcDbLine
 10
44.05
 20
115.0
 30
0.0
 11
44.0
 21
115.0
 31
0.0
  0
LINE
  5
1DA
330
157
100
AcDbEntity
  8
5 Hatches
 62
     0
370
     9
100
AcDbLine
 10
45.05
 20
115.0
 30
0.0
 11
45.0
 21
115.0
 31
0.0
  0
LINE
  5
1DB
330
157
100
AcDbEntity
  8
5 Hatches
 62
     0
370
     9
100
AcDbLine
 10
46.05
 20
115.0
 30
0.0
 11
46.0
 21
115.0
 31
0.0
  0
LINE
  5
1DC
330
157
100
AcDbEntity
  8
5 Hatches
 62
     0
370
     9
100
AcDbLine
 10
47.05
 20
115.0
 30
0.0
 11
47.0
 21
115.0
 31
0.0
  0
LINE
  5
1DD
330
157
100
AcDbEntity
  8
5 Hatches
 62
     0
370
     9
100
AcDbLine
 10
48.05
 20
115.0
 30
0.0
 11
48.0
 21
115.0
 31
0.0
  0
LINE
  5
1DE
330
157
100
AcDbEntity
  8
5 Hatches
 62
     0
370
     9
100
AcDbLine
 10
49.05
 20
115.0
 30
0.0
 11
49.0
 21
115.0
 31
0.0
  0
LINE
  5
1DF
330
157
100
AcDbEntity
  8
5 Hatches
 62
     0
370
     9
100
AcDbLine
 10
50.05
 20
115.0
 30
0.0
 11
50.0
 21
115.0
 31
0.0
  0
LINE
  5
1E0
330
157
100
AcDbEntity
  8
5 Hatches
 62
     0
370
     9
100
AcDbLine
 10
51.05
 20
115.0
 30
0.0
 11
51.0
 21
115.0
 31
0.0
  0
LINE
  5
1E1
330
157
100
AcDbEntity
  8
5 Hatches
 62
     0
370
     9
100
AcDbLine
 10
52.05
 20
115.0
 30
0.0
 11
52.0
 21
115.0
 31
0.0
  0
LINE
  5
1E2
330
157
100
AcDbEntity
  8
5 Hatches
 62
     0
370
     9
100
AcDbLine
 10
53.05
 20
115.0
 30
0.0
 11
53.0
 21
115.0
 31
0.0
  0
LINE
  5
1E3
330
157
100
AcDbEntity
  8
5 Hatches
 62
     0
370
     9
100
AcDbLine
 10
54.05
 20
115.0
 30
0.0
 11
54.0
 21
115.0
 31
0.0
  0
LINE
  5
1E4
330
157
100
AcDbEntity
  8
5 Hatches
 62
     0
370
     9
100
AcDbLine
 10
55.05
 20
115.0
 30
0.0
 11
55.0
 21
115.0
 31
0.0
  0
LINE
  5
1E5
330
157
100
AcDbEntity
  8
5 Hatches
 62
     0
370
     9
100
AcDbLine
 10
56.05
 20
115.0
 30
0.0
 11
56.0
 21
115.0
 31
0.0
  0
LINE
  5
1E6
330
157
100
AcDbEntity
  8
5 Hatches
 62
     0
370
     9
100
AcDbLine
 10
57.05
 20
115.0
 30
0.0
 11
57.0
 21
115.0
 31
0.0
  0
LINE
  5
1E7
330
157
100
AcDbEntity
  8
5 Hatches
 62
     0
370
     9
100
AcDbLine
 10
58.05
 20
115.0
 30
0.0
 11
58.0
 21
115.0
 31
0.0
  0
LINE
  5
1E8
330
157
100
AcDbEntity
  8
5 Hatches
 62
     0
370
     9
100
AcDbLine
 10
59.05
 20
115.0
 30
0.0
 11
59.0
 21
115.0
 31
0.0
  0
LINE
  5
1E9
330
157
100
AcDbEntity
  8
5 Hatches
 62
     0
370
     9
100
AcDbLine
 10
60.05
 20
115.0
 30
0.0
 11
60.0
 21
115.0
 31
0.0
  0
ENDBLK
  5
159
330
157
100
AcDbEntity
  8
0
100
AcDbBlockEnd
  0
BLOCK
  5
1EB
330
1EA
100
AcDbEntity
  8
0
100
AcDbBlockBegin
  2
HATCH_2_dc6b0f86-4209-4004-b5f2-9212e5be736a
 70
     0
 10
0.0
 20
0.0
 30
0.0
  3
HATCH_2_dc6b0f86-4209-4004-b5f2-9212e5be736a
  1

  0
LINE
  5
1ED
330
1EA
100
AcDbEntity
  8
5 Hatches
 62
     0
370
     9
100
AcDbLine
 10
97.05
 20
115.0
 30
0.0
 11
97.0
 21
115.0
 31
0.0
  0
LINE
  5
1EE
330
1EA
100
AcDbEntity
  8
5 Hatches
 62
     0
370
     9
100
AcDbLine
 10
97.05
 20
114.0
 30
0.0
 11
97.0
 21
114.0
 31
0.0
  0
LINE
  5
1EF
330
1EA
100
AcDbEntity
  8
5 Hatches
 62
     0
370
     9
100
AcDbLine
 10
97.05
 20
113.0
 30
0.0
 11
97.0
 21
113.0
 31
0.0
  0
LINE
  5
1F0
330
1EA
100
AcDbEntity
  8
5 Hatches
 62
     0
370
     9
100
AcDbLine
 10
97.05
 20
112.0
 30
0.0
 11
97.0
 21
112.0
 31
0.0
  0
LINE
  5
1F1
330
1EA
100
AcDbEntity
  8
5 Hatches
 62
     0
370
     9
100
AcDbLine
 10
97.05
 20
111.0
 30
0.0
 11
97.0
 21
111.0
 31
0.0
  0
LINE
  5
1F2
330
1EA
100
AcDbEntity
  8
5 Hatches
 62
     0
370
     9
100
AcDbLine
 10
97.05
 20
110.0
 30
0.0
 11
97.0
 21
110.0
 31
0.0
  0
LINE
  5
1F3
330
1EA
100
AcDbEntity
  8
5 Hatches
 62
     0
370
     9
100
AcDbLine
 10
98.05
 20
110.0
 30
0.0
 11
98.0
 21
110.0
 31
0.0
  0
LINE
  5
1F4
330
1EA
100
AcDbEntity
  8
5 Hatches
 62
     0
370
     9
100
AcDbLine
 10
99.05
 20
110.0
 30
0.0
 11
99.0
 21
110.0
 31
0.0
  0
LINE
  5
1F5
330
1EA
100
AcDbEntity
  8
5 Hatches
 62
     0
370
     9
100
AcDbLine
 10
100.05
 20
110.0
 30
0.0
 11
100.0
 21
110.0
 31
0.0
  0
LINE
  5
1F6
330
1EA
100
AcDbEntity
  8
5 Hatches
 62
     0
370
     9
100
AcDbLine
 10
101.05
 20
110.0
 30
0.0
 11
101.0
 21
110.0
 31
0.0
  0
LINE
  5
1F7
330
1EA
100
AcDbEntity
  8
5 Hatches
 62
     0
370
     9
100
AcDbLine
 10
102.05
 20
110.0
 30
0.0
 11
102.0
 21
110.0
 31
0.0
  0
LINE
  5
1F8
330
1EA
100
AcDbEntity
  8
5 Hatches
 62
     0
370
     9
100
AcDbLine
 10
103.05
 20
110.0
 30
0.0
 11
103.0
 21
110.0
 31
0.0
  0
LINE
  5
1F9
330
1EA
100
AcDbEntity
  8
5 Hatches
 62
     0
370
     9
100
AcDbLine
 10
104.05
 20
110.0
 30
0.0
 11
104.0
 21
110.0
 31
0.0
  0
LINE
  5
1FA
330
1EA
100
AcDbEntity
  8
5 Hatches
 62
     0
370
     9
100
AcDbLine
 10
105.05
 20
110.0
 30
0.0
 11
105.0
 21
110.0
 31
0.0
  0
LINE
  5
1FB
330
1EA
100
AcDbEntity
  8
5 Hatches
 62
     0
370
     9
100
AcDbLine
 10
106.05
 20
110.0
 30
0.0
 11
106.0
 21
110.0
 31
0.0
  0
LINE
  5
1FC
330
1EA
100
AcDbEntity
  8
5 Hatches
 62
     0
370
     9
100
AcDbLine
 10
107.05
 20
110.0
 30
0.0
 11
107.0
 21
110.0
 31
0.0
  0
LINE
  5
1FD
330
1EA
100
AcDbEntity
  8
5 Hatches
 62
     0
370
     9
100
AcDbLine
 10
108.05
 20
110.0
 30
0.0
 11
108.0
 21
110.0
 31
0.0
  0
LINE
  5
1FE
330
1EA
100
AcDbEntity
  8
5 Hatches
 62
     0
370
     9
100
AcDbLine
 10
109.05
 20
110.0
 30
0.0
 11
109.0
 21
110.0
 31
0.0
  0
LINE
  5
1FF
330
1EA
100
AcDbEntity
  8
5 Hatches
 62
     0
370
     9
100
AcDbLine
 10
110.05
 20
110.0
 30
0.0
 11
110.0
 21
110.0
 31
0.0
  0
LINE
  5
200
330
1EA
100
AcDbEntity
  8
5 Hatches
 62
     0
370
     9
100
AcDbLine
 10
111.05
 20
110.0
 30
0.0
 11
111.0
 21
110.0
 31
0.0
  0
LINE
  5
201
330
1EA
100
AcDbEntity
  8
5 Hatches
 62
     0
370
     9
100
AcDbLine
 10
112.05
 20
110.0
 30
0.0
 11
112.0
 21
110.0
 31
0.0
  0
LINE
  5
202
330
1EA
100
AcDbEntity
  8
5 Hatches
 62
     0
370
     9
100
AcDbLine
 10
113.05
 20
110.0
 30
0.0
 11
113.0
 21
110.0
 31
0.0
  0
LINE
  5
203
330
1EA
100
AcDbEntity
  8
5 Hatches
 62
     0
370
     9
100
AcDbLine
 10
114.05
 20
110.0
 30
0.0
 11
114.0
 21
110.0
 31
0.0
  0
LINE
  5
204
330
1EA
100
AcDbEntity
  8
5 Hatches
 62
     0
370
     9
100
AcDbLine
 10
115.05
 20
110.0
 30
0.0
 11
115.0
 21
110.0
 31
0.0
  0
LINE
  5
205
330
1EA
100
AcDbEntity
  8
5 Hatches
 62
     0
370
     9
100
AcDbLine
 10
116.05
 20
110.0
 30
0.0
 11
116.0
 21
110.0
 31
0.0
  0
LINE
  5
206
330
1EA
100
AcDbEntity
  8
5 Hatches
 62
     0
370
     9
100
AcDbLine
 10
117.05
 20
110.0
 30
0.0
 11
117.0
 21
110.0
 31
0.0
  0
LINE
  5
207
330
1EA
100
AcDbEntity
  8
5 Hatches
 62
     0
370
     9
100
AcDbLine
 10
118.05
 20
110.0
 30
0.0
 11
118.0
 21
110.0
 31
0.0
  0
LINE
  5
208
330
1EA
100
AcDbEntity
  8
5 Hatches
 62
     0
370
     9
100
AcDbLine
 10
119.05
 20
110.0
 30
0.0
 11
119.0
 21
110.0
 31
0.0
  0
LINE
  5
209
330
1EA
100
AcDbEntity
  8
5 Hatches
 62
     0
370
     9
100
AcDbLine
 10
120.05
 20
110.0
 30
0.0
 11
120.0
 21
110.0
 31
0.0
  0
LINE
  5
20A
330
1EA
100
AcDbEntity
  8
5 Hatches
 62
     0
370
     9
100
AcDbLine
 10
98.05
 20
111.0
 30
0.0
 11
98.0
 21
111.0
 31
0.0
  0
LINE
  5
20B
330
1EA
100
AcDbEntity
  8
5 Hatches
 62
     0
370
     9
100
AcDbLine
 10
99.05
 20
111.0
 30
0.0
 11
99.0
 21
111.0
 31
0.0
  0
LINE
  5
20C
330
1EA
100
AcDbEntity
  8
5 Hatches
 62
     0
370
     9
100
AcDbLine
 10
100.05
 20
111.0
 30
0.0
 11
100.0
 21
111.0
 31
0.0
  0
LINE
  5
20D
330
1EA
100
AcDbEntity
  8
5 Hatches
 62
     0
370
     9
100
AcDbLine
 10
101.05
 20
111.0
 30
0.0
 11
101.0
 21
111.0
 31
0.0
  0
LINE
  5
20E
330
1EA
100
AcDbEntity
  8
5 Hatches
 62
     0
370
     9
100
AcDbLine
 10
102.05
 20
111.0
 30
0.0
 11
102.0
 21
111.0
 31
0.0
  0
LINE
  5
20F
330
1EA
100
AcDbEntity
  8
5 Hatches
 62
     0
370
     9
100
AcDbLine
 10
103.05
 20
111.0
 30
0.0
 11
103.0
 21
111.0
 31
0.0
  0
LINE
  5
210
330
1EA
100
AcDbEntity
  8
5 Hatches
 62
     0
370
     9
100
AcDbLine
 10
104.05
 20
111.0
 30
0.0
 11
104.0
 21
111.0
 31
0.0
  0
LINE
  5
211
330
1EA
100
AcDbEntity
  8
5 Hatches
 62
     0
370
     9
100
AcDbLine
 10
105.05
 20
111.0
 30
0.0
 11
105.0
 21
111.0
 31
0.0
  0
LINE
  5
212
330
1EA
100
AcDbEntity
  8
5 Hatches
 62
     0
370
     9
100
AcDbLine
 10
106.05
 20
111.0
 30
0.0
 11
106.0
 21
111.0
 31
0.0
  0
LINE
  5
213
330
1EA
100
AcDbEntity
  8
5 Hatches
 62
     0
370
     9
100
AcDbLine
 10
107.05
 20
111.0
 30
0.0
 11
107.0
 21
111.0
 31
0.0
  0
LINE
  5
214
330
1EA
100
AcDbEntity
  8
5 Hatches
 62
     0
370
     9
100
AcDbLine
 10
108.05
 20
111.0
 30
0.0
 11
108.0
 21
111.0
 31
0.0
  0
LINE
  5
215
330
1EA
100
AcDbEntity
  8
5 Hatches
 62
     0
370
     9
100
AcDbLine
 10
109.05
 20
111.0
 30
0.0
 11
109.0
 21
111.0
 31
0.0
  0
LINE
  5
216
330
1EA
100
AcDbEntity
  8
5 Hatches
 62
     0
370
     9
100
AcDbLine
 10
110.05
 20
111.0
 30
0.0
 11
110.0
 21
111.0
 31
0.0
  0
LINE
  5
217
330
1EA
100
AcDbEntity
  8
5 Hatches
 62
     0
370
     9
100
AcDbLine
 10
111.05
 20
111.0
 30
0.0
 11
111.0
 21
111.0
 31
0.0
  0
LINE
  5
218
330
1EA
100
AcDbEntity
  8
5 Hatches
 62
     0
370
     9
100
AcDbLine
 10
112.05
 20
111.0
 30
0.0
 11
112.0
 21
111.0
 31
0.0
  0
LINE
  5
219
330
1EA
100
AcDbEntity
  8
5 Hatches
 62
     0
370
     9
100
AcDbLine
 10
113.05
 20
111.0
 30
0.0
 11
113.0
 21
111.0
 31
0.0
  0
LINE
  5
21A
330
1EA
100
AcDbEntity
  8
5 Hatches
 62
     0
370
     9
100
AcDbLine
 10
114.05
 20
111.0
 30
0.0
 11
114.0
 21
111.0
 31
0.0
  0
LINE
  5
21B
330
1EA
100
AcDbEntity
  8
5 Hatches
 62
     0
370
     9
100
AcDbLine
 10
115.05
 20
111.0
 30
0.0
 11
115.0
 21
111.0
 31
0.0
  0
LINE
  5
21C
330
1EA
100
AcDbEntity
  8
5 Hatches
 62
     0
370
     9
100
AcDbLine
 10
116.05
 20
111.0
 30
0.0
 11
116.0
 21
111.0
 31
0.0
  0
LINE
  5
21D
330
1EA
100
AcDbEntity
  8
5 Hatches
 62
     0
370
     9
100
AcDbLine
 10
117.05
 20
111.0
 30
0.0
 11
117.0
 21
111.0
 31
0.0
  0
LINE
  5
21E
330
1EA
100
AcDbEntity
  8
5 Hatches
 62
     0
370
     9
100
AcDbLine
 10
118.05
 20
111.0
 30
0.0
 11
118.0
 21
111.0
 31
0.0
  0
LINE
  5
21F
330
1EA
100
AcDbEntity
  8
5 Hatches
 62
     0
370
     9
100
AcDbLine
 10
119.05
 20
111.0
 30
0.0
 11
119.0
 21
111.0
 31
0.0
  0
LINE
  5
220
330
1EA
100
AcDbEntity
  8
5 Hatches
 62
     0
370
     9
100
AcDbLine
 10
120.05
 20
111.0
 30
0.0
 11
120.0
 21
111.0
 31
0.0
  0
LINE
  5
221
330
1EA
100
AcDbEntity
  8
5 Hatches
 62
     0
370
     9
100
AcDbLine
 10
98.05
 20
112.0
 30
0.0
 11
98.0
 21
112.0
 31
0.0
  0
LINE
  5
222
330
1EA
100
AcDbEntity
  8
5 Hatches
 62
     0
370
     9
100
AcDbLine
 10
99.05
 20
112.0
 30
0.0
 11
99.0
 21
112.0
 31
0.0
  0
LINE
  5
223
330
1EA
100
AcDbEntity
  8
5 Hatches
 62
     0
370
     9
100
AcDbLine
 10
100.05
 20
112.0
 30
0.0
 11
100.0
 21
112.0
 31
0.0
  0
LINE
  5
224
330
1EA
100
AcDbEntity
  8
5 Hatches
 62
     0
370
     9
100
AcDbLine
 10
101.05
 20
112.0
 30
0.0
 11
101.0
 21
112.0
 31
0.0
  0
LINE
  5
225
330
1EA
100
AcDbEntity
  8
5 Hatches
 62
     0
370
     9
100
AcDbLine
 10
102.05
 20
112.0
 30
0.0
 11
102.0
 21
112.0
 31
0.0
  0
LINE
  5
226
330
1EA
100
AcDbEntity
  8
5 Hatches
 62
     0
370
     9
100
AcDbLine
 10
103.05
 20
112.0
 30
0.0
 11
103.0
 21
112.0
 31
0.0
  0
LINE
  5
227
330
1EA
100
AcDbEntity
  8
5 Hatches
 62
     0
370
     9
100
AcDbLine
 10
104.05
 20
112.0
 30
0.0
 11
104.0
 21
112.0
 31
0.0
  0
LINE
  5
228
330
1EA
100
AcDbEntity
  8
5 Hatches
 62
     0
370
     9
100
AcDbLine
 10
105.05
 20
112.0
 30
0.0
 11
105.0
 21
112.0
 31
0.0
  0
LINE
  5
229
330
1EA
100
AcDbEntity
  8
5 Hatches
 62
     0
370
     9
100
AcDbLine
 10
106.05
 20
112.0
 30
0.0
 11
106.0
 21
112.0
 31
0.0
  0
LINE
  5
22A
330
1EA
100
AcDbEntity
  8
5 Hatches
 62
     0
370
     9
100
AcDbLine
 10
107.05
 20
112.0
 30
0.0
 11
107.0
 21
112.0
 31
0.0
  0
LINE
  5
22B
330
1EA
100
AcDbEntity
  8
5 Hatches
 62
     0
370
     9
100
AcDbLine
 10
108.05
 20
112.0
 30
0.0
 11
108.0
 21
112.0
 31
0.0
  0
LINE
  5
22C
330
1EA
100
AcDbEntity
  8
5 Hatches
 62
     0
370
     9
100
AcDbLine
 10
109.05
 20
112.0
 30
0.0
 11
109.0
 21
112.0
 31
0.0
  0
LINE
  5
22D
330
1EA
100
AcDbEntity
  8
5 Hatches
 62
     0
370
     9
100
AcDbLine
 10
110.05
 20
112.0
 30
0.0
 11
110.0
 21
112.0
 31
0.0
  0
LINE
  5
22E
330
1EA
100
AcDbEntity
  8
5 Hatches
 62
     0
370
     9
100
AcDbLine
 10
111.05
 20
112.0
 30
0.0
 11
111.0
 21
112.0
 31
0.0
  0
LINE
  5
22F
330
1EA
100
AcDbEntity
  8
5 Hatches
 62
     0
370
     9
100
AcDbLine
 10
112.05
 20
112.0
 30
0.0
 11
112.0
 21
112.0
 31
0.0
  0
LINE
  5
230
330
1EA
100
AcDbEntity
  8
5 Hatches
 62
     0
370
     9
100
AcDbLine
 10
113.05
 20
112.0
 30
0.0
 11
113.0
 21
112.0
 31
0.0
  0
LINE
  5
231
330
1EA
100
AcDbEntity
  8
5 Hatches
 62
     0
370
     9
100
AcDbLine
 10
114.05
 20
112.0
 30
0.0
 11
114.0
 21
112.0
 31
0.0
  0
LINE
  5
232
330
1EA
100
AcDbEntity
  8
5 Hatches
 62
     0
370
     9
100
AcDbLine
 10
115.05
 20
112.0
 30
0.0
 11
115.0
 21
112.0
 31
0.0
  0
LINE
  5
233
330
1EA
100
AcDbEntity
  8
5 Hatches
 62
     0
370
     9
100
AcDbLine
 10
116.05
 20
112.0
 30
0.0
 11
116.0
 21
112.0
 31
0.0
  0
LINE
  5
234
330
1EA
100
AcDbEntity
  8
5 Hatches
 62
     0
370
     9
100
AcDbLine
 10
117.05
 20
112.0
 30
0.0
 11
117.0
 21
112.0
 31
0.0
  0
LINE
  5
235
330
1EA
100
AcDbEntity
  8
5 Hatches
 62
     0
370
     9
100
AcDbLine
 10
118.05
 20
112.0
 30
0.0
 11
118.0
 21
112.0
 31
0.0
  0
LINE
  5
236
330
1EA
100
AcDbEntity
  8
5 Hatches
 62
     0
370
     9
100
AcDbLine
 10
119.05
 20
112.0
 30
0.0
 11
119.0
 21
112.0
 31
0.0
  0
LINE
  5
237
330
1EA
100
AcDbEntity
  8
5 Hatches
 62
     0
370
     9
100
AcDbLine
 10
120.05
 20
112.0
 30
0.0
 11
120.0
 21
112.0
 31
0.0
  0
LINE
  5
238
330
1EA
100
AcDbEntity
  8
5 Hatches
 62
     0
370
     9
100
AcDbLine
 10
98.05
 20
113.0
 30
0.0
 11
98.0
 21
113.0
 31
0.0
  0
LINE
  5
239
330
1EA
100
AcDbEntity
  8
5 Hatches
 62
     0
370
     9
100
AcDbLine
 10
99.05
 20
113.0
 30
0.0
 11
99.0
 21
113.0
 31
0.0
  0
LINE
  5
23A
330
1EA
100
AcDbEntity
  8
5 Hatches
 62
     0
370
     9
100
AcDbLine
 10
100.05
 20
113.0
 30
0.0
 11
100.0
 21
113.0
 31
0.0
  0
LINE
  5
23B
330
1EA
100
AcDbEntity
  8
5 Hatches
 62
     0
370
     9
100
AcDbLine
 10
101.05
 20
113.0
 30
0.0
 11
101.0
 21
113.0
 31
0.0
  0
LINE
  5
23C
330
1EA
100
AcDbEntity
  8
5 Hatches
 62
     0
370
     9
100
AcDbLine
 10
102.05
 20
113.0
 30
0.0
 11
102.0
 21
113.0
 31
0.0
  0
LINE
  5
23D
330
1EA
100
AcDbEntity
  8
5 Hatches
 62
     0
370
     9
100
AcDbLine
 10
103.05
 20
113.0
 30
0.0
 11
103.0
 21
113.0
 31
0.0
  0
LINE
  5
23E
330
1EA
100
AcDbEntity
  8
5 Hatches
 62
     0
370
     9
100
AcDbLine
 10
104.05
 20
113.0
 30
0.0
 11
104.0
 21
113.0
 31
0.0
  0
LINE
  5
23F
330
1EA
100
AcDbEntity
  8
5 Hatches
 62
     0
370
     9
100
AcDbLine
 10
105.05
 20
113.0
 30
0.0
 11
105.0
 21
113.0
 31
0.0
  0
LINE
  5
240
330
1EA
100
AcDbEntity
  8
5 Hatches
 62
     0
370
     9
100
AcDbLine
 10
106.05
 20
113.0
 30
0.0
 11
106.0
 21
113.0
 31
0.0
  0
LINE
  5
241
330
1EA
100
AcDbEntity
  8
5 Hatches
 62
     0
370
     9
100
AcDbLine
 10
107.05
 20
113.0
 30
0.0
 11
107.0
 21
113.0
 31
0.0
  0
LINE
  5
242
330
1EA
100
AcDbEntity
  8
5 Hatches
 62
     0
370
     9
100
AcDbLine
 10
108.05
 20
113.0
 30
0.0
 11
108.0
 21
113.0
 31
0.0
  0
LINE
  5
243
330
1EA
100
AcDbEntity
  8
5 Hatches
 62
     0
370
     9
100
AcDbLine
 10
109.05
 20
113.0
 30
0.0
 11
109.0
 21
113.0
 31
0.0
  0
LINE
  5
244
330
1EA
100
AcDbEntity
  8
5 Hatches
 62
     0
370
     9
100
AcDbLine
 10
110.05
 20
113.0
 30
0.0
 11
110.0
 21
113.0
 31
0.0
  0
LINE
  5
245
330
1EA
100
AcDbEntity
  8
5 Hatches
 62
     0
370
     9
100
AcDbLine
 10
111.05
 20
113.0
 30
0.0
 11
111.0
 21
113.0
 31
0.0
  0
LINE
  5
246
330
1EA
100
AcDbEntity
  8
5 Hatches
 62
     0
370
     9
100
AcDbLine
 10
112.05
 20
113.0
 30
0.0
 11
112.0
 21
113.0
 31
0.0
  0
LINE
  5
247
330
1EA
100
AcDbEntity
  8
5 Hatches
 62
     0
370
     9
100
AcDbLine
 10
113.05
 20
113.0
 30
0.0
 11
113.0
 21
113.0
 31
0.0
  0
LINE
  5
248
330
1EA
100
AcDbEntity
  8
5 Hatches
 62
     0
370
     9
100
AcDbLine
 10
114.05
 20
113.0
 30
0.0
 11
114.0
 21
113.0
 31
0.0
  0
LINE
  5
249
330
1EA
100
AcDbEntity
  8
5 Hatches
 62
     0
370
     9
100
AcDbLine
 10
115.05
 20
113.0
 30
0.0
 11
115.0
 21
113.0
 31
0.0
  0
LINE
  5
24A
330
1EA
100
AcDbEntity
  8
5 Hatches
 62
     0
370
     9
100
AcDbLine
 10
116.05
 20
113.0
 30
0.0
 11
116.0
 21
113.0
 31
0.0
  0
LINE
  5
24B
330
1EA
100
AcDbEntity
  8
5 Hatches
 62
     0
370
     9
100
AcDbLine
 10
117.05
 20
113.0
 30
0.0
 11
117.0
 21
113.0
 31
0.0
  0
LINE
  5
24C
330
1EA
100
AcDbEntity
  8
5 Hatches
 62
     0
370
     9
100
AcDbLine
 10
118.05
 20
113.0
 30
0.0
 11
118.0
 21
113.0
 31
0.0
  0
LINE
  5
24D
330
1EA
100
AcDbEntity
  8
5 Hatches
 62
     0
370
     9
100
AcDbLine
 10
119.05
 20
113.0
 30
0.0
 11
119.0
 21
113.0
 31
0.0
  0
LINE
  5
24E
330
1EA
100
AcDbEntity
  8
5 Hatches
 62
     0
370
     9
100
AcDbLine
 10
120.05
 20
113.0
 30
0.0
 11
120.0
 21
113.0
 31
0.0
  0
LINE
  5
24F
330
1EA
100
AcDbEntity
  8
5 Hatches
 62
     0
370
     9
100
AcDbLine
 10
98.05
 20
114.0
 30
0.0
 11
98.0
 21
114.0
 31
0.0
  0
LINE
  5
250
330
1EA
100
AcDbEntity
  8
5 Hatches
 62
     0
370
     9
100
AcDbLine
 10
99.05
 20
114.0
 30
0.0
 11
99.0
 21
114.0
 31
0.0
  0
LINE
  5
251
330
1EA
100
AcDbEntity
  8
5 Hatches
 62
     0
370
     9
100
AcDbLine
 10
100.05
 20
114.0
 30
0.0
 11
100.0
 21
114.0
 31
0.0
  0
LINE
  5
252
330
1EA
100
AcDbEntity
  8
5 Hatches
 62
     0
370
     9
100
AcDbLine
 10
101.05
 20
114.0
 30
0.0
 11
101.0
 21
114.0
 31
0.0
  0
LINE
  5
253
330
1EA
100
AcDbEntity
  8
5 Hatches
 62
     0
370
     9
100
AcDbLine
 10
102.05
 20
114.0
 30
0.0
 11
102.0
 21
114.0
 31
0.0
  0
LINE
  5
254
330
1EA
100
AcDbEntity
  8
5 Hatches
 62
     0
370
     9
100
AcDbLine
 10
103.05
 20
114.0
 30
0.0
 11
103.0
 21
114.0
 31
0.0
  0
LINE
  5
255
330
1EA
100
AcDbEntity
  8
5 Hatches
 62
     0
370
     9
100
AcDbLine
 10
104.05
 20
114.0
 30
0.0
 11
104.0
 21
114.0
 31
0.0
  0
LINE
  5
256
330
1EA
100
AcDbEntity
  8
5 Hatches
 62
     0
370
     9
100
AcDbLine
 10
105.05
 20
114.0
 30
0.0
 11
105.0
 21
114.0
 31
0.0
  0
LINE
  5
257
330
1EA
100
AcDbEntity
  8
5 Hatches
 62
     0
370
     9
100
AcDbLine
 10
106.05
 20
114.0
 30
0.0
 11
106.0
 21
114.0
 31
0.0
  0
LINE
  5
258
330
1EA
100
AcDbEntity
  8
5 Hatches
 62
     0
370
     9
100
AcDbLine
 10
107.05
 20
114.0
 30
0.0
 11
107.0
 21
114.0
 31
0.0
  0
LINE
  5
259
330
1EA
100
AcDbEntity
  8
5 Hatches
 62
     0
370
     9
100
AcDbLine
 10
108.05
 20
114.0
 30
0.0
 11
108.0
 21
114.0
 31
0.0
  0
LINE
  5
25A
330
1EA
100
AcDbEntity
  8
5 Hatches
 62
     0
370
     9
100
AcDbLine
 10
109.05
 20
114.0
 30
0.0
 11
109.0
 21
114.0
 31
0.0
  0
LINE
  5
25B
330
1EA
100
AcDbEntity
  8
5 Hatches
 62
     0
370
     9
100
AcDbLine
 10
110.05
 20
114.0
 30
0.0
 11
110.0
 21
114.0
 31
0.0
  0
LINE
  5
25C
330
1EA
100
AcDbEntity
  8
5 Hatches
 62
     0
370
     9
100
AcDbLine
 10
111.05
 20
114.0
 30
0.0
 11
111.0
 21
114.0
 31
0.0
  0
LINE
  5
25D
330
1EA
100
AcDbEntity
  8
5 Hatches
 62
     0
370
     9
100
AcDbLine
 10
112.05
 20
114.0
 30
0.0
 11
112.0
 21
114.0
 31
0.0
  0
LINE
  5
25E
330
1EA
100
AcDbEntity
  8
5 Hatches
 62
     0
370
     9
100
AcDbLine
 10
113.05
 20
114.0
 30
0.0
 11
113.0
 21
114.0
 31
0.0
  0
LINE
  5
25F
330
1EA
100
AcDbEntity
  8
5 Hatches
 62
     0
370
     9
100
AcDbLine
 10
114.05
 20
114.0
 30
0.0
 11
114.0
 21
114.0
 31
0.0
  0
LINE
  5
260
330
1EA
100
AcDbEntity
  8
5 Hatches
 62
     0
370
     9
100
AcDbLine
 10
115.05
 20
114.0
 30
0.0
 11
115.0
 21
114.0
 31
0.0
  0
LINE
  5
261
330
1EA
100
AcDbEntity
  8
5 Hatches
 62
     0
370
     9
100
AcDbLine
 10
116.05
 20
114.0
 30
0.0
 11
116.0
 21
114.0
 31
0.0
  0
LINE
  5
262
330
1EA
100
AcDbEntity
  8
5 Hatches
 62
     0
370
     9
100
AcDbLine
 10
117.05
 20
114.0
 30
0.0
 11
117.0
 21
114.0
 31
0.0
  0
LINE
  5
263
330
1EA
100
AcDbEntity
  8
5 Hatches
 62
     0
370
     9
100
AcDbLine
 10
118.05
 20
114.0
 30
0.0
 11
118.0
 21
114.0
 31
0.0
  0
LINE
  5
264
330
1EA
100
AcDbEntity
  8
5 Hatches
 62
     0
370
     9
100
AcDbLine
 10
119.05
 20
114.0
 30
0.0
 11
119.0
 21
114.0
 31
0.0
  0
LINE
  5
265
330
1EA
100
AcDbEntity
  8
5 Hatches
 62
     0
370
     9
100
AcDbLine
 10
120.05
 20
114.0
 30
0.0
 11
120.0
 21
114.0
 31
0.0
  0
LINE
  5
266
330
1EA
100
AcDbEntity
  8
5 Hatches
 62
     0
370
     9
100
AcDbLine
 10
98.05
 20
115.0
 30
0.0
 11
98.0
 21
115.0
 31
0.0
  0
LINE
  5
267
330
1EA
100
AcDbEntity
  8
5 Hatches
 62
     0
370
     9
100
AcDbLine
 10
99.05
 20
115.0
 30
0.0
 11
99.0
 21
115.0
 31
0.0
  0
LINE
  5
268
330
1EA
100
AcDbEntity
  8
5 Hatches
 62
     0
370
     9
100
AcDbLine
 10
100.05
 20
115.0
 30
0.0
 11
100.0
 21
115.0
 31
0.0
  0
LINE
  5
269
330
1EA
100
AcDbEntity
  8
5 Hatches
 62
     0
370
     9
100
AcDbLine
 10
101.05
 20
115.0
 30
0.0
 11
101.0
 21
115.0
 31
0.0
  0
LINE
  5
26A
330
1EA
100
AcDbEntity
  8
5 Hatches
 62
     0
370
     9
100
AcDbLine
 10
102.05
 20
115.0
 30
0.0
 11
102.0
 21
115.0
 31
0.0
  0
LINE
  5
26B
330
1EA
100
AcDbEntity
  8
5 Hatches
 62
     0
370
     9
100
AcDbLine
 10
103.05
 20
115.0
 30
0.0
 11
103.0
 21
115.0
 31
0.0
  0
LINE
  5
26C
330
1EA
100
AcDbEntity
  8
5 Hatches
 62
     0
370
     9
100
AcDbLine
 10
104.05
 20
115.0
 30
0.0
 11
104.0
 21
115.0
 31
0.0
  0
LINE
  5
26D
330
1EA
100
AcDbEntity
  8
5 Hatches
 62
     0
370
     9
100
AcDbLine
 10
105.05
 20
115.0
 30
0.0
 11
105.0
 21
115.0
 31
0.0
  0
LINE
  5
26E
330
1EA
100
AcDbEntity
  8
5 Hatches
 62
     0
370
     9
100
AcDbLine
 10
106.05
 20
115.0
 30
0.0
 11
106.0
 21
115.0
 31
0.0
  0
LINE
  5
26F
330
1EA
100
AcDbEntity
  8
5 Hatches
 62
     0
370
     9
100
AcDbLine
 10
107.05
 20
115.0
 30
0.0
 11
107.0
 21
115.0
 31
0.0
  0
LINE
  5
270
330
1EA
100
AcDbEntity
  8
5 Hatches
 62
     0
370
     9
100
AcDbLine
 10
108.05
 20
115.0
 30
0.0
 11
108.0
 21
115.0
 31
0.0
  0
LINE
  5
271
330
1EA
100
AcDbEntity
  8
5 Hatches
 62
     0
370
     9
100
AcDbLine
 10
109.05
 20
115.0
 30
0.0
 11
109.0
 21
115.0
 31
0.0
  0
LINE
  5
272
330
1EA
100
AcDbEntity
  8
5 Hatches
 62
     0
370
     9
100
AcDbLine
 10
110.05
 20
115.0
 30
0.0
 11
110.0
 21
115.0
 31
0.0
  0
LINE
  5
273
330
1EA
100
AcDbEntity
  8
5 Hatches
 62
     0
370
     9
100
AcDbLine
 10
111.05
 20
115.0
 30
0.0
 11
111.0
 21
115.0
 31
0.0
  0
LINE
  5
274
330
1EA
100
AcDbEntity
  8
5 Hatches
 62
     0
370
     9
100
AcDbLine
 10
112.05
 20
115.0
 30
0.0
 11
112.0
 21
115.0
 31
0.0
  0
LINE
  5
275
330
1EA
100
AcDbEntity
  8
5 Hatches
 62
     0
370
     9
100
AcDbLine
 10
113.05
 20
115.0
 30
0.0
 11
113.0
 21
115.0
 31
0.0
  0
LINE
  5
276
330
1EA
100
AcDbEntity
  8
5 Hatches
 62
     0
370
     9
100
AcDbLine
 10
114.05
 20
115.0
 30
0.0
 11
114.0
 21
115.0
 31
0.0
  0
LINE
  5
277
330
1EA
100
AcDbEntity
  8
5 Hatches
 62
     0
370
     9
100
AcDbLine
 10
115.05
 20
115.0
 30
0.0
 11
115.0
 21
115.0
 31
0.0
  0
LINE
  5
278
330
1EA
100
AcDbEntity
  8
5 Hatches
 62
     0
370
     9
100
AcDbLine
 10
116.05
 20
115.0
 30
0.0
 11
116.0
 21
115.0
 31
0.0
  0
LINE
  5
279
330
1EA
100
AcDbEntity
  8
5 Hatches
 62
     0
370
     9
100
AcDbLine
 10
117.05
 20
115.0
 30
0.0
 11
117.0
 21
115.0
 31
0.0
  0
LINE
  5
27A
330
1EA
100
AcDbEntity
  8
5 Hatches
 62
     0
370
     9
100
AcDbLine
 10
118.05
 20
115.0
 30
0.0
 11
118.0
 21
115.0
 31
0.0
  0
LINE
  5
27B
330
1EA
100
AcDbEntity
  8
5 Hatches
 62
     0
370
     9
100
AcDbLine
 10
119.05
 20
115.0
 30
0.0
 11
119.0
 21
115.0
 31
0.0
  0
LINE
  5
27C
330
1EA
100
AcDbEntity
  8
5 Hatches
 62
     0
370
     9
100
AcDbLine
 10
120.05
 20
115.0
 30
0.0
 11
120.0
 21
115.0
 31
0.0
  0
ENDBLK
  5
1EC
330
1EA
100
AcDbEntity
  8
0
100
AcDbBlockEnd
  0
BLOCK
  5
27E
330
27D
100
AcDbEntity
  8
0
100
AcDbBlockBegin
  2
HATCH_3_c921b24b-3a8f-44df-992c-2ce89c1dcc5d
 70
     0
 10
0.0
 20
0.0
 30
0.0
  3
HATCH_3_c921b24b-3a8f-44df-992c-2ce89c1dcc5d
  1

  0
LINE
  5
280
330
27D
100
AcDbEntity
  8
5 Hatches
 62
     0
370
     9
100
AcDbLine
 10
61.05
 20
115.0
 30
0.0
 11
61.0
 21
115.0
 31
0.0
  0
LINE
  5
281
330
27D
100
AcDbEntity
  8
5 Hatches
 62
     0
370
     9
100
AcDbLine
 10
61.05
 20
114.0
 30
0.0
 11
61.0
 21
114.0
 31
0.0
  0
LINE
  5
282
330
27D
100
AcDbEntity
  8
5 Hatches
 62
     0
370
     9
100
AcDbLine
 10
61.05
 20
113.0
 30
0.0
 11
61.0
 21
113.0
 31
0.0
  0
LINE
  5
283
330
27D
100
AcDbEntity
  8
5 Hatches
 62
     0
370
     9
100
AcDbLine
 10
61.05
 20
112.0
 30
0.0
 11
61.0
 21
112.0
 31
0.0
  0
LINE
  5
284
330
27D
100
AcDbEntity
  8
5 Hatches
 62
     0
370
     9
100
AcDbLine
 10
61.05
 20
111.0
 30
0.0
 11
61.0
 21
111.0
 31
0.0
  0
LINE
  5
285
330
27D
100
AcDbEntity
  8
5 Hatches
 62
     0
370
     9
100
AcDbLine
 10
61.05
 20
110.0
 30
0.0
 11
61.0
 21
110.0
 31
0.0
  0
LINE
  5
286
330
27D
100
AcDbEntity
  8
5 Hatches
 62
     0
370
     9
100
AcDbLine
 10
62.05
 20
115.0
 30
0.0
 11
62.0
 21
115.0
 31
0.0
  0
LINE
  5
287
330
27D
100
AcDbEntity
  8
5 Hatches
 62
     0
370
     9
100
AcDbLine
 10
62.05
 20
114.0
 30
0.0
 11
62.0
 21
114.0
 31
0.0
  0
LINE
  5
288
330
27D
100
AcDbEntity
  8
5 Hatches
 62
     0
370
     9
100
AcDbLine
 10
62.05
 20
113.0
 30
0.0
 11
62.0
 21
113.0
 31
0.0
  0
LINE
  5
289
330
27D
100
AcDbEntity
  8
5 Hatches
 62
     0
370
     9
100
AcDbLine
 10
62.05
 20
112.0
 30
0.0
 11
62.0
 21
112.0
 31
0.0
  0
LINE
  5
28A
330
27D
100
AcDbEntity
  8
5 Hatches
 62
     0
370
     9
100
AcDbLine
 10
62.05
 20
111.0
 30
0.0
 11
62.0
 21
111.0
 31
0.0
  0
LINE
  5
28B
330
27D
100
AcDbEntity
  8
5 Hatches
 62
     0
370
     9
100
AcDbLine
 10
62.05
 20
110.0
 30
0.0
 11
62.0
 21
110.0
 31
0.0
  0
LINE
  5
28C
330
27D
100
AcDbEntity
  8
5 Hatches
 62
     0
370
     9
100
AcDbLine
 10
63.05
 20
110.0
 30
0.0
 11
63.0
 21
110.0
 31
0.0
  0
LINE
  5
28D
330
27D
100
AcDbEntity
  8
5 Hatches
 62
     0
370
     9
100
AcDbLine
 10
63.05
 20
114.0
 30
0.0
 11
63.0
 21
114.0
 31
0.0
  0
LINE
  5
28E
330
27D
100
AcDbEntity
  8
5 Hatches
 62
     0
370
     9
100
AcDbLine
 10
63.05
 20
113.0
 30
0.0
 11
63.0
 21
113.0
 31
0.0
  0
LINE
  5
28F
330
27D
100
AcDbEntity
  8
5 Hatches
 62
     0
370
     9
100
AcDbLine
 10
64.05
 20
110.0
 30
0.0
 11
64.0
 21
110.0
 31
0.0
  0
LINE
  5
290
330
27D
100
AcDbEntity
  8
5 Hatches
 62
     0
370
     9
100
AcDbLine
 10
65.05
 20
110.0
 30
0.0
 11
65.0
 21
110.0
 31
0.0
  0
LINE
  5
291
330
27D
100
AcDbEntity
  8
5 Hatches
 62
     0
370
     9
100
AcDbLine
 10
66.05
 20
110.0
 30
0.0
 11
66.0
 21
110.0
 31
0.0
  0
LINE
  5
292
330
27D
100
AcDbEntity
  8
5 Hatches
 62
     0
370
     9
100
AcDbLine
 10
68.05
 20
110.0
 30
0.0
 11
68.0
 21
110.0
 31
0.0
  0
LINE
  5
293
330
27D
100
AcDbEntity
  8
5 Hatches
 62
     0
370
     9
100
AcDbLine
 10
69.05
 20
110.0
 30
0.0
 11
69.0
 21
110.0
 31
0.0
  0
LINE
  5
294
330
27D
100
AcDbEntity
  8
5 Hatches
 62
     0
370
     9
100
AcDbLine
 10
70.05
 20
110.0
 30
0.0
 11
70.0
 21
110.0
 31
0.0
  0
LINE
  5
295
330
27D
100
AcDbEntity
  8
5 Hatches
 62
     0
370
     9
100
AcDbLine
 10
71.05
 20
110.0
 30
0.0
 11
71.0
 21
110.0
 31
0.0
  0
LINE
  5
296
330
27D
100
AcDbEntity
  8
5 Hatches
 62
     0
370
     9
100
AcDbLine
 10
72.05
 20
110.0
 30
0.0
 11
72.0
 21
110.0
 31
0.0
  0
LINE
  5
297
330
27D
100
AcDbEntity
  8
5 Hatches
 62
     0
370
     9
100
AcDbLine
 10
73.05
 20
110.0
 30
0.0
 11
73.0
 21
110.0
 31
0.0
  0
LINE
  5
298
330
27D
100
AcDbEntity
  8
5 Hatches
 62
     0
370
     9
100
AcDbLine
 10
74.05
 20
110.0
 30
0.0
 11
74.0
 21
110.0
 31
0.0
  0
LINE
  5
299
330
27D
100
AcDbEntity
  8
5 Hatches
 62
     0
370
     9
100
AcDbLine
 10
75.05
 20
110.0
 30
0.0
 11
75.0
 21
110.0
 31
0.0
  0
LINE
  5
29A
330
27D
100
AcDbEntity
  8
5 Hatches
 62
     0
370
     9
100
AcDbLine
 10
76.05
 20
110.0
 30
0.0
 11
76.0
 21
110.0
 31
0.0
  0
LINE
  5
29B
330
27D
100
AcDbEntity
  8
5 Hatches
 62
     0
370
     9
100
AcDbLine
 10
77.05
 20
110.0
 30
0.0
 11
77.0
 21
110.0
 31
0.0
  0
LINE
  5
29C
330
27D
100
AcDbEntity
  8
5 Hatches
 62
     0
370
     9
100
AcDbLine
 10
78.05
 20
110.0
 30
0.0
 11
78.0
 21
110.0
 31
0.0
  0
LINE
  5
29D
330
27D
100
AcDbEntity
  8
5 Hatches
 62
     0
370
     9
100
AcDbLine
 10
79.05
 20
110.0
 30
0.0
 11
79.0
 21
110.0
 31
0.0
  0
LINE
  5
29E
330
27D
100
AcDbEntity
  8
5 Hatches
 62
     0
370
     9
100
AcDbLine
 10
80.05
 20
110.0
 30
0.0
 11
80.0
 21
110.0
 31
0.0
  0
LINE
  5
29F
330
27D
100
AcDbEntity
  8
5 Hatches
 62
     0
370
     9
100
AcDbLine
 10
81.05
 20
110.0
 30
0.0
 11
81.0
 21
110.0
 31
0.0
  0
LINE
  5
2A0
330
27D
100
AcDbEntity
  8
5 Hatches
 62
     0
370
     9
100
AcDbLine
 10
82.05
 20
110.0
 30
0.0
 11
82.0
 21
110.0
 31
0.0
  0
LINE
  5
2A1
330
27D
100
AcDbEntity
  8
5 Hatches
 62
     0
370
     9
100
AcDbLine
 10
83.05
 20
110.0
 30
0.0
 11
83.0
 21
110.0
 31
0.0
  0
LINE
  5
2A2
330
27D
100
AcDbEntity
  8
5 Hatches
 62
     0
370
     9
100
AcDbLine
 10
84.05
 20
110.0
 30
0.0
 11
84.0
 21
110.0
 31
0.0
  0
LINE
  5
2A3
330
27D
100
AcDbEntity
  8
5 Hatches
 62
     0
370
     9
100
AcDbLine
 10
85.05
 20
110.0
 30
0.0
 11
85.0
 21
110.0
 31
0.0
  0
LINE
  5
2A4
330
27D
100
AcDbEntity
  8
5 Hatches
 62
     0
370
     9
100
AcDbLine
 10
86.05
 20
110.0
 30
0.0
 11
86.0
 21
110.0
 31
0.0
  0
LINE
  5
2A5
330
27D
100
AcDbEntity
  8
5 Hatches
 62
     0
370
     9
100
AcDbLine
 10
87.05
 20
110.0
 30
0.0
 11
87.0
 21
110.0
 31
0.0
  0
LINE
  5
2A6
330
27D
100
AcDbEntity
  8
5 Hatches
 62
     0
370
     9
100
AcDbLine
 10
88.05
 20
110.0
 30
0.0
 11
88.0
 21
110.0
 31
0.0
  0
LINE
  5
2A7
330
27D
100
AcDbEntity
  8
5 Hatches
 62
     0
370
     9
100
AcDbLine
 10
89.05
 20
110.0
 30
0.0
 11
89.0
 21
110.0
 31
0.0
  0
LINE
  5
2A8
330
27D
100
AcDbEntity
  8
5 Hatches
 62
     0
370
     9
100
AcDbLine
 10
90.05
 20
110.0
 30
0.0
 11
90.0
 21
110.0
 31
0.0
  0
LINE
  5
2A9
330
27D
100
AcDbEntity
  8
5 Hatches
 62
     0
370
     9
100
AcDbLine
 10
91.05
 20
110.0
 30
0.0
 11
91.0
 21
110.0
 31
0.0
  0
LINE
  5
2AA
330
27D
100
AcDbEntity
  8
5 Hatches
 62
     0
370
     9
100
AcDbLine
 10
92.05
 20
110.0
 30
0.0
 11
92.0
 21
110.0
 31
0.0
  0
LINE
  5
2AB
330
27D
100
AcDbEntity
  8
5 Hatches
 62
     0
370
     9
100
AcDbLine
 10
93.05
 20
110.0
 30
0.0
 11
93.0
 21
110.0
 31
0.0
  0
LINE
  5
2AC
330
27D
100
AcDbEntity
  8
5 Hatches
 62
     0
370
     9
100
AcDbLine
 10
94.05
 20
110.0
 30
0.0
 11
94.0
 21
110.0
 31
0.0
  0
LINE
  5
2AD
330
27D
100
AcDbEntity
  8
5 Hatches
 62
     0
370
     9
100
AcDbLine
 10
95.05
 20
110.0
 30
0.0
 11
95.0
 21
110.0
 31
0.0
  0
LINE
  5
2AE
330
27D
100
AcDbEntity
  8
5 Hatches
 62
     0
370
     9
100
AcDbLine
 10
96.05
 20
110.0
 30
0.0
 11
96.0
 21
110.0
 31
0.0
  0
LINE
  5
2AF
330
27D
100
AcDbEntity
  8
5 Hatches
 62
     0
370
     9
100
AcDbLine
 10
97.05
 20
110.0
 30
0.0
 11
97.0
 21
110.0
 31
0.0
  0
LINE
  5
2B0
330
27D
100
AcDbEntity
  8
5 Hatches
 62
     0
370
     9
100
AcDbLine
 10
98.05
 20
110.0
 30
0.0
 11
98.0
 21
110.0
 31
0.0
  0
LINE
  5
2B1
330
27D
100
AcDbEntity
  8
5 Hatches
 62
     0
370
     9
100
AcDbLine
 10
99.05
 20
110.0
 30
0.0
 11
99.0
 21
110.0
 31
0.0
  0
LINE
  5
2B2
330
27D
100
AcDbEntity
  8
5 Hatches
 62
     0
370
     9
100
AcDbLine
 10
100.05
 20
110.0
 30
0.0
 11
100.0
 21
110.0
 31
0.0
  0
LINE
  5
2B3
330
27D
100
AcDbEntity
  8
5 Hatches
 62
     0
370
     9
100
AcDbLine
 10
101.05
 20
110.0
 30
0.0
 11
101.0
 21
110.0
 31
0.0
  0
LINE
  5
2B4
330
27D
100
AcDbEntity
  8
5 Hatches
 62
     0
370
     9
100
AcDbLine
 10
102.05
 20
110.0
 30
0.0
 11
102.0
 21
110.0
 31
0.0
  0
LINE
  5
2B5
330
27D
100
AcDbEntity
  8
5 Hatches
 62
     0
370
     9
100
AcDbLine
 10
103.05
 20
110.0
 30
0.0
 11
103.0
 21
110.0
 31
0.0
  0
LINE
  5
2B6
330
27D
100
AcDbEntity
  8
5 Hatches
 62
     0
370
     9
100
AcDbLine
 10
104.05
 20
110.0
 30
0.0
 11
104.0
 21
110.0
 31
0.0
  0
LINE
  5
2B7
330
27D
100
AcDbEntity
  8
5 Hatches
 62
     0
370
     9
100
AcDbLine
 10
105.05
 20
110.0
 30
0.0
 11
105.0
 21
110.0
 31
0.0
  0
LINE
  5
2B8
330
27D
100
AcDbEntity
  8
5 Hatches
 62
     0
370
     9
100
AcDbLine
 10
106.05
 20
110.0
 30
0.0
 11
106.0
 21
110.0
 31
0.0
  0
LINE
  5
2B9
330
27D
100
AcDbEntity
  8
5 Hatches
 62
     0
370
     9
100
AcDbLine
 10
107.05
 20
110.0
 30
0.0
 11
107.0
 21
110.0
 31
0.0
  0
LINE
  5
2BA
330
27D
100
AcDbEntity
  8
5 Hatches
 62
     0
370
     9
100
AcDbLine
 10
108.05
 20
110.0
 30
0.0
 11
108.0
 21
110.0
 31
0.0
  0
LINE
  5
2BB
330
27D
100
AcDbEntity
  8
5 Hatches
 62
     0
370
     9
100
AcDbLine
 10
109.05
 20
110.0
 30
0.0
 11
109.0
 21
110.0
 31
0.0
  0
LINE
  5
2BC
330
27D
100
AcDbEntity
  8
5 Hatches
 62
     0
370
     9
100
AcDbLine
 10
110.05
 20
110.0
 30
0.0
 11
110.0
 21
110.0
 31
0.0
  0
LINE
  5
2BD
330
27D
100
AcDbEntity
  8
5 Hatches
 62
     0
370
     9
100
AcDbLine
 10
111.05
 20
110.0
 30
0.0
 11
111.0
 21
110.0
 31
0.0
  0
LINE
  5
2BE
330
27D
100
AcDbEntity
  8
5 Hatches
 62
     0
370
     9
100
AcDbLine
 10
112.05
 20
110.0
 30
0.0
 11
112.0
 21
110.0
 31
0.0
  0
LINE
  5
2BF
330
27D
100
AcDbEntity
  8
5 Hatches
 62
     0
370
     9
100
AcDbLine
 10
113.05
 20
110.0
 30
0.0
 11
113.0
 21
110.0
 31
0.0
  0
LINE
  5
2C0
330
27D
100
AcDbEntity
  8
5 Hatches
 62
     0
370
     9
100
AcDbLine
 10
114.05
 20
110.0
 30
0.0
 11
114.0
 21
110.0
 31
0.0
  0
LINE
  5
2C1
330
27D
100
AcDbEntity
  8
5 Hatches
 62
     0
370
     9
100
AcDbLine
 10
115.05
 20
110.0
 30
0.0
 11
115.0
 21
110.0
 31
0.0
  0
LINE
  5
2C2
330
27D
100
AcDbEntity
  8
5 Hatches
 62
     0
370
     9
100
AcDbLine
 10
116.05
 20
110.0
 30
0.0
 11
116.0
 21
110.0
 31
0.0
  0
LINE
  5
2C3
330
27D
100
AcDbEntity
  8
5 Hatches
 62
     0
370
     9
100
AcDbLine
 10
117.05
 20
110.0
 30
0.0
 11
117.0
 21
110.0
 31
0.0
  0
LINE
  5
2C4
330
27D
100
AcDbEntity
  8
5 Hatches
 62
     0
370
     9
100
AcDbLine
 10
118.05
 20
110.0
 30
0.0
 11
118.0
 21
110.0
 31
0.0
  0
LINE
  5
2C5
330
27D
100
AcDbEntity
  8
5 Hatches
 62
     0
370
     9
100
AcDbLine
 10
119.05
 20
110.0
 30
0.0
 11
119.0
 21
110.0
 31
0.0
  0
LINE
  5
2C6
330
27D
100
AcDbEntity
  8
5 Hatches
 62
     0
370
     9
100
AcDbLine
 10
120.05
 20
110.0
 30
0.0
 11
120.0
 21
110.0
 31
0.0
  0
LINE
  5
2C7
330
27D
100
AcDbEntity
  8
5 Hatches
 62
     0
370
     9
100
AcDbLine
 10
63.05
 20
111.0
 30
0.0
 11
63.0
 21
111.0
 31
0.0
  0
LINE
  5
2C8
330
27D
100
AcDbEntity
  8
5 Hatches
 62
     0
370
     9
100
AcDbLine
 10
64.05
 20
111.0
 30
0.0
 11
64.0
 21
111.0
 31
0.0
  0
LINE
  5
2C9
330
27D
100
AcDbEntity
  8
5 Hatches
 62
     0
370
     9
100
AcDbLine
 10
65.05
 20
111.0
 30
0.0
 11
65.0
 21
111.0
 31
0.0
  0
LINE
  5
2CA
330
27D
100
AcDbEntity
  8
5 Hatches
 62
     0
370
     9
100
AcDbLine
 10
66.05
 20
111.0
 30
0.0
 11
66.0
 21
111.0
 31
0.0
  0
LINE
  5
2CB
330
27D
100
AcDbEntity
  8
5 Hatches
 62
     0
370
     9
100
AcDbLine
 10
67.05
 20
111.0
 30
0.0
 11
67.0
 21
111.0
 31
0.0
  0
LINE
  5
2CC
330
27D
100
AcDbEntity
  8
5 Hatches
 62
     0
370
     9
100
AcDbLine
 10
68.05
 20
111.0
 30
0.0
 11
68.0
 21
111.0
 31
0.0
  0
LINE
  5
2CD
330
27D
100
AcDbEntity
  8
5 Hatches
 62
     0
370
     9
100
AcDbLine
 10
69.05
 20
111.0
 30
0.0
 11
69.0
 21
111.0
 31
0.0
  0
LINE
  5
2CE
330
27D
100
AcDbEntity
  8
5 Hatches
 62
     0
370
     9
100
AcDbLine
 10
70.05
 20
111.0
 30
0.0
 11
70.0
 21
111.0
 31
0.0
  0
LINE
  5
2CF
330
27D
100
AcDbEntity
  8
5 Hatches
 62
     0
370
     9
100
AcDbLine
 10
71.05
 20
111.0
 30
0.0
 11
71.0
 21
111.0
 31
0.0
  0
LINE
  5
2D0
330
27D
100
AcDbEntity
  8
5 Hatches
 62
     0
370
     9
100
AcDbLine
 10
72.05
 20
111.0
 30
0.0
 11
72.0
 21
111.0
 31
0.0
  0
LINE
  5
2D1
330
27D
100
AcDbEntity
  8
5 Hatches
 62
     0
370
     9
100
AcDbLine
 10
73.05
 20
111.0
 30
0.0
 11
73.0
 21
111.0
 31
0.0
  0
LINE
  5
2D2
330
27D
100
AcDbEntity
  8
5 Hatches
 62
     0
370
     9
100
AcDbLine
 10
74.05
 20
111.0
 30
0.0
 11
74.0
 21
111.0
 31
0.0
  0
LINE
  5
2D3
330
27D
100
AcDbEntity
  8
5 Hatches
 62
     0
370
     9
100
AcDbLine
 10
75.05
 20
111.0
 30
0.0
 11
75.0
 21
111.0
 31
0.0
  0
LINE
  5
2D4
330
27D
100
AcDbEntity
  8
5 Hatches
 62
     0
370
     9
100
AcDbLine
 10
76.05
 20
111.0
 30
0.0
 11
76.0
 21
111.0
 31
0.0
  0
LINE
  5
2D5
330
27D
100
AcDbEntity
  8
5 Hatches
 62
     0
370
     9
100
AcDbLine
 10
77.05
 20
111.0
 30
0.0
 11
77.0
 21
111.0
 31
0.0
  0
LINE
  5
2D6
330
27D
100
AcDbEntity
  8
5 Hatches
 62
     0
370
     9
100
AcDbLine
 10
78.05
 20
111.0
 30
0.0
 11
78.0
 21
111.0
 31
0.0
  0
LINE
  5
2D7
330
27D
100
AcDbEntity
  8
5 Hatches
 62
     0
370
     9
100
AcDbLine
 10
79.05
 20
111.0
 30
0.0
 11
79.0
 21
111.0
 31
0.0
  0
LINE
  5
2D8
330
27D
100
AcDbEntity
  8
5 Hatches
 62
     0
370
     9
100
AcDbLine
 10
80.05
 20
111.0
 30
0.0
 11
80.0
 21
111.0
 31
0.0
  0
LINE
  5
2D9
330
27D
100
AcDbEntity
  8
5 Hatches
 62
     0
370
     9
100
AcDbLine
 10
81.05
 20
111.0
 30
0.0
 11
81.0
 21
111.0
 31
0.0
  0
LINE
  5
2DA
330
27D
100
AcDbEntity
  8
5 Hatches
 62
     0
370
     9
100
AcDbLine
 10
82.05
 20
111.0
 30
0.0
 11
82.0
 21
111.0
 31
0.0
  0
LINE
  5
2DB
330
27D
100
AcDbEntity
  8
5 Hatches
 62
     0
370
     9
100
AcDbLine
 10
83.05
 20
111.0
 30
0.0
 11
83.0
 21
111.0
 31
0.0
  0
LINE
  5
2DC
330
27D
100
AcDbEntity
  8
5 Hatches
 62
     0
370
     9
100
AcDbLine
 10
84.05
 20
111.0
 30
0.0
 11
84.0
 21
111.0
 31
0.0
  0
LINE
  5
2DD
330
27D
100
AcDbEntity
  8
5 Hatches
 62
     0
370
     9
100
AcDbLine
 10
85.05
 20
111.0
 30
0.0
 11
85.0
 21
111.0
 31
0.0
  0
LINE
  5
2DE
330
27D
100
AcDbEntity
  8
5 Hatches
 62
     0
370
     9
100
AcDbLine
 10
86.05
 20
111.0
 30
0.0
 11
86.0
 21
111.0
 31
0.0
  0
LINE
  5
2DF
330
27D
100
AcDbEntity
  8
5 Hatches
 62
     0
370
     9
100
AcDbLine
 10
87.05
 20
111.0
 30
0.0
 11
87.0
 21
111.0
 31
0.0
  0
LINE
  5
2E0
330
27D
100
AcDbEntity
  8
5 Hatches
 62
     0
370
     9
100
AcDbLine
 10
88.05
 20
111.0
 30
0.0
 11
88.0
 21
111.0
 31
0.0
  0
LINE
  5
2E1
330
27D
100
AcDbEntity
  8
5 Hatches
 62
     0
370
     9
100
AcDbLine
 10
89.05
 20
111.0
 30
0.0
 11
89.0
 21
111.0
 31
0.0
  0
LINE
  5
2E2
330
27D
100
AcDbEntity
  8
5 Hatches
 62
     0
370
     9
100
AcDbLine
 10
90.05
 20
111.0
 30
0.0
 11
90.0
 21
111.0
 31
0.0
  0
LINE
  5
2E3
330
27D
100
AcDbEntity
  8
5 Hatches
 62
     0
370
     9
100
AcDbLine
 10
91.05
 20
111.0
 30
0.0
 11
91.0
 21
111.0
 31
0.0
  0
LINE
  5
2E4
330
27D
100
AcDbEntity
  8
5 Hatches
 62
     0
370
     9
100
AcDbLine
 10
92.05
 20
111.0
 30
0.0
 11
92.0
 21
111.0
 31
0.0
  0
LINE
  5
2E5
330
27D
100
AcDbEntity
  8
5 Hatches
 62
     0
370
     9
100
AcDbLine
 10
93.05
 20
111.0
 30
0.0
 11
93.0
 21
111.0
 31
0.0
  0
LINE
  5
2E6
330
27D
100
AcDbEntity
  8
5 Hatches
 62
     0
370
     9
100
AcDbLine
 10
94.05
 20
111.0
 30
0.0
 11
94.0
 21
111.0
 31
0.0
  0
LINE
  5
2E7
330
27D
100
AcDbEntity
  8
5 Hatches
 62
     0
370
     9
100
AcDbLine
 10
95.05
 20
111.0
 30
0.0
 11
95.0
 21
111.0
 31
0.0
  0
LINE
  5
2E8
330
27D
100
AcDbEntity
  8
5 Hatches
 62
     0
370
     9
100
AcDbLine
 10
96.05
 20
111.0
 30
0.0
 11
96.0
 21
111.0
 31
0.0
  0
LINE
  5
2E9
330
27D
100
AcDbEntity
  8
5 Hatches
 62
     0
370
     9
100
AcDbLine
 10
97.05
 20
111.0
 30
0.0
 11
97.0
 21
111.0
 31
0.0
  0
LINE
  5
2EA
330
27D
100
AcDbEntity
  8
5 Hatches
 62
     0
370
     9
100
AcDbLine
 10
98.05
 20
111.0
 30
0.0
 11
98.0
 21
111.0
 31
0.0
  0
LINE
  5
2EB
330
27D
100
AcDbEntity
  8
5 Hatches
 62
     0
370
     9
100
AcDbLine
 10
99.05
 20
111.0
 30
0.0
 11
99.0
 21
111.0
 31
0.0
  0
LINE
  5
2EC
330
27D
100
AcDbEntity
  8
5 Hatches
 62
     0
370
     9
100
AcDbLine
 10
100.05
 20
111.0
 30
0.0
 11
100.0
 21
111.0
 31
0.0
  0
LINE
  5
2ED
330
27D
100
AcDbEntity
  8
5 Hatches
 62
     0
370
     9
100
AcDbLine
 10
101.05
 20
111.0
 30
0.0
 11
101.0
 21
111.0
 31
0.0
  0
LINE
  5
2EE
330
27D
100
AcDbEntity
  8
5 Hatches
 62
     0
370
     9
100
AcDbLine
 10
102.05
 20
111.0
 30
0.0
 11
102.0
 21
111.0
 31
0.0
  0
LINE
  5
2EF
330
27D
100
AcDbEntity
  8
5 Hatches
 62
     0
370
     9
100
AcDbLine
 10
103.05
 20
111.0
 30
0.0
 11
103.0
 21
111.0
 31
0.0
  0
LINE
  5
2F0
330
27D
100
AcDbEntity
  8
5 Hatches
 62
     0
370
     9
100
AcDbLine
 10
104.05
 20
111.0
 30
0.0
 11
104.0
 21
111.0
 31
0.0
  0
LINE
  5
2F1
330
27D
100
AcDbEntity
  8
5 Hatches
 62
     0
370
     9
100
AcDbLine
 10
105.05
 20
111.0
 30
0.0
 11
105.0
 21
111.0
 31
0.0
  0
LINE
  5
2F2
330
27D
100
AcDbEntity
  8
5 Hatches
 62
     0
370
     9
100
AcDbLine
 10
106.05
 20
111.0
 30
0.0
 11
106.0
 21
111.0
 31
0.0
  0
LINE
  5
2F3
330
27D
100
AcDbEntity
  8
5 Hatches
 62
     0
370
     9
100
AcDbLine
 10
107.05
 20
111.0
 30
0.0
 11
107.0
 21
111.0
 31
0.0
  0
LINE
  5
2F4
330
27D
100
AcDbEntity
  8
5 Hatches
 62
     0
370
     9
100
AcDbLine
 10
108.05
 20
111.0
 30
0.0
 11
108.0
 21
111.0
 31
0.0
  0
LINE
  5
2F5
330
27D
100
AcDbEntity
  8
5 Hatches
 62
     0
370
     9
100
AcDbLine
 10
109.05
 20
111.0
 30
0.0
 11
109.0
 21
111.0
 31
0.0
  0
LINE
  5
2F6
330
27D
100
AcDbEntity
  8
5 Hatches
 62
     0
370
     9
100
AcDbLine
 10
110.05
 20
111.0
 30
0.0
 11
110.0
 21
111.0
 31
0.0
  0
LINE
  5
2F7
330
27D
100
AcDbEntity
  8
5 Hatches
 62
     0
370
     9
100
AcDbLine
 10
111.05
 20
111.0
 30
0.0
 11
111.0
 21
111.0
 31
0.0
  0
LINE
  5
2F8
330
27D
100
AcDbEntity
  8
5 Hatches
 62
     0
370
     9
100
AcDbLine
 10
112.05
 20
111.0
 30
0.0
 11
112.0
 21
111.0
 31
0.0
  0
LINE
  5
2F9
330
27D
100
AcDbEntity
  8
5 Hatches
 62
     0
370
     9
100
AcDbLine
 10
113.05
 20
111.0
 30
0.0
 11
113.0
 21
111.0
 31
0.0
  0
LINE
  5
2FA
330
27D
100
AcDbEntity
  8
5 Hatches
 62
     0
370
     9
100
AcDbLine
 10
114.05
 20
111.0
 30
0.0
 11
114.0
 21
111.0
 31
0.0
  0
LINE
  5
2FB
330
27D
100
AcDbEntity
  8
5 Hatches
 62
     0
370
     9
100
AcDbLine
 10
115.05
 20
111.0
 30
0.0
 11
115.0
 21
111.0
 31
0.0
  0
LINE
  5
2FC
330
27D
100
AcDbEntity
  8
5 Hatches
 62
     0
370
     9
100
AcDbLine
 10
116.05
 20
111.0
 30
0.0
 11
116.0
 21
111.0
 31
0.0
  0
LINE
  5
2FD
330
27D
100
AcDbEntity
  8
5 Hatches
 62
     0
370
     9
100
AcDbLine
 10
117.05
 20
111.0
 30
0.0
 11
117.0
 21
111.0
 31
0.0
  0
LINE
  5
2FE
330
27D
100
AcDbEntity
  8
5 Hatches
 62
     0
370
     9
100
AcDbLine
 10
118.05
 20
111.0
 30
0.0
 11
118.0
 21
111.0
 31
0.0
  0
LINE
  5
2FF
330
27D
100
AcDbEntity
  8
5 Hatches
 62
     0
370
     9
100
AcDbLine
 10
119.05
 20
111.0
 30
0.0
 11
119.0
 21
111.0
 31
0.0
  0
LINE
  5
300
330
27D
100
AcDbEntity
  8
5 Hatches
 62
     0
370
     9
100
AcDbLine
 10
120.05
 20
111.0
 30
0.0
 11
120.0
 21
111.0
 31
0.0
  0
LINE
  5
301
330
27D
100
AcDbEntity
  8
5 Hatches
 62
     0
370
     9
100
AcDbLine
 10
63.05
 20
112.0
 30
0.0
 11
63.0
 21
112.0
 31
0.0
  0
LINE
  5
302
330
27D
100
AcDbEntity
  8
5 Hatches
 62
     0
370
     9
100
AcDbLine
 10
64.05
 20
112.0
 30
0.0
 11
64.0
 21
112.0
 31
0.0
  0
LINE
  5
303
330
27D
100
AcDbEntity
  8
5 Hatches
 62
     0
370
     9
100
AcDbLine
 10
65.05
 20
112.0
 30
0.0
 11
65.0
 21
112.0
 31
0.0
  0
LINE
  5
304
330
27D
100
AcDbEntity
  8
5 Hatches
 62
     0
370
     9
100
AcDbLine
 10
66.05
 20
112.0
 30
0.0
 11
66.0
 21
112.0
 31
0.0
  0
LINE
  5
305
330
27D
100
AcDbEntity
  8
5 Hatches
 62
     0
370
     9
100
AcDbLine
 10
67.05
 20
112.0
 30
0.0
 11
67.0
 21
112.0
 31
0.0
  0
LINE
  5
306
330
27D
100
AcDbEntity
  8
5 Hatches
 62
     0
370
     9
100
AcDbLine
 10
68.05
 20
112.0
 30
0.0
 11
68.0
 21
112.0
 31
0.0
  0
LINE
  5
307
330
27D
100
AcDbEntity
  8
5 Hatches
 62
     0
370
     9
100
AcDbLine
 10
69.05
 20
112.0
 30
0.0
 11
69.0
 21
112.0
 31
0.0
  0
LINE
  5
308
330
27D
100
AcDbEntity
  8
5 Hatches
 62
     0
370
     9
100
AcDbLine
 10
70.05
 20
112.0
 30
0.0
 11
70.0
 21
112.0
 31
0.0
  0
LINE
  5
309
330
27D
100
AcDbEntity
  8
5 Hatches
 62
     0
370
     9
100
AcDbLine
 10
71.05
 20
112.0
 30
0.0
 11
71.0
 21
112.0
 31
0.0
  0
LINE
  5
30A
330
27D
100
AcDbEntity
  8
5 Hatches
 62
     0
370
     9
100
AcDbLine
 10
72.05
 20
112.0
 30
0.0
 11
72.0
 21
112.0
 31
0.0
  0
LINE
  5
30B
330
27D
100
AcDbEntity
  8
5 Hatches
 62
     0
370
     9
100
AcDbLine
 10
73.05
 20
112.0
 30
0.0
 11
73.0
 21
112.0
 31
0.0
  0
LINE
  5
30C
330
27D
100
AcDbEntity
  8
5 Hatches
 62
     0
370
     9
100
AcDbLine
 10
74.05
 20
112.0
 30
0.0
 11
74.0
 21
112.0
 31
0.0
  0
LINE
  5
30D
330
27D
100
AcDbEntity
  8
5 Hatches
 62
     0
370
     9
100
AcDbLine
 10
75.05
 20
112.0
 30
0.0
 11
75.0
 21
112.0
 31
0.0
  0
LINE
  5
30E
330
27D
100
AcDbEntity
  8
5 Hatches
 62
     0
370
     9
100
AcDbLine
 10
76.05
 20
112.0
 30
0.0
 11
76.0
 21
112.0
 31
0.0
  0
LINE
  5
30F
330
27D
100
AcDbEntity
  8
5 Hatches
 62
     0
370
     9
100
AcDbLine
 10
77.05
 20
112.0
 30
0.0
 11
77.0
 21
112.0
 31
0.0
  0
LINE
  5
310
330
27D
100
AcDbEntity
  8
5 Hatches
 62
     0
370
     9
100
AcDbLine
 10
78.05
 20
112.0
 30
0.0
 11
78.0
 21
112.0
 31
0.0
  0
LINE
  5
311
330
27D
100
AcDbEntity
  8
5 Hatches
 62
     0
370
     9
100
AcDbLine
 10
79.05
 20
112.0
 30
0.0
 11
79.0
 21
112.0
 31
0.0
  0
LINE
  5
312
330
27D
100
AcDbEntity
  8
5 Hatches
 62
     0
370
     9
100
AcDbLine
 10
80.05
 20
112.0
 30
0.0
 11
80.0
 21
112.0
 31
0.0
  0
LINE
  5
313
330
27D
100
AcDbEntity
  8
5 Hatches
 62
     0
370
     9
100
AcDbLine
 10
81.05
 20
112.0
 30
0.0
 11
81.0
 21
112.0
 31
0.0
  0
LINE
  5
314
330
27D
100
AcDbEntity
  8
5 Hatches
 62
     0
370
     9
100
AcDbLine
 10
82.05
 20
112.0
 30
0.0
 11
82.0
 21
112.0
 31
0.0
  0
LINE
  5
315
330
27D
100
AcDbEntity
  8
5 Hatches
 62
     0
370
     9
100
AcDbLine
 10
83.05
 20
112.0
 30
0.0
 11
83.0
 21
112.0
 31
0.0
  0
LINE
  5
316
330
27D
100
AcDbEntity
  8
5 Hatches
 62
     0
370
     9
100
AcDbLine
 10
84.05
 20
112.0
 30
0.0
 11
84.0
 21
112.0
 31
0.0
  0
LINE
  5
317
330
27D
100
AcDbEntity
  8
5 Hatches
 62
     0
370
     9
100
AcDbLine
 10
85.05
 20
112.0
 30
0.0
 11
85.0
 21
112.0
 31
0.0
  0
LINE
  5
318
330
27D
100
AcDbEntity
  8
5 Hatches
 62
     0
370
     9
100
AcDbLine
 10
86.05
 20
112.0
 30
0.0
 11
86.0
 21
112.0
 31
0.0
  0
LINE
  5
319
330
27D
100
AcDbEntity
  8
5 Hatches
 62
     0
370
     9
100
AcDbLine
 10
87.05
 20
112.0
 30
0.0
 11
87.0
 21
112.0
 31
0.0
  0
LINE
  5
31A
330
27D
100
AcDbEntity
  8
5 Hatches
 62
     0
370
     9
100
AcDbLine
 10
88.05
 20
112.0
 30
0.0
 11
88.0
 21
112.0
 31
0.0
  0
LINE
  5
31B
330
27D
100
AcDbEntity
  8
5 Hatches
 62
     0
370
     9
100
AcDbLine
 10
89.05
 20
112.0
 30
0.0
 11
89.0
 21
112.0
 31
0.0
  0
LINE
  5
31C
330
27D
100
AcDbEntity
  8
5 Hatches
 62
     0
370
     9
100
AcDbLine
 10
90.05
 20
112.0
 30
0.0
 11
90.0
 21
112.0
 31
0.0
  0
LINE
  5
31D
330
27D
100
AcDbEntity
  8
5 Hatches
 62
     0
370
     9
100
AcDbLine
 10
91.05
 20
112.0
 30
0.0
 11
91.0
 21
112.0
 31
0.0
  0
LINE
  5
31E
330
27D
100
AcDbEntity
  8
5 Hatches
 62
     0
370
     9
100
AcDbLine
 10
92.05
 20
112.0
 30
0.0
 11
92.0
 21
112.0
 31
0.0
  0
LINE
  5
31F
330
27D
100
AcDbEntity
  8
5 Hatches
 62
     0
370
     9
100
AcDbLine
 10
93.05
 20
112.0
 30
0.0
 11
93.0
 21
112.0
 31
0.0
  0
LINE
  5
320
330
27D
100
AcDbEntity
  8
5 Hatches
 62
     0
370
     9
100
AcDbLine
 10
94.05
 20
112.0
 30
0.0
 11
94.0
 21
112.0
 31
0.0
  0
LINE
  5
321
330
27D
100
AcDbEntity
  8
5 Hatches
 62
     0
370
     9
100
AcDbLine
 10
95.05
 20
112.0
 30
0.0
 11
95.0
 21
112.0
 31
0.0
  0
LINE
  5
322
330
27D
100
AcDbEntity
  8
5 Hatches
 62
     0
370
     9
100
AcDbLine
 10
96.05
 20
112.0
 30
0.0
 11
96.0
 21
112.0
 31
0.0
  0
LINE
  5
323
330
27D
100
AcDbEntity
  8
5 Hatches
 62
     0
370
     9
100
AcDbLine
 10
97.05
 20
112.0
 30
0.0
 11
97.0
 21
112.0
 31
0.0
  0
LINE
  5
324
330
27D
100
AcDbEntity
  8
5 Hatches
 62
     0
370
     9
100
AcDbLine
 10
98.05
 20
112.0
 30
0.0
 11
98.0
 21
112.0
 31
0.0
  0
LINE
  5
325
330
27D
100
AcDbEntity
  8
5 Hatches
 62
     0
370
     9
100
AcDbLine
 10
99.05
 20
112.0
 30
0.0
 11
99.0
 21
112.0
 31
0.0
  0
LINE
  5
326
330
27D
100
AcDbEntity
  8
5 Hatches
 62
     0
370
     9
100
AcDbLine
 10
100.05
 20
112.0
 30
0.0
 11
100.0
 21
112.0
 31
0.0
  0
LINE
  5
327
330
27D
100
AcDbEntity
  8
5 Hatches
 62
     0
370
     9
100
AcDbLine
 10
101.05
 20
112.0
 30
0.0
 11
101.0
 21
112.0
 31
0.0
  0
LINE
  5
328
330
27D
100
AcDbEntity
  8
5 Hatches
 62
     0
370
     9
100
AcDbLine
 10
102.05
 20
112.0
 30
0.0
 11
102.0
 21
112.0
 31
0.0
  0
LINE
  5
329
330
27D
100
AcDbEntity
  8
5 Hatches
 62
     0
370
     9
100
AcDbLine
 10
103.05
 20
112.0
 30
0.0
 11
103.0
 21
112.0
 31
0.0
  0
LINE
  5
32A
330
27D
100
AcDbEntity
  8
5 Hatches
 62
     0
370
     9
100
AcDbLine
 10
104.05
 20
112.0
 30
0.0
 11
104.0
 21
112.0
 31
0.0
  0
LINE
  5
32B
330
27D
100
AcDbEntity
  8
5 Hatches
 62
     0
370
     9
100
AcDbLine
 10
105.05
 20
112.0
 30
0.0
 11
105.0
 21
112.0
 31
0.0
  0
LINE
  5
32C
330
27D
100
AcDbEntity
  8
5 Hatches
 62
     0
370
     9
100
AcDbLine
 10
106.05
 20
112.0
 30
0.0
 11
106.0
 21
112.0
 31
0.0
  0
LINE
  5
32D
330
27D
100
AcDbEntity
  8
5 Hatches
 62
     0
370
     9
100
AcDbLine
 10
107.05
 20
112.0
 30
0.0
 11
107.0
 21
112.0
 31
0.0
  0
LINE
  5
32E
330
27D
100
AcDbEntity
  8
5 Hatches
 62
     0
370
     9
100
AcDbLine
 10
108.05
 20
112.0
 30
0.0
 11
108.0
 21
112.0
 31
0.0
  0
LINE
  5
32F
330
27D
100
AcDbEntity
  8
5 Hatches
 62
     0
370
     9
100
AcDbLine
 10
109.05
 20
112.0
 30
0.0
 11
109.0
 21
112.0
 31
0.0
  0
LINE
  5
330
330
27D
100
AcDbEntity
  8
5 Hatches
 62
     0
370
     9
100
AcDbLine
 10
110.05
 20
112.0
 30
0.0
 11
110.0
 21
112.0
 31
0.0
  0
LINE
  5
331
330
27D
100
AcDbEntity
  8
5 Hatches
 62
     0
370
     9
100
AcDbLine
 10
111.05
 20
112.0
 30
0.0
 11
111.0
 21
112.0
 31
0.0
  0
LINE
  5
332
330
27D
100
AcDbEntity
  8
5 Hatches
 62
     0
370
     9
100
AcDbLine
 10
112.05
 20
112.0
 30
0.0
 11
112.0
 21
112.0
 31
0.0
  0
LINE
  5
333
330
27D
100
AcDbEntity
  8
5 Hatches
 62
     0
370
     9
100
AcDbLine
 10
113.05
 20
112.0
 30
0.0
 11
113.0
 21
112.0
 31
0.0
  0
LINE
  5
334
330
27D
100
AcDbEntity
  8
5 Hatches
 62
     0
370
     9
100
AcDbLine
 10
114.05
 20
112.0
 30
0.0
 11
114.0
 21
112.0
 31
0.0
  0
LINE
  5
335
330
27D
100
AcDbEntity
  8
5 Hatches
 62
     0
370
     9
100
AcDbLine
 10
115.05
 20
112.0
 30
0.0
 11
115.0
 21
112.0
 31
0.0
  0
LINE
  5
336
330
27D
100
AcDbEntity
  8
5 Hatches
 62
     0
370
     9
100
AcDbLine
 10
116.05
 20
112.0
 30
0.0
 11
116.0
 21
112.0
 31
0.0
  0
LINE
  5
337
330
27D
100
AcDbEntity
  8
5 Hatches
 62
     0
370
     9
100
AcDbLine
 10
117.05
 20
112.0
 30
0.0
 11
117.0
 21
112.0
 31
0.0
  0
LINE
  5
338
330
27D
100
AcDbEntity
  8
5 Hatches
 62
     0
370
     9
100
AcDbLine
 10
118.05
 20
112.0
 30
0.0
 11
118.0
 21
112.0
 31
0.0
  0
LINE
  5
339
330
27D
100
AcDbEntity
  8
5 Hatches
 62
     0
370
     9
100
AcDbLine
 10
119.05
 20
112.0
 30
0.0
 11
119.0
 21
112.0
 31
0.0
  0
LINE
  5
33A
330
27D
100
AcDbEntity
  8
5 Hatches
 62
     0
370
     9
100
AcDbLine
 10
120.05
 20
112.0
 30
0.0
 11
120.0
 21
112.0
 31
0.0
  0
LINE
  5
33B
330
27D
100
AcDbEntity
  8
5 Hatches
 62
     0
370
     9
100
AcDbLine
 10
64.05
 20
113.0
 30
0.0
 11
64.0
 21
113.0
 31
0.0
  0
LINE
  5
33C
330
27D
100
AcDbEntity
  8
5 Hatches
 62
     0
370
     9
100
AcDbLine
 10
65.05
 20
113.0
 30
0.0
 11
65.0
 21
113.0
 31
0.0
  0
LINE
  5
33D
330
27D
100
AcDbEntity
  8
5 Hatches
 62
     0
370
     9
100
AcDbLine
 10
66.05
 20
113.0
 30
0.0
 11
66.0
 21
113.0
 31
0.0
  0
LINE
  5
33E
330
27D
100
AcDbEntity
  8
5 Hatches
 62
     0
370
     9
100
AcDbLine
 10
67.05
 20
113.0
 30
0.0
 11
67.0
 21
113.0
 31
0.0
  0
LINE
  5
33F
330
27D
100
AcDbEntity
  8
5 Hatches
 62
     0
370
     9
100
AcDbLine
 10
68.05
 20
113.0
 30
0.0
 11
68.0
 21
113.0
 31
0.0
  0
LINE
  5
340
330
27D
100
AcDbEntity
  8
5 Hatches
 62
     0
370
     9
100
AcDbLine
 10
69.05
 20
113.0
 30
0.0
 11
69.0
 21
113.0
 31
0.0
  0
LINE
  5
341
330
27D
100
AcDbEntity
  8
5 Hatches
 62
     0
370
     9
100
AcDbLine
 10
70.05
 20
113.0
 30
0.0
 11
70.0
 21
113.0
 31
0.0
  0
LINE
  5
342
330
27D
100
AcDbEntity
  8
5 Hatches
 62
     0
370
     9
100
AcDbLine
 10
71.05
 20
113.0
 30
0.0
 11
71.0
 21
113.0
 31
0.0
  0
LINE
  5
343
330
27D
100
AcDbEntity
  8
5 Hatches
 62
     0
370
     9
100
AcDbLine
 10
72.05
 20
113.0
 30
0.0
 11
72.0
 21
113.0
 31
0.0
  0
LINE
  5
344
330
27D
100
AcDbEntity
  8
5 Hatches
 62
     0
370
     9
100
AcDbLine
 10
73.05
 20
113.0
 30
0.0
 11
73.0
 21
113.0
 31
0.0
  0
LINE
  5
345
330
27D
100
AcDbEntity
  8
5 Hatches
 62
     0
370
     9
100
AcDbLine
 10
74.05
 20
113.0
 30
0.0
 11
74.0
 21
113.0
 31
0.0
  0
LINE
  5
346
330
27D
100
AcDbEntity
  8
5 Hatches
 62
     0
370
     9
100
AcDbLine
 10
75.05
 20
113.0
 30
0.0
 11
75.0
 21
113.0
 31
0.0
  0
LINE
  5
347
330
27D
100
AcDbEntity
  8
5 Hatches
 62
     0
370
     9
100
AcDbLine
 10
76.05
 20
113.0
 30
0.0
 11
76.0
 21
113.0
 31
0.0
  0
LINE
  5
348
330
27D
100
AcDbEntity
  8
5 Hatches
 62
     0
370
     9
100
AcDbLine
 10
77.05
 20
113.0
 30
0.0
 11
77.0
 21
113.0
 31
0.0
  0
LINE
  5
349
330
27D
100
AcDbEntity
  8
5 Hatches
 62
     0
370
     9
100
AcDbLine
 10
78.05
 20
113.0
 30
0.0
 11
78.0
 21
113.0
 31
0.0
  0
LINE
  5
34A
330
27D
100
AcDbEntity
  8
5 Hatches
 62
     0
370
     9
100
AcDbLine
 10
79.05
 20
113.0
 30
0.0
 11
79.0
 21
113.0
 31
0.0
  0
LINE
  5
34B
330
27D
100
AcDbEntity
  8
5 Hatches
 62
     0
370
     9
100
AcDbLine
 10
80.05
 20
113.0
 30
0.0
 11
80.0
 21
113.0
 31
0.0
  0
LINE
  5
34C
330
27D
100
AcDbEntity
  8
5 Hatches
 62
     0
370
     9
100
AcDbLine
 10
81.05
 20
113.0
 30
0.0
 11
81.0
 21
113.0
 31
0.0
  0
LINE
  5
34D
330
27D
100
AcDbEntity
  8
5 Hatches
 62
     0
370
     9
100
AcDbLine
 10
82.05
 20
113.0
 30
0.0
 11
82.0
 21
113.0
 31
0.0
  0
LINE
  5
34E
330
27D
100
AcDbEntity
  8
5 Hatches
 62
     0
370
     9
100
AcDbLine
 10
83.05
 20
113.0
 30
0.0
 11
83.0
 21
113.0
 31
0.0
  0
LINE
  5
34F
330
27D
100
AcDbEntity
  8
5 Hatches
 62
     0
370
     9
100
AcDbLine
 10
84.05
 20
113.0
 30
0.0
 11
84.0
 21
113.0
 31
0.0
  0
LINE
  5
350
330
27D
100
AcDbEntity
  8
5 Hatches
 62
     0
370
     9
100
AcDbLine
 10
85.05
 20
113.0
 30
0.0
 11
85.0
 21
113.0
 31
0.0
  0
LINE
  5
351
330
27D
100
AcDbEntity
  8
5 Hatches
 62
     0
370
     9
100
AcDbLine
 10
89.05
 20
113.0
 30
0.0
 11
89.0
 21
113.0
 31
0.0
  0
LINE
  5
352
330
27D
100
AcDbEntity
  8
5 Hatches
 62
     0
370
     9
100
AcDbLine
 10
90.05
 20
113.0
 30
0.0
 11
90.0
 21
113.0
 31
0.0
  0
LINE
  5
353
330
27D
100
AcDbEntity
  8
5 Hatches
 62
     0
370
     9
100
AcDbLine
 10
91.05
 20
113.0
 30
0.0
 11
91.0
 21
113.0
 31
0.0
  0
LINE
  5
354
330
27D
100
AcDbEntity
  8
5 Hatches
 62
     0
370
     9
100
AcDbLine
 10
92.05
 20
113.0
 30
0.0
 11
92.0
 21
113.0
 31
0.0
  0
LINE
  5
355
330
27D
100
AcDbEntity
  8
5 Hatches
 62
     0
370
     9
100
AcDbLine
 10
93.05
 20
113.0
 30
0.0
 11
93.0
 21
113.0
 31
0.0
  0
LINE
  5
356
330
27D
100
AcDbEntity
  8
5 Hatches
 62
     0
370
     9
100
AcDbLine
 10
94.05
 20
113.0
 30
0.0
 11
94.0
 21
113.0
 31
0.0
  0
LINE
  5
357
330
27D
100
AcDbEntity
  8
5 Hatches
 62
     0
370
     9
100
AcDbLine
 10
95.05
 20
113.0
 30
0.0
 11
95.0
 21
113.0
 31
0.0
  0
LINE
  5
358
330
27D
100
AcDbEntity
  8
5 Hatches
 62
     0
370
     9
100
AcDbLine
 10
96.05
 20
113.0
 30
0.0
 11
96.0
 21
113.0
 31
0.0
  0
LINE
  5
359
330
27D
100
AcDbEntity
  8
5 Hatches
 62
     0
370
     9
100
AcDbLine
 10
97.05
 20
113.0
 30
0.0
 11
97.0
 21
113.0
 31
0.0
  0
LINE
  5
35A
330
27D
100
AcDbEntity
  8
5 Hatches
 62
     0
370
     9
100
AcDbLine
 10
98.05
 20
113.0
 30
0.0
 11
98.0
 21
113.0
 31
0.0
  0
LINE
  5
35B
330
27D
100
AcDbEntity
  8
5 Hatches
 62
     0
370
     9
100
AcDbLine
 10
99.05
 20
113.0
 30
0.0
 11
99.0
 21
113.0
 31
0.0
  0
LINE
  5
35C
330
27D
100
AcDbEntity
  8
5 Hatches
 62
     0
370
     9
100
AcDbLine
 10
100.05
 20
113.0
 30
0.0
 11
100.0
 21
113.0
 31
0.0
  0
LINE
  5
35D
330
27D
100
AcDbEntity
  8
5 Hatches
 62
     0
370
     9
100
AcDbLine
 10
101.05
 20
113.0
 30
0.0
 11
101.0
 21
113.0
 31
0.0
  0
LINE
  5
35E
330
27D
100
AcDbEntity
  8
5 Hatches
 62
     0
370
     9
100
AcDbLine
 10
102.05
 20
113.0
 30
0.0
 11
102.0
 21
113.0
 31
0.0
  0
LINE
  5
35F
330
27D
100
AcDbEntity
  8
5 Hatches
 62
     0
370
     9
100
AcDbLine
 10
103.05
 20
113.0
 30
0.0
 11
103.0
 21
113.0
 31
0.0
  0
LINE
  5
360
330
27D
100
AcDbEntity
  8
5 Hatches
 62
     0
370
     9
100
AcDbLine
 10
104.05
 20
113.0
 30
0.0
 11
104.0
 21
113.0
 31
0.0
  0
LINE
  5
361
330
27D
100
AcDbEntity
  8
5 Hatches
 62
     0
370
     9
100
AcDbLine
 10
105.05
 20
113.0
 30
0.0
 11
105.0
 21
113.0
 31
0.0
  0
LINE
  5
362
330
27D
100
AcDbEntity
  8
5 Hatches
 62
     0
370
     9
100
AcDbLine
 10
106.05
 20
113.0
 30
0.0
 11
106.0
 21
113.0
 31
0.0
  0
LINE
  5
363
330
27D
100
AcDbEntity
  8
5 Hatches
 62
     0
370
     9
100
AcDbLine
 10
107.05
 20
113.0
 30
0.0
 11
107.0
 21
113.0
 31
0.0
  0
LINE
  5
364
330
27D
100
AcDbEntity
  8
5 Hatches
 62
     0
370
     9
100
AcDbLine
 10
108.05
 20
113.0
 30
0.0
 11
108.0
 21
113.0
 31
0.0
  0
LINE
  5
365
330
27D
100
AcDbEntity
  8
5 Hatches
 62
     0
370
     9
100
AcDbLine
 10
109.05
 20
113.0
 30
0.0
 11
109.0
 21
113.0
 31
0.0
  0
LINE
  5
366
330
27D
100
AcDbEntity
  8
5 Hatches
 62
     0
370
     9
100
AcDbLine
 10
110.05
 20
113.0
 30
0.0
 11
110.0
 21
113.0
 31
0.0
  0
LINE
  5
367
330
27D
100
AcDbEntity
  8
5 Hatches
 62
     0
370
     9
100
AcDbLine
 10
111.05
 20
113.0
 30
0.0
 11
111.0
 21
113.0
 31
0.0
  0
LINE
  5
368
330
27D
100
AcDbEntity
  8
5 Hatches
 62
     0
370
     9
100
AcDbLine
 10
112.05
 20
113.0
 30
0.0
 11
112.0
 21
113.0
 31
0.0
  0
LINE
  5
369
330
27D
100
AcDbEntity
  8
5 Hatches
 62
     0
370
     9
100
AcDbLine
 10
113.05
 20
113.0
 30
0.0
 11
113.0
 21
113.0
 31
0.0
  0
LINE
  5
36A
330
27D
100
AcDbEntity
  8
5 Hatches
 62
     0
370
     9
100
AcDbLine
 10
114.05
 20
113.0
 30
0.0
 11
114.0
 21
113.0
 31
0.0
  0
LINE
  5
36B
330
27D
100
AcDbEntity
  8
5 Hatches
 62
     0
370
     9
100
AcDbLine
 10
115.05
 20
113.0
 30
0.0
 11
115.0
 21
113.0
 31
0.0
  0
LINE
  5
36C
330
27D
100
AcDbEntity
  8
5 Hatches
 62
     0
370
     9
100
AcDbLine
 10
116.05
 20
113.0
 30
0.0
 11
116.0
 21
113.0
 31
0.0
  0
LINE
  5
36D
330
27D
100
AcDbEntity
  8
5 Hatches
 62
     0
370
     9
100
AcDbLine
 10
117.05
 20
113.0
 30
0.0
 11
117.0
 21
113.0
 31
0.0
  0
LINE
  5
36E
330
27D
100
AcDbEntity
  8
5 Hatches
 62
     0
370
     9
100
AcDbLine
 10
118.05
 20
113.0
 30
0.0
 11
118.0
 21
113.0
 31
0.0
  0
LINE
  5
36F
330
27D
100
AcDbEntity
  8
5 Hatches
 62
     0
370
     9
100
AcDbLine
 10
119.05
 20
113.0
 30
0.0
 11
119.0
 21
113.0
 31
0.0
  0
LINE
  5
370
330
27D
100
AcDbEntity
  8
5 Hatches
 62
     0
370
     9
100
AcDbLine
 10
120.05
 20
113.0
 30
0.0
 11
120.0
 21
113.0
 31
0.0
  0
LINE
  5
371
330
27D
100
AcDbEntity
  8
5 Hatches
 62
     0
370
     9
100
AcDbLine
 10
64.05
 20
114.0
 30
0.0
 11
64.0
 21
114.0
 31
0.0
  0
LINE
  5
372
330
27D
100
AcDbEntity
  8
5 Hatches
 62
     0
370
     9
100
AcDbLine
 10
65.05
 20
114.0
 30
0.0
 11
65.0
 21
114.0
 31
0.0
  0
LINE
  5
373
330
27D
100
AcDbEntity
  8
5 Hatches
 62
     0
370
     9
100
AcDbLine
 10
66.05
 20
114.0
 30
0.0
 11
66.0
 21
114.0
 31
0.0
  0
LINE
  5
374
330
27D
100
AcDbEntity
  8
5 Hatches
 62
     0
370
     9
100
AcDbLine
 10
67.05
 20
114.0
 30
0.0
 11
67.0
 21
114.0
 31
0.0
  0
LINE
  5
375
330
27D
100
AcDbEntity
  8
5 Hatches
 62
     0
370
     9
100
AcDbLine
 10
68.05
 20
114.0
 30
0.0
 11
68.0
 21
114.0
 31
0.0
  0
LINE
  5
376
330
27D
100
AcDbEntity
  8
5 Hatches
 62
     0
370
     9
100
AcDbLine
 10
69.05
 20
114.0
 30
0.0
 11
69.0
 21
114.0
 31
0.0
  0
LINE
  5
377
330
27D
100
AcDbEntity
  8
5 Hatches
 62
     0
370
     9
100
AcDbLine
 10
70.05
 20
114.0
 30
0.0
 11
70.0
 21
114.0
 31
0.0
  0
LINE
  5
378
330
27D
100
AcDbEntity
  8
5 Hatches
 62
     0
370
     9
100
AcDbLine
 10
71.05
 20
114.0
 30
0.0
 11
71.0
 21
114.0
 31
0.0
  0
LINE
  5
379
330
27D
100
AcDbEntity
  8
5 Hatches
 62
     0
370
     9
100
AcDbLine
 10
72.05
 20
114.0
 30
0.0
 11
72.0
 21
114.0
 31
0.0
  0
LINE
  5
37A
330
27D
100
AcDbEntity
  8
5 Hatches
 62
     0
370
     9
100
AcDbLine
 10
73.05
 20
114.0
 30
0.0
 11
73.0
 21
114.0
 31
0.0
  0
LINE
  5
37B
330
27D
100
AcDbEntity
  8
5 Hatches
 62
     0
370
     9
100
AcDbLine
 10
74.05
 20
114.0
 30
0.0
 11
74.0
 21
114.0
 31
0.0
  0
LINE
  5
37C
330
27D
100
AcDbEntity
  8
5 Hatches
 62
     0
370
     9
100
AcDbLine
 10
75.05
 20
114.0
 30
0.0
 11
75.0
 21
114.0
 31
0.0
  0
LINE
  5
37D
330
27D
100
AcDbEntity
  8
5 Hatches
 62
     0
370
     9
100
AcDbLine
 10
76.05
 20
114.0
 30
0.0
 11
76.0
 21
114.0
 31
0.0
  0
LINE
  5
37E
330
27D
100
AcDbEntity
  8
5 Hatches
 62
     0
370
     9
100
AcDbLine
 10
77.05
 20
114.0
 30
0.0
 11
77.0
 21
114.0
 31
0.0
  0
LINE
  5
37F
330
27D
100
AcDbEntity
  8
5 Hatches
 62
     0
370
     9
100
AcDbLine
 10
78.05
 20
114.0
 30
0.0
 11
78.0
 21
114.0
 31
0.0
  0
LINE
  5
380
330
27D
100
AcDbEntity
  8
5 Hatches
 62
     0
370
     9
100
AcDbLine
 10
79.05
 20
114.0
 30
0.0
 11
79.0
 21
114.0
 31
0.0
  0
LINE
  5
381
330
27D
100
AcDbEntity
  8
5 Hatches
 62
     0
370
     9
100
AcDbLine
 10
80.05
 20
114.0
 30
0.0
 11
80.0
 21
114.0
 31
0.0
  0
LINE
  5
382
330
27D
100
AcDbEntity
  8
5 Hatches
 62
     0
370
     9
100
AcDbLine
 10
81.05
 20
114.0
 30
0.0
 11
81.0
 21
114.0
 31
0.0
  0
LINE
  5
383
330
27D
100
AcDbEntity
  8
5 Hatches
 62
     0
370
     9
100
AcDbLine
 10
82.05
 20
114.0
 30
0.0
 11
82.0
 21
114.0
 31
0.0
  0
LINE
  5
384
330
27D
100
AcDbEntity
  8
5 Hatches
 62
     0
370
     9
100
AcDbLine
 10
83.05
 20
114.0
 30
0.0
 11
83.0
 21
114.0
 31
0.0
  0
LINE
  5
385
330
27D
100
AcDbEntity
  8
5 Hatches
 62
     0
370
     9
100
AcDbLine
 10
84.05
 20
114.0
 30
0.0
 11
84.0
 21
114.0
 31
0.0
  0
LINE
  5
386
330
27D
100
AcDbEntity
  8
5 Hatches
 62
     0
370
     9
100
AcDbLine
 10
85.05
 20
114.0
 30
0.0
 11
85.0
 21
114.0
 31
0.0
  0
LINE
  5
387
330
27D
100
AcDbEntity
  8
5 Hatches
 62
     0
370
     9
100
AcDbLine
 10
89.05
 20
114.0
 30
0.0
 11
89.0
 21
114.0
 31
0.0
  0
LINE
  5
388
330
27D
100
AcDbEntity
  8
5 Hatches
 62
     0
370
     9
100
AcDbLine
 10
90.05
 20
114.0
 30
0.0
 11
90.0
 21
114.0
 31
0.0
  0
LINE
  5
389
330
27D
100
AcDbEntity
  8
5 Hatches
 62
     0
370
     9
100
AcDbLine
 10
91.05
 20
114.0
 30
0.0
 11
91.0
 21
114.0
 31
0.0
  0
LINE
  5
38A
330
27D
100
AcDbEntity
  8
5 Hatches
 62
     0
370
     9
100
AcDbLine
 10
92.05
 20
114.0
 30
0.0
 11
92.0
 21
114.0
 31
0.0
  0
LINE
  5
38B
330
27D
100
AcDbEntity
  8
5 Hatches
 62
     0
370
     9
100
AcDbLine
 10
93.05
 20
114.0
 30
0.0
 11
93.0
 21
114.0
 31
0.0
  0
LINE
  5
38C
330
27D
100
AcDbEntity
  8
5 Hatches
 62
     0
370
     9
100
AcDbLine
 10
94.05
 20
114.0
 30
0.0
 11
94.0
 21
114.0
 31
0.0
  0
LINE
  5
38D
330
27D
100
AcDbEntity
  8
5 Hatches
 62
     0
370
     9
100
AcDbLine
 10
95.05
 20
114.0
 30
0.0
 11
95.0
 21
114.0
 31
0.0
  0
LINE
  5
38E
330
27D
100
AcDbEntity
  8
5 Hatches
 62
     0
370
     9
100
AcDbLine
 10
96.05
 20
114.0
 30
0.0
 11
96.0
 21
114.0
 31
0.0
  0
LINE
  5
38F
330
27D
100
AcDbEntity
  8
5 Hatches
 62
     0
370
     9
100
AcDbLine
 10
97.05
 20
114.0
 30
0.0
 11
97.0
 21
114.0
 31
0.0
  0
LINE
  5
390
330
27D
100
AcDbEntity
  8
5 Hatches
 62
     0
370
     9
100
AcDbLine
 10
98.05
 20
114.0
 30
0.0
 11
98.0
 21
114.0
 31
0.0
  0
LINE
  5
391
330
27D
100
AcDbEntity
  8
5 Hatches
 62
     0
370
     9
100
AcDbLine
 10
99.05
 20
114.0
 30
0.0
 11
99.0
 21
114.0
 31
0.0
  0
LINE
  5
392
330
27D
100
AcDbEntity
  8
5 Hatches
 62
     0
370
     9
100
AcDbLine
 10
100.05
 20
114.0
 30
0.0
 11
100.0
 21
114.0
 31
0.0
  0
LINE
  5
393
330
27D
100
AcDbEntity
  8
5 Hatches
 62
     0
370
     9
100
AcDbLine
 10
101.05
 20
114.0
 30
0.0
 11
101.0
 21
114.0
 31
0.0
  0
LINE
  5
394
330
27D
100
AcDbEntity
  8
5 Hatches
 62
     0
370
     9
100
AcDbLine
 10
102.05
 20
114.0
 30
0.0
 11
102.0
 21
114.0
 31
0.0
  0
LINE
  5
395
330
27D
100
AcDbEntity
  8
5 Hatches
 62
     0
370
     9
100
AcDbLine
 10
103.05
 20
114.0
 30
0.0
 11
103.0
 21
114.0
 31
0.0
  0
LINE
  5
396
330
27D
100
AcDbEntity
  8
5 Hatches
 62
     0
370
     9
100
AcDbLine
 10
104.05
 20
114.0
 30
0.0
 11
104.0
 21
114.0
 31
0.0
  0
LINE
  5
397
330
27D
100
AcDbEntity
  8
5 Hatches
 62
     0
370
     9
100
AcDbLine
 10
105.05
 20
114.0
 30
0.0
 11
105.0
 21
114.0
 31
0.0
  0
LINE
  5
398
330
27D
100
AcDbEntity
  8
5 Hatches
 62
     0
370
     9
100
AcDbLine
 10
106.05
 20
114.0
 30
0.0
 11
106.0
 21
114.0
 31
0.0
  0
LINE
  5
399
330
27D
100
AcDbEntity
  8
5 Hatches
 62
     0
370
     9
100
AcDbLine
 10
107.05
 20
114.0
 30
0.0
 11
107.0
 21
114.0
 31
0.0
  0
LINE
  5
39A
330
27D
100
AcDbEntity
  8
5 Hatches
 62
     0
370
     9
100
AcDbLine
 10
108.05
 20
114.0
 30
0.0
 11
108.0
 21
114.0
 31
0.0
  0
LINE
  5
39B
330
27D
100
AcDbEntity
  8
5 Hatches
 62
     0
370
     9
100
AcDbLine
 10
109.05
 20
114.0
 30
0.0
 11
109.0
 21
114.0
 31
0.0
  0
LINE
  5
39C
330
27D
100
AcDbEntity
  8
5 Hatches
 62
     0
370
     9
100
AcDbLine
 10
110.05
 20
114.0
 30
0.0
 11
110.0
 21
114.0
 31
0.0
  0
LINE
  5
39D
330
27D
100
AcDbEntity
  8
5 Hatches
 62
     0
370
     9
100
AcDbLine
 10
111.05
 20
114.0
 30
0.0
 11
111.0
 21
114.0
 31
0.0
  0
LINE
  5
39E
330
27D
100
AcDbEntity
  8
5 Hatches
 62
     0
370
     9
100
AcDbLine
 10
112.05
 20
114.0
 30
0.0
 11
112.0
 21
114.0
 31
0.0
  0
LINE
  5
39F
330
27D
100
AcDbEntity
  8
5 Hatches
 62
     0
370
     9
100
AcDbLine
 10
113.05
 20
114.0
 30
0.0
 11
113.0
 21
114.0
 31
0.0
  0
LINE
  5
3A0
330
27D
100
AcDbEntity
  8
5 Hatches
 62
     0
370
     9
100
AcDbLine
 10
114.05
 20
114.0
 30
0.0
 11
114.0
 21
114.0
 31
0.0
  0
LINE
  5
3A1
330
27D
100
AcDbEntity
  8
5 Hatches
 62
     0
370
     9
100
AcDbLine
 10
115.05
 20
114.0
 30
0.0
 11
115.0
 21
114.0
 31
0.0
  0
LINE
  5
3A2
330
27D
100
AcDbEntity
  8
5 Hatches
 62
     0
370
     9
100
AcDbLine
 10
116.05
 20
114.0
 30
0.0
 11
116.0
 21
114.0
 31
0.0
  0
LINE
  5
3A3
330
27D
100
AcDbEntity
  8
5 Hatches
 62
     0
370
     9
100
AcDbLine
 10
117.05
 20
114.0
 30
0.0
 11
117.0
 21
114.0
 31
0.0
  0
LINE
  5
3A4
330
27D
100
AcDbEntity
  8
5 Hatches
 62
     0
370
     9
100
AcDbLine
 10
118.05
 20
114.0
 30
0.0
 11
118.0
 21
114.0
 31
0.0
  0
LINE
  5
3A5
330
27D
100
AcDbEntity
  8
5 Hatches
 62
     0
370
     9
100
AcDbLine
 10
119.05
 20
114.0
 30
0.0
 11
119.0
 21
114.0
 31
0.0
  0
LINE
  5
3A6
330
27D
100
AcDbEntity
  8
5 Hatches
 62
     0
370
     9
100
AcDbLine
 10
120.05
 20
114.0
 30
0.0
 11
120.0
 21
114.0
 31
0.0
  0
LINE
  5
3A7
330
27D
100
AcDbEntity
  8
5 Hatches
 62
     0
370
     9
100
AcDbLine
 10
63.05
 20
115.0
 30
0.0
 11
63.0
 21
115.0
 31
0.0
  0
LINE
  5
3A8
330
27D
100
AcDbEntity
  8
5 Hatches
 62
     0
370
     9
100
AcDbLine
 10
64.05
 20
115.0
 30
0.0
 11
64.0
 21
115.0
 31
0.0
  0
LINE
  5
3A9
330
27D
100
AcDbEntity
  8
5 Hatches
 62
     0
370
     9
100
AcDbLine
 10
65.05
 20
115.0
 30
0.0
 11
65.0
 21
115.0
 31
0.0
  0
LINE
  5
3AA
330
27D
100
AcDbEntity
  8
5 Hatches
 62
     0
370
     9
100
AcDbLine
 10
66.05
 20
115.0
 30
0.0
 11
66.0
 21
115.0
 31
0.0
  0
LINE
  5
3AB
330
27D
100
AcDbEntity
  8
5 Hatches
 62
     0
370
     9
100
AcDbLine
 10
67.05
 20
115.0
 30
0.0
 11
67.0
 21
115.0
 31
0.0
  0
LINE
  5
3AC
330
27D
100
AcDbEntity
  8
5 Hatches
 62
     0
370
     9
100
AcDbLine
 10
68.05
 20
115.0
 30
0.0
 11
68.0
 21
115.0
 31
0.0
  0
LINE
  5
3AD
330
27D
100
AcDbEntity
  8
5 Hatches
 62
     0
370
     9
100
AcDbLine
 10
69.05
 20
115.0
 30
0.0
 11
69.0
 21
115.0
 31
0.0
  0
LINE
  5
3AE
330
27D
100
AcDbEntity
  8
5 Hatches
 62
     0
370
     9
100
AcDbLine
 10
70.05
 20
115.0
 30
0.0
 11
70.0
 21
115.0
 31
0.0
  0
LINE
  5
3AF
330
27D
100
AcDbEntity
  8
5 Hatches
 62
     0
370
     9
100
AcDbLine
 10
71.05
 20
115.0
 30
0.0
 11
71.0
 21
115.0
 31
0.0
  0
LINE
  5
3B0
330
27D
100
AcDbEntity
  8
5 Hatches
 62
     0
370
     9
100
AcDbLine
 10
72.05
 20
115.0
 30
0.0
 11
72.0
 21
115.0
 31
0.0
  0
LINE
  5
3B1
330
27D
100
AcDbEntity
  8
5 Hatches
 62
     0
370
     9
100
AcDbLine
 10
73.05
 20
115.0
 30
0.0
 11
73.0
 21
115.0
 31
0.0
  0
LINE
  5
3B2
330
27D
100
AcDbEntity
  8
5 Hatches
 62
     0
370
     9
100
AcDbLine
 10
74.05
 20
115.0
 30
0.0
 11
74.0
 21
115.0
 31
0.0
  0
LINE
  5
3B3
330
27D
100
AcDbEntity
  8
5 Hatches
 62
     0
370
     9
100
AcDbLine
 10
75.05
 20
115.0
 30
0.0
 11
75.0
 21
115.0
 31
0.0
  0
LINE
  5
3B4
330
27D
100
AcDbEntity
  8
5 Hatches
 62
     0
370
     9
100
AcDbLine
 10
76.05
 20
115.0
 30
0.0
 11
76.0
 21
115.0
 31
0.0
  0
LINE
  5
3B5
330
27D
100
AcDbEntity
  8
5 Hatches
 62
     0
370
     9
100
AcDbLine
 10
77.05
 20
115.0
 30
0.0
 11
77.0
 21
115.0
 31
0.0
  0
LINE
  5
3B6
330
27D
100
AcDbEntity
  8
5 Hatches
 62
     0
370
     9
100
AcDbLine
 10
78.05
 20
115.0
 30
0.0
 11
78.0
 21
115.0
 31
0.0
  0
LINE
  5
3B7
330
27D
100
AcDbEntity
  8
5 Hatches
 62
     0
370
     9
100
AcDbLine
 10
79.05
 20
115.0
 30
0.0
 11
79.0
 21
115.0
 31
0.0
  0
LINE
  5
3B8
330
27D
100
AcDbEntity
  8
5 Hatches
 62
     0
370
     9
100
AcDbLine
 10
80.05
 20
115.0
 30
0.0
 11
80.0
 21
115.0
 31
0.0
  0
LINE
  5
3B9
330
27D
100
AcDbEntity
  8
5 Hatches
 62
     0
370
     9
100
AcDbLine
 10
81.05
 20
115.0
 30
0.0
 11
81.0
 21
115.0
 31
0.0
  0
LINE
  5
3BA
330
27D
100
AcDbEntity
  8
5 Hatches
 62
     0
370
     9
100
AcDbLine
 10
82.05
 20
115.0
 30
0.0
 11
82.0
 21
115.0
 31
0.0
  0
LINE
  5
3BB
330
27D
100
AcDbEntity
  8
5 Hatches
 62
     0
370
     9
100
AcDbLine
 10
83.05
 20
115.0
 30
0.0
 11
83.0
 21
115.0
 31
0.0
  0
LINE
  5
3BC
330
27D
100
AcDbEntity
  8
5 Hatches
 62
     0
370
     9
100
AcDbLine
 10
84.05
 20
115.0
 30
0.0
 11
84.0
 21
115.0
 31
0.0
  0
LINE
  5
3BD
330
27D
100
AcDbEntity
  8
5 Hatches
 62
     0
370
     9
100
AcDbLine
 10
85.05
 20
115.0
 30
0.0
 11
85.0
 21
115.0
 31
0.0
  0
LINE
  5
3BE
330
27D
100
AcDbEntity
  8
5 Hatches
 62
     0
370
     9
100
AcDbLine
 10
86.05
 20
115.0
 30
0.0
 11
86.0
 21
115.0
 31
0.0
  0
LINE
  5
3BF
330
27D
100
AcDbEntity
  8
5 Hatches
 62
     0
370
     9
100
AcDbLine
 10
87.05
 20
115.0
 30
0.0
 11
87.0
 21
115.0
 31
0.0
  0
LINE
  5
3C0
330
27D
100
AcDbEntity
  8
5 Hatches
 62
     0
370
     9
100
AcDbLine
 10
88.05
 20
115.0
 30
0.0
 11
88.0
 21
115.0
 31
0.0
  0
LINE
  5
3C1
330
27D
100
AcDbEntity
  8
5 Hatches
 62
     0
370
     9
100
AcDbLine
 10
89.05
 20
115.0
 30
0.0
 11
89.0
 21
115.0
 31
0.0
  0
LINE
  5
3C2
330
27D
100
AcDbEntity
  8
5 Hatches
 62
     0
370
     9
100
AcDbLine
 10
90.05
 20
115.0
 30
0.0
 11
90.0
 21
115.0
 31
0.0
  0
LINE
  5
3C3
330
27D
100
AcDbEntity
  8
5 Hatches
 62
     0
370
     9
100
AcDbLine
 10
91.05
 20
115.0
 30
0.0
 11
91.0
 21
115.0
 31
0.0
  0
LINE
  5
3C4
330
27D
100
AcDbEntity
  8
5 Hatches
 62
     0
370
     9
100
AcDbLine
 10
92.05
 20
115.0
 30
0.0
 11
92.0
 21
115.0
 31
0.0
  0
LINE
  5
3C5
330
27D
100
AcDbEntity
  8
5 Hatches
 62
     0
370
     9
100
AcDbLine
 10
93.05
 20
115.0
 30
0.0
 11
93.0
 21
115.0
 31
0.0
  0
LINE
  5
3C6
330
27D
100
AcDbEntity
  8
5 Hatches
 62
     0
370
     9
100
AcDbLine
 10
94.05
 20
115.0
 30
0.0
 11
94.0
 21
115.0
 31
0.0
  0
LINE
  5
3C7
330
27D
100
AcDbEntity
  8
5 Hatches
 62
     0
370
     9
100
AcDbLine
 10
95.05
 20
115.0
 30
0.0
 11
95.0
 21
115.0
 31
0.0
  0
LINE
  5
3C8
330
27D
100
AcDbEntity
  8
5 Hatches
 62
     0
370
     9
100
AcDbLine
 10
96.05
 20
115.0
 30
0.0
 11
96.0
 21
115.0
 31
0.0
  0
LINE
  5
3C9
330
27D
100
AcDbEntity
  8
5 Hatches
 62
     0
370
     9
100
AcDbLine
 10
97.05
 20
115.0
 30
0.0
 11
97.0
 21
115.0
 31
0.0
  0
LINE
  5
3CA
330
27D
100
AcDbEntity
  8
5 Hatches
 62
     0
370
     9
100
AcDbLine
 10
98.05
 20
115.0
 30
0.0
 11
98.0
 21
115.0
 31
0.0
  0
LINE
  5
3CB
330
27D
100
AcDbEntity
  8
5 Hatches
 62
     0
370
     9
100
AcDbLine
 10
99.05
 20
115.0
 30
0.0
 11
99.0
 21
115.0
 31
0.0
  0
LINE
  5
3CC
330
27D
100
AcDbEntity
  8
5 Hatches
 62
     0
370
     9
100
AcDbLine
 10
100.05
 20
115.0
 30
0.0
 11
100.0
 21
115.0
 31
0.0
  0
LINE
  5
3CD
330
27D
100
AcDbEntity
  8
5 Hatches
 62
     0
370
     9
100
AcDbLine
 10
101.05
 20
115.0
 30
0.0
 11
101.0
 21
115.0
 31
0.0
  0
LINE
  5
3CE
330
27D
100
AcDbEntity
  8
5 Hatches
 62
     0
370
     9
100
AcDbLine
 10
102.05
 20
115.0
 30
0.0
 11
102.0
 21
115.0
 31
0.0
  0
LINE
  5
3CF
330
27D
100
AcDbEntity
  8
5 Hatches
 62
     0
370
     9
100
AcDbLine
 10
103.05
 20
115.0
 30
0.0
 11
103.0
 21
115.0
 31
0.0
  0
LINE
  5
3D0
330
27D
100
AcDbEntity
  8
5 Hatches
 62
     0
370
     9
100
AcDbLine
 10
104.05
 20
115.0
 30
0.0
 11
104.0
 21
115.0
 31
0.0
  0
LINE
  5
3D1
330
27D
100
AcDbEntity
  8
5 Hatches
 62
     0
370
     9
100
AcDbLine
 10
105.05
 20
115.0
 30
0.0
 11
105.0
 21
115.0
 31
0.0
  0
LINE
  5
3D2
330
27D
100
AcDbEntity
  8
5 Hatches
 62
     0
370
     9
100
AcDbLine
 10
106.05
 20
115.0
 30
0.0
 11
106.0
 21
115.0
 31
0.0
  0
LINE
  5
3D3
330
27D
100
AcDbEntity
  8
5 Hatches
 62
     0
370
     9
100
AcDbLine
 10
107.05
 20
115.0
 30
0.0
 11
107.0
 21
115.0
 31
0.0
  0
LINE
  5
3D4
330
27D
100
AcDbEntity
  8
5 Hatches
 62
     0
370
     9
100
AcDbLine
 10
108.05
 20
115.0
 30
0.0
 11
108.0
 21
115.0
 31
0.0
  0
LINE
  5
3D5
330
27D
100
AcDbEntity
  8
5 Hatches
 62
     0
370
     9
100
AcDbLine
 10
109.05
 20
115.0
 30
0.0
 11
109.0
 21
115.0
 31
0.0
  0
LINE
  5
3D6
330
27D
100
AcDbEntity
  8
5 Hatches
 62
     0
370
     9
100
AcDbLine
 10
110.05
 20
115.0
 30
0.0
 11
110.0
 21
115.0
 31
0.0
  0
LINE
  5
3D7
330
27D
100
AcDbEntity
  8
5 Hatches
 62
     0
370
     9
100
AcDbLine
 10
111.05
 20
115.0
 30
0.0
 11
111.0
 21
115.0
 31
0.0
  0
LINE
  5
3D8
330
27D
100
AcDbEntity
  8
5 Hatches
 62
     0
370
     9
100
AcDbLine
 10
112.05
 20
115.0
 30
0.0
 11
112.0
 21
115.0
 31
0.0
  0
LINE
  5
3D9
330
27D
100
AcDbEntity
  8
5 Hatches
 62
     0
370
     9
100
AcDbLine
 10
113.05
 20
115.0
 30
0.0
 11
113.0
 21
115.0
 31
0.0
  0
LINE
  5
3DA
330
27D
100
AcDbEntity
  8
5 Hatches
 62
     0
370
     9
100
AcDbLine
 10
114.05
 20
115.0
 30
0.0
 11
114.0
 21
115.0
 31
0.0
  0
LINE
  5
3DB
330
27D
100
AcDbEntity
  8
5 Hatches
 62
     0
370
     9
100
AcDbLine
 10
115.05
 20
115.0
 30
0.0
 11
115.0
 21
115.0
 31
0.0
  0
LINE
  5
3DC
330
27D
100
AcDbEntity
  8
5 Hatches
 62
     0
370
     9
100
AcDbLine
 10
116.05
 20
115.0
 30
0.0
 11
116.0
 21
115.0
 31
0.0
  0
LINE
  5
3DD
330
27D
100
AcDbEntity
  8
5 Hatches
 62
     0
370
     9
100
AcDbLine
 10
117.05
 20
115.0
 30
0.0
 11
117.0
 21
115.0
 31
0.0
  0
LINE
  5
3DE
330
27D
100
AcDbEntity
  8
5 Hatches
 62
     0
370
     9
100
AcDbLine
 10
118.05
 20
115.0
 30
0.0
 11
118.0
 21
115.0
 31
0.0
  0
LINE
  5
3DF
330
27D
100
AcDbEntity
  8
5 Hatches
 62
     0
370
     9
100
AcDbLine
 10
119.05
 20
115.0
 30
0.0
 11
119.0
 21
115.0
 31
0.0
  0
LINE
  5
3E0
330
27D
100
AcDbEntity
  8
5 Hatches
 62
     0
370
     9
100
AcDbLine
 10
120.05
 20
115.0
 30
0.0
 11
120.0
 21
115.0
 31
0.0
  0
ENDBLK
  5
27F
330
27D
100
AcDbEntity
  8
0
100
AcDbBlockEnd
  0
BLOCK
  5
3E2
330
3E1
100
AcDbEntity
  8
0
100
AcDbBlockBegin
  2
HATCH_4_50aed048-3173-437f-a9eb-0063e47d797e
 70
     0
 10
0.0
 20
0.0
 30
0.0
  3
HATCH_4_50aed048-3173-437f-a9eb-0063e47d797e
  1

  0
LINE
  5
3E4
330
3E1
100
AcDbEntity
  8
5 Hatches
 62
     0
370
     9
100
AcDbLine
 10
96.25321673808855
 20
113.0498632619113
 30
0.0
 11
94.24057999999985
 21
115.0625
 31
0.0
  0
LINE
  5
3E5
330
3E1
100
AcDbEntity
  8
5 Hatches
 62
     0
370
     9
100
AcDbLine
 10
96.25321673808854
 20
110.2214432619113
 30
0.0
 11
91.41215999999987
 21
115.0625
 31
0.0
  0
LINE
  5
3E6
330
3E1
100
AcDbEntity
  8
5 Hatches
 62
     0
370
     9
100
AcDbLine
 10
94.58373999999992
 20
109.0625
 30
0.0
 11
88.58373999999989
 21
115.0625
 31
0.0
  0
LINE
  5
3E7
330
3E1
100
AcDbEntity
  8
5 Hatches
 62
     0
370
     9
100
AcDbLine
 10
86.16674851004676
 20
114.6510714899532
 30
0.0
 11
85.75531999999991
 21
115.0625
 31
0.0
  0
LINE
  5
3E8
330
3E1
100
AcDbEntity
  8
5 Hatches
 62
     0
370
     9
100
AcDbLine
 10
88.92689999999993
 20
109.0625
 30
0.0
 11
82.92689999999992
 21
115.0625
 31
0.0
  0
LINE
  5
3E9
330
3E1
100
AcDbEntity
  8
5 Hatches
 62
     0
370
     9
100
AcDbLine
 10
86.09847999999997
 20
109.0625
 30
0.0
 11
80.09847999999994
 21
115.0625
 31
0.0
  0
LINE
  5
3EA
330
3E1
100
AcDbEntity
  8
5 Hatches
 62
     0
370
     9
100
AcDbLine
 10
83.27005999999997
 20
109.0625
 30
0.0
 11
77.27005999999994
 21
115.0625
 31
0.0
  0
LINE
  5
3EB
330
3E1
100
AcDbEntity
  8
5 Hatches
 62
     0
370
     9
100
AcDbLine
 10
80.44163999999998
 20
109.0625
 30
0.0
 11
74.44163999999996
 21
115.0625
 31
0.0
  0
LINE
  5
3EC
330
3E1
100
AcDbEntity
  8
5 Hatches
 62
     0
370
     9
100
AcDbLine
 10
77.61322
 20
109.0625
 30
0.0
 11
71.61321999999998
 21
115.0625
 31
0.0
  0
LINE
  5
3ED
330
3E1
100
AcDbEntity
  8
5 Hatches
 62
     0
370
     9
100
AcDbLine
 10
74.78480000000002
 20
109.0625
 30
0.0
 11
68.78479999999999
 21
115.0625
 31
0.0
  0
LINE
  5
3EE
330
3E1
100
AcDbEntity
  8
5 Hatches
 62
     0
370
     9
100
AcDbLine
 10
71.95638000000002
 20
109.0625
 30
0.0
 11
65.95638
 21
115.0625
 31
0.0
  0
LINE
  5
3EF
330
3E1
100
AcDbEntity
  8
5 Hatches
 62
     0
370
     9
100
AcDbLine
 10
67.31706327270629
 20
110.8733967272937
 30
0.0
 11
63.12796
 21
115.0625
 31
0.0
  0
LINE
  5
3F0
330
3E1
100
AcDbEntity
  8
5 Hatches
 62
     0
370
     9
100
AcDbLine
 10
66.29954000000001
 20
109.0625
 30
0.0
 11
60.29954000000001
 21
115.0625
 31
0.0
  0
LINE
  5
3F1
330
3E1
100
AcDbEntity
  8
5 Hatches
 62
     0
370
     9
100
AcDbLine
 10
63.47112
 20
109.0625
 30
0.0
 11
60.25321673808855
 21
112.2804032619114
 31
0.0
  0
LINE
  5
3F2
330
3E1
100
AcDbEntity
  8
5 Hatches
 62
     0
370
     9
100
AcDbLine
 10
60.6427
 20
109.0625
 30
0.0
 11
60.25321673808855
 21
109.4519832619114
 31
0.0
  0
LINE
  5
3F3
330
3E1
100
AcDbEntity
  8
5 Hatches
 62
     0
370
     9
100
AcDbLine
 10
69.12796000000002
 20
109.0625
 30
0.0
 11
67.5642118571021
 21
110.6262481428979
 31
0.0
  0
LINE
  5
3F4
330
3E1
100
AcDbEntity
  8
5 Hatches
 62
     0
370
     9
100
AcDbLine
 10
91.75531999999993
 20
109.0625
 30
0.0
 11
88.02616521742344
 21
112.7916547825765
 31
0.0
  0
ENDBLK
  5
3E3
330
3E1
100
AcDbEntity
  8
0
100
AcDbBlockEnd
  0
ENDSEC
  0
SECTION
  2
ENTITIES
  0
LINE
  5
3F7
330
1F
100
AcDbEntity
  8
TEXT
  6
Continuous
 62
     7
 48
4.0
370
    25
100
AcDbLine
 10
24.25321673808855
 20
129.9375
 30
0.0
 11
24.25321673808855
 21
122.0625
 31
0.0
  0
CIRCLE
  5
3F8
330
1F
100
AcDbEntity
  8
TEXT
  6
Continuous
 62
     7
 48
4.0
370
    25
100
AcDbCircle
 10
66.9375
 20
110.25
 30
0.0
 40
0.7315437444199766
  0
LWPOLYLINE
  5
3F9
330
1F
100
AcDbEntity
  8
TEXT
  6
Continuous
 62
     7
 48
4.0
370
    25
100
AcDbPolyline
 90
        4
 70
     0
 43
0.0
 10
60.25321673808855
 20
115.0625
 10
66.9375
 20
115.0625
 10
86.8125
 20
115.0625
 10
96.25321673808855
 20
115.0625
  0
LINE
  5
3FA
330
1F
100
AcDbEntity
  8
TEXT
  6
Continuous
 62
     7
 48
4.0
370
    25
100
AcDbLine
 10
60.25321673808855
 20
115.0625
 30
0.0
 11
60.25321673808855
 21
109.0625
 31
0.0
  0
LWPOLYLINE
  5
3FB
330
1F
100
AcDbEntity
  8
TEXT
  6
Continuous
 62
     7
 48
4.0
370
    25
100
AcDbPolyline
 90
       14
 70
     1
 43
0.0
 10
18.06893347617712
 20
103.0625
 10
18.06893347617711
 20
121.0625
 10
36.25321673808855
 20
121.0625
 10
60.25321673808855
 20
121.0625
 10
66.9375
 20
121.0625
 10
86.8125
 20
121.0625
 10
96.25321673808855
 20
121.0625
 10
120.2532167380886
 20
121.0625
 10
138.4375
 20
121.0625
 10
138.4375
 20
103.0625
 10
120.2532167380886
 20
103.0625
 10
96.25321673808855
 20
103.0625
 10
60.25321673808855
 20
103.0625
 10
36.25321673808855
 20
103.0625
  0
LINE
  5
3FC
330
1F
100
AcDbEntity
  8
TEXT
  6
Continuous
 62
     7
 48
4.0
370
    25
100
AcDbLine
 10
132.2532167380886
 20
129.9375
 30
0.0
 11
132.2532167380886
 21
122.0625
 31
0.0
  0
LINE
  5
3FD
330
1F
100
AcDbEntity
  8
TEXT
  6
Continuous
 62
     7
 48
4.0
370
    25
100
AcDbLine
 10
26.25321673808855
 20
129.9375
 30
0.0
 11
22.25321673808855
 21
125.9375
 31
0.0
  0
LINE
  5
3FE
330
1F
100
AcDbEntity
  8
TEXT
  6
Continuous
 62
     7
 48
4.0
370
    25
100
AcDbLine
 10
18.06893347617711
 20
100.6484456888624
 30
0.0
 11
24.25321673808855
 21
100.6484456888624
 31
0.0
  0
LINE
  5
3FF
330
1F
100
AcDbEntity
  8
TEXT
  6
Continuous
 62
     7
 48
4.0
370
    25
100
AcDbLine
 10
60.25321673808855
 20
115.0625
 30
0.0
 11
60.25321673808855
 21
109.65625
 31
0.0
  0
LINE
  5
400
330
1F
100
AcDbEntity
  8
TEXT
  6
Continuous
 62
     7
 48
4.0
370
    25
100
AcDbLine
 10
60.25321673808855
 20
109.0625
 30
0.0
 11
96.25321673808855
 21
109.0625
 31
0.0
  0
LWPOLYLINE
  5
401
330
1F
100
AcDbEntity
  8
TEXT
  6
Continuous
 62
     7
 48
4.0
370
    25
100
AcDbPolyline
 90
        4
 70
     1
 43
0.0
 10
36.25321673808857
 20
109.0625
 10
36.25321673808855
 20
115.0625
 10
60.25321673808855
 20
115.0625
 10
60.25321673808855
 20
109.0625
  0
LINE
  5
402
330
1F
100
AcDbEntity
  8
TEXT
  6
Continuous
 62
     7
 48
4.0
370
    25
100
AcDbLine
 10
18.06893347617711
 20
103.0625
 30
0.0
 11
24.25321673808855
 21
100.6484456888624
 31
0.0
  0
LINE
  5
403
330
1F
100
AcDbEntity
  8
TEXT
  6
Continuous
 62
     7
 48
4.0
370
    25
100
AcDbLine
 10
18.06893347617711
 20
98.2343913777247
 30
0.0
 11
24.25321673808855
 21
98.2343913777247
 31
0.0
  0
LINE
  5
404
330
1F
100
AcDbEntity
  8
TEXT
  6
Continuous
 62
     7
 48
4.0
370
    25
100
AcDbLine
 10
24.25321673808855
 20
103.0625
 30
0.0
 11
18.06893347617711
 21
100.6484456888624
 31
0.0
  0
LWPOLYLINE
  5
405
330
1F
100
AcDbEntity
  8
TEXT
  6
Continuous
 62
     7
 48
4.0
370
    25
100
AcDbPolyline
 90
        5
 70
     1
 43
0.0
 10
18.06893347617711
 20
86.1875
 10
18.06893347617711
 20
103.0625
 10
24.25321673808855
 20
103.0625
 10
24.25321673808855
 20
94.625
 10
24.25321673808855
 20
86.1875
  0
LINE
  5
406
330
1F
100
AcDbEntity
  8
TEXT
  6
Continuous
 62
     7
 48
4.0
370
    25
100
AcDbLine
 10
132.2532167380886
 20
100.6484456888624
 30
0.0
 11
138.4375
 21
100.6484456888624
 31
0.0
  0
LINE
  5
407
330
1F
100
AcDbEntity
  8
TEXT
  6
Continuous
 62
     7
 48
4.0
370
    25
100
AcDbLine
 10
132.2532167380886
 20
103.0625
 30
0.0
 11
138.4375
 21
100.6484456888624
 31
0.0
  0
LINE
  5
408
330
1F
100
AcDbEntity
  8
TEXT
  6
Continuous
 62
     7
 48
4.0
370
    25
100
AcDbLine
 10
132.2532167380886
 20
98.2343913777247
 30
0.0
 11
138.4375
 21
98.2343913777247
 31
0.0
  0
LINE
  5
409
330
1F
100
AcDbEntity
  8
TEXT
  6
Continuous
 62
     7
 48
4.0
370
    25
100
AcDbLine
 10
138.4375
 20
103.0625
 30
0.0
 11
132.2532167380886
 21
100.6484456888624
 31
0.0
  0
LWPOLYLINE
  5
40A
330
1F
100
AcDbEntity
  8
TEXT
  6
Continuous
 62
     7
 48
4.0
370
    25
100
AcDbPolyline
 90
        5
 70
     1
 43
0.0
 10
132.2532167380886
 20
86.1875
 10
132.2532167380886
 20
92.625
 10
132.2532167380886
 20
103.0625
 10
138.4375
 20
103.0625
 10
138.4375
 20
86.1875
  0
LINE
  5
40B
330
1F
100
AcDbEntity
  8
TEXT
  6
Continuous
 62
     7
 48
4.0
370
    25
100
AcDbLine
 10
132.2532167380886
 20
100.6484456888624
 30
0.0
 11
138.4375
 21
98.2343913777247
 31
0.0
  0
LINE
  5
40C
330
1F
100
AcDbEntity
  8
TEXT
  6
Continuous
 62
     7
 48
4.0
370
    25
100
AcDbLine
 10
138.4375
 20
100.6484456888624
 30
0.0
 11
132.2532167380886
 21
98.2343913777247
 31
0.0
  0
LINE
  5
40D
330
1F
100
AcDbEntity
  8
TEXT
  6
Continuous
 62
     7
 48
4.0
370
    25
100
AcDbLine
 10
18.06893347617711
 20
100.6484456888624
 30
0.0
 11
24.25321673808855
 21
98.2343913777247
 31
0.0
  0
LINE
  5
40E
330
1F
100
AcDbEntity
  8
TEXT
  6
Continuous
 62
     7
 48
4.0
370
    25
100
AcDbLine
 10
24.25321673808855
 20
100.6484456888624
 30
0.0
 11
18.06893347617711
 21
98.2343913777247
 31
0.0
  0
LINE
  5
40F
330
1F
100
AcDbEntity
  8
TEXT
  6
Continuous
 62
     7
 48
4.0
370
    25
100
AcDbLine
 10
11.19393347617711
 20
111.0625
 30
0.0
 11
15.19393347617711
 21
107.0625
 31
0.0
  0
LWPOLYLINE
  5
410
330
1F
100
AcDbEntity
  8
TEXT
  6
Continuous
 62
     7
 48
4.0
370
    25
100
AcDbPolyline
 90
        3
 70
     0
 43
0.0
 10
96.25321673808855
 20
92.625
 10
96.25321673808855
 20
96.625
 10
96.25321673808855
 20
102.0625
  0
CIRCLE
  5
411
330
1F
100
AcDbEntity
  8
TEXT
  6
Continuous
 62
     7
 48
4.0
370
    25
100
AcDbCircle
 10
86.8125
 20
113.4375
 30
0.0
 40
1.376419721596577
  0
LWPOLYLINE
  5
412
330
1F
100
AcDbEntity
  8
TEXT
  6
Continuous
 62
     7
 48
4.0
370
    25
100
AcDbPolyline
 90
        4
 70
     0
 43
0.0
 10
64.9375
 20
127.9375
 10
66.9375
 20
127.9375
 10
86.8125
 20
127.9375
 10
88.8125
 20
127.9375
  0
LINE
  5
413
330
1F
100
AcDbEntity
  8
TEXT
  6
Continuous
 62
     7
 48
4.0
370
    25
100
AcDbLine
 10
22.25321673808855
 20
81.0
 30
0.0
 11
134.2532167380886
 21
81.0
 31
0.0
  0
LINE
  5
414
330
1F
100
AcDbEntity
  8
TEXT
  6
Continuous
 62
     7
 48
4.0
370
    25
100
AcDbLine
 10
60.25321673808855
 20
92.625
 30
0.0
 11
60.25321673808855
 21
102.0625
 31
0.0
  0
LINE
  5
415
330
1F
100
AcDbEntity
  8
TEXT
  6
Continuous
 62
     7
 48
4.0
370
    25
100
AcDbLine
 10
88.8125
 20
129.9375
 30
0.0
 11
84.8125
 21
125.9375
 31
0.0
  0
LINE
  5
416
330
1F
100
AcDbEntity
  8
TEXT
  6
Continuous
 62
     7
 48
4.0
370
    25
100
AcDbLine
 10
132.2532167380886
 20
85.1875
 30
0.0
 11
132.2532167380886
 21
79.0
 31
0.0
  0
LWPOLYLINE
  5
417
330
1F
100
AcDbEntity
  8
TEXT
  6
DASHED
 62
     7
 48
4.0
370
    25
100
AcDbPolyline
 90
        5
 70
     0
 43
0.0
 10
86.8125
 20
114.8139197215966
 10
86.8125
 20
115.0625
 10
86.8125
 20
121.0625
 10
86.8125
 20
127.9375
 10
86.8125
 20
129.9375
  0
LINE
  5
418
330
1F
100
AcDbEntity
  8
TEXT
  6
Continuous
 62
     7
 48
4.0
370
    25
100
AcDbLine
 10
60.25321673808855
 20
115.0625
 30
0.0
 11
60.25321673808855
 21
109.0625
 31
0.0
  0
LINE
  5
419
330
1F
100
AcDbEntity
  8
TEXT
  6
Continuous
 62
     7
 48
4.0
370
    25
100
AcDbLine
 10
68.9375
 20
129.9375
 30
0.0
 11
64.9375
 21
125.9375
 31
0.0
  0
LWPOLYLINE
  5
41A
330
1F
100
AcDbEntity
  8
TEXT
  6
DASHED
 62
     7
 48
4.0
370
    25
100
AcDbPolyline
 90
        5
 70
     0
 43
0.0
 10
66.9375
 20
110.98154374442
 10
66.9375
 20
115.0625
 10
66.9375
 20
121.0625
 10
66.9375
 20
127.9375
 10
66.9375
 20
129.9375
  0
LINE
  5
41B
330
1F
100
AcDbEntity
  8
TEXT
  6
Continuous
 62
     7
 48
4.0
370
    25
100
AcDbLine
 10
96.25321673808855
 20
115.0625
 30
0.0
 11
96.25321673808855
 21
109.0625
 31
0.0
  0
LINE
  5
41C
330
1F
100
AcDbEntity
  8
TEXT
  6
Continuous
 62
     7
 48
4.0
370
    25
100
AcDbLine
 10
22.25321673808855
 20
94.625
 30
0.0
 11
134.2532167380886
 21
94.625
 31
0.0
  0
LINE
  5
41D
330
1F
100
AcDbEntity
  8
TEXT
  6
Continuous
 62
     7
 48
4.0
370
    25
100
AcDbLine
 10
13.19393347617709
 20
107.0625
 30
0.0
 11
13.19393347617709
 21
117.0625
 31
0.0
  0
LINE
  5
41E
330
1F
100
AcDbEntity
  8
TEXT
  6
DASHED
 62
     7
 48
4.0
370
    25
100
AcDbLine
 10
11.19393347617711
 20
109.0625
 30
0.0
 11
35.25321673808855
 21
109.0625
 31
0.0
  0
LINE
  5
41F
330
1F
100
AcDbEntity
  8
TEXT
  6
Continuous
 62
     7
 48
4.0
370
    25
100
AcDbLine
 10
96.25321673808855
 20
109.0625
 30
0.0
 11
120.2532167380886
 21
109.0625
 31
0.0
  0
LWPOLYLINE
  5
420
330
1F
100
AcDbEntity
  8
TEXT
  6
Continuous
 62
     7
 48
4.0
370
    25
100
AcDbPolyline
 90
        4
 70
     0
 43
0.0
 10
120.2532167380886
 20
109.0625
 10
120.2532167380886
 20
115.0625
 10
96.25321673808855
 20
115.0625
 10
96.25321673808855
 20
109.0625
  0
LINE
  5
421
330
1F
100
AcDbEntity
  8
TEXT
  6
Continuous
 62
     7
 48
4.0
370
    25
100
AcDbLine
 10
22.25321673808855
 20
127.9375
 30
0.0
 11
38.25321673808855
 21
127.9375
 31
0.0
  0
LINE
  5
422
330
1F
100
AcDbEntity
  8
TEXT
  6
Continuous
 62
     7
 48
4.0
370
    25
100
AcDbLine
 10
38.25321673808855
 20
129.9375
 30
0.0
 11
34.25321673808855
 21
125.9375
 31
0.0
  0
LINE
  5
423
330
1F
100
AcDbEntity
  8
TEXT
  6
DASHED
 62
     7
 48
4.0
370
    25
100
AcDbLine
 10
35.25321673808855
 20
115.0625
 30
0.0
 11
11.19393347617709
 21
115.0625
 31
0.0
  0
LINE
  5
424
330
1F
100
AcDbEntity
  8
TEXT
  6
Continuous
 62
     7
 48
4.0
370
    25
100
AcDbLine
 10
122.2532167380886
 20
129.9375
 30
0.0
 11
118.2532167380886
 21
125.9375
 31
0.0
  0
LINE
  5
425
330
1F
100
AcDbEntity
  8
TEXT
  6
Continuous
 62
     7
 48
4.0
370
    25
100
AcDbLine
 10
134.2532167380886
 20
129.9375
 30
0.0
 11
130.2532167380886
 21
125.9375
 31
0.0
  0
LINE
  5
426
330
1F
100
AcDbEntity
  8
TEXT
  6
Continuous
 62
     7
 48
4.0
370
    25
100
AcDbLine
 10
134.2532167380886
 20
96.625
 30
0.0
 11
130.2532167380886
 21
92.625
 31
0.0
  0
LINE
  5
427
330
1F
100
AcDbEntity
  8
TEXT
  6
Continuous
 62
     7
 48
4.0
370
    25
100
AcDbLine
 10
134.2532167380886
 20
83.0
 30
0.0
 11
130.2532167380886
 21
79.0
 31
0.0
  0
LINE
  5
428
330
1F
100
AcDbEntity
  8
TEXT
  6
Continuous
 62
     7
 48
4.0
370
    25
100
AcDbLine
 10
98.25321673808855
 20
96.625
 30
0.0
 11
94.25321673808855
 21
92.625
 31
0.0
  0
LINE
  5
429
330
1F
100
AcDbEntity
  8
TEXT
  6
Continuous
 62
     7
 48
4.0
370
    25
100
AcDbLine
 10
62.25321673808855
 20
96.625
 30
0.0
 11
58.25321673808855
 21
92.625
 31
0.0
  0
LINE
  5
42A
330
1F
100
AcDbEntity
  8
TEXT
  6
Continuous
 62
     7
 48
4.0
370
    25
100
AcDbLine
 10
26.25321673808855
 20
96.625
 30
0.0
 11
22.25321673808855
 21
92.625
 31
0.0
  0
LINE
  5
42B
330
1F
100
AcDbEntity
  8
TEXT
  6
Continuous
 62
     7
 48
4.0
370
    25
100
AcDbLine
 10
26.25321673808855
 20
83.0
 30
0.0
 11
22.25321673808855
 21
79.0
 31
0.0
  0
LINE
  5
42C
330
1F
100
AcDbEntity
  8
TEXT
  6
Continuous
 62
     7
 48
4.0
370
    25
100
AcDbLine
 10
118.2532167380886
 20
127.9375
 30
0.0
 11
134.2532167380886
 21
127.9375
 31
0.0
  0
LINE
  5
42D
330
1F
100
AcDbEntity
  8
TEXT
  6
Continuous
 62
     7
 48
4.0
370
    25
100
AcDbLine
 10
11.19393347617709
 20
117.0625
 30
0.0
 11
15.19393347617709
 21
113.0625
 31
0.0
  0
LINE
  5
42E
330
1F
100
AcDbEntity
  8
TEXT
  6
Continuous
 62
     7
 48
4.0
370
    25
100
AcDbLine
 10
24.25321673808855
 20
85.1875
 30
0.0
 11
24.25321673808855
 21
79.0
 31
0.0
  0
LINE
  5
42F
330
1F
100
AcDbEntity
  8
TEXT
  6
Continuous
 62
     7
 48
4.0
370
    25
100
AcDbLine
 10
120.2532167380886
 20
122.0625
 30
0.0
 11
120.2532167380886
 21
129.9375
 31
0.0
  0
LINE
  5
430
330
1F
100
AcDbEntity
  8
TEXT
  6
Continuous
 62
     7
 48
4.0
370
    25
100
AcDbLine
 10
60.25321673808855
 20
109.0625
 30
0.0
 11
60.25321673808855
 21
115.0625
 31
0.0
  0
LINE
  5
431
330
1F
100
AcDbEntity
  8
TEXT
  6
Continuous
 62
     7
 48
4.0
370
    25
100
AcDbLine
 10
36.25321673808855
 20
122.0625
 30
0.0
 11
36.25321673808855
 21
129.9375
 31
0.0
  0
TEXT
  5
432
330
1F
100
AcDbEntity
  8
TEXT
 62
     7
370
    25
100
AcDbText
 10
4.96625
 20
137.7961363636364
 30
0.0
 40
4.0
  1
P
 41
1.26
  7
Arial
 11
4.96625
 21
136.6125
 31
0.0
100
AcDbText
 73
     1
  0
TEXT
  5
433
330
1F
100
AcDbEntity
  8
TEXT
 62
     7
370
    25
100
AcDbText
 10
38.213125
 20
137.4586363636364
 30
0.0
 40
4.0
  1
BEAM HOLE DETAILS
 41
1.26
  7
Arial
 11
38.213125
 21
136.275
 31
0.0
100
AcDbText
 73
     1
  0
TEXT
  5
434
330
1F
100
AcDbEntity
  8
TEXT
 62
     7
370
    25
100
AcDbText
 10
3.375
 20
75.475
 30
0.0
 40
2.0
  1
NOTES:
 41
1.26
  7
Arial
 11
3.375
 21
77.475
 31
0.0
100
AcDbText
 73
     3
  0
TEXT
  5
435
330
1F
100
AcDbEntity
  8
TEXT
 62
     7
370
    25
100
AcDbText
 10
3.375
 20
72.325
 30
0.0
 40
2.0
  1
1. These guidelines apply to uniformly loaded beams selected from the Quick Reference
 41
1.26
  7
Arial
 11
3.375
 21
74.325
 31
0.0
100
AcDbText
 73
     3
  0
TEXT
  5
436
330
1F
100
AcDbEntity
  8
TEXT
 62
     7
370
    25
100
AcDbText
 10
3.375
 20
69.175
 30
0.0
 40
2.0
  1
Tables or the Uniform Load Tables or designed with LP’s design/specification software
 41
1.26
  7
Arial
 11
3.375
 21
71.175
 31
0.0
100
AcDbText
 73
     3
  0
TEXT
  5
437
330
1F
100
AcDbEntity
  8
TEXT
 62
     7
370
    25
100
AcDbText
 10
3.375
 20
66.025
 30
0.0
 40
2.0
  1
only. For all other applications, such as beams with concentrated loads, please contact
 41
1.26
  7
Arial
 11
3.375
 21
68.025
 31
0.0
100
AcDbText
 73
     3
  0
TEXT
  5
438
330
1F
100
AcDbEntity
  8
TEXT
 62
     7
370
    25
100
AcDbText
 10
3.375
 20
62.875
 30
0.0
 40
2.0
  1
your LP® SolidStart® Engineered Wood Products distributor for assistance.
 41
1.26
  7
Arial
 11
3.375
 21
64.875
 31
0.0
100
AcDbText
 73
     3
  0
TEXT
  5
439
330
1F
100
AcDbEntity
  8
TEXT
 62
     7
370
    25
100
AcDbText
 10
3.375
 20
56.575
 30
0.0
 40
2.0
  1
2. Round holes can be drilled anywhere in “Area A” provided that: no more than four holes
 41
1.26
  7
Arial
 11
3.375
 21
58.575
 31
0.0
100
AcDbText
 73
     3
  0
TEXT
  5
43A
330
1F
100
AcDbEntity
  8
TEXT
 62
     7
370
    25
100
AcDbText
 10
3.375
 20
53.425
 30
0.0
 40
2.0
  1
are cut, with the minimum spacing described in the diagram. The maximum hole size is
 41
1.26
  7
Arial
 11
3.375
 21
55.425
 31
0.0
100
AcDbText
 73
     3
  0
TEXT
  5
43B
330
1F
100
AcDbEntity
  8
TEXT
 62
     7
370
    25
100
AcDbText
 10
3.375
 20
50.27500000000001
 30
0.0
 40
2.0
  1
1-1/2" for depths up to 9-1/4," and 2" for depths greater than 9-1/4."
 41
1.26
  7
Arial
 11
3.375
 21
52.27500000000001
 31
0.0
100
AcDbText
 73
     3
  0
TEXT
  5
43C
330
1F
100
AcDbEntity
  8
TEXT
 62
     7
370
    25
100
AcDbText
 10
3.375
 20
43.97500000000001
 30
0.0
 40
2.0
  1
3. Rectangular holes are NOT allowed.
 41
1.26
  7
Arial
 11
3.375
 21
45.97500000000001
 31
0.0
100
AcDbText
 73
     3
  0
TEXT
  5
43D
330
1F
100
AcDbEntity
  8
TEXT
 62
     7
370
    25
100
AcDbText
 10
3.375
 20
37.67500000000001
 30
0.0
 40
2.0
  1
4. DO NOT drill holes in cantilevers without prior approval from the project designer.
 41
1.26
  7
Arial
 11
3.375
 21
39.67500000000001
 31
0.0
100
AcDbText
 73
     3
  0
TEXT
  5
43E
330
1F
100
AcDbEntity
  8
TEXT
 62
     7
370
    25
100
AcDbText
 10
3.375
 20
31.37500000000001
 30
0.0
 40
2.0
  1
5. Other hole sizes and configurations MAY be possible with further engineering analysis.
 41
1.26
  7
Arial
 11
3.375
 21
33.37500000000001
 31
0.0
100
AcDbText
 73
     3
  0
TEXT
  5
43F
330
1F
100
AcDbEntity
  8
TEXT
 62
     7
370
    25
100
AcDbText
 10
3.375
 20
28.22500000000002
 30
0.0
 40
2.0
  1
For more information, contact your LP SolidStart Engineered Wood Products distributor.
 41
1.26
  7
Arial
 11
3.375
 21
30.22500000000002
 31
0.0
100
AcDbText
 73
     3
  0
TEXT
  5
440
330
1F
100
AcDbEntity
  8
TEXT
 62
     7
370
    25
100
AcDbText
 10
3.375
 20
21.92500000000002
 30
0.0
 40
2.0
  1
6. Up to three 3/4" holes may be drilled in “Area B” to accommodate wiring and/or water lines.
 41
1.26
  7
Arial
 11
3.375
 21
23.92500000000002
 31
0.0
100
AcDbText
 73
     3
  0
TEXT
  5
441
330
1F
100
AcDbEntity
  8
TEXT
 62
     7
370
    25
100
AcDbText
 10
3.375
 20
18.77500000000002
 30
0.0
 40
2.0
  1
These holes shall be at least 12" apart. The holes shall be located in the middle third of the
 41
1.26
  7
Arial
 11
3.375
 21
20.77500000000002
 31
0.0
100
AcDbText
 73
     3
  0
TEXT
  5
442
330
1F
100
AcDbEntity
  8
TEXT
 62
     7
370
    25
100
AcDbText
 10
3.375
 20
15.62500000000002
 30
0.0
 40
2.0
  1
depth, or a minimum of 3" from the bottom and top of the beam. For beams shallower than
 41
1.26
  7
Arial
 11
3.375
 21
17.62500000000002
 31
0.0
100
AcDbText
 73
     3
  0
TEXT
  5
443
330
1F
100
AcDbEntity
  8
TEXT
 62
     7
370
    25
100
AcDbText
 10
3.375
 20
12.47500000000002
 30
0.0
 40
2.0
  1
9-1/4", locate holes at mid-depth.
 41
1.26
  7
Arial
 11
3.375
 21
14.47500000000002
 31
0.0
100
AcDbText
 73
     3
  0
TEXT
  5
444
330
1F
100
AcDbEntity
  8
TEXT
 62
     7
370
    25
100
AcDbText
 10
3.375
 20
6.175000000000011
 30
0.0
 40
2.0
  1
7. Protect plumbing holes from moisture.
 41
1.26
  7
Arial
 11
3.375
 21
8.175000000000011
 31
0.0
100
AcDbText
 73
     3
  0
TEXT
  5
445
330
1F
100
AcDbEntity
  8
TEXT
 62
     7
370
    25
100
AcDbText
 10
66.61790423808856
 20
95.625
 30
0.0
 40
2.0
  1
1/3 span length
 41
1.26
  7
Arial
 11
66.61790423808856
 21
97.625
 31
0.0
100
AcDbText
 73
     3
  0
TEXT
  5
446
330
1F
100
AcDbEntity
  8
TEXT
 62
     7
370
    25
100
AcDbText
 10
3.325
 20
114.4418181818182
 30
0.0
 40
2.0
  1
1/3
 41
1.26
  7
Arial
 11
3.325
 21
113.85
 31
0.0
100
AcDbText
 73
     1
  0
TEXT
  5
447
330
1F
100
AcDbEntity
  8
TEXT
 62
     7
370
    25
100
AcDbText
 10
1.395625
 20
111.2918181818182
 30
0.0
 40
2.0
  1
beam
 41
1.26
  7
Arial
 11
1.395625
 21
110.7
 31
0.0
100
AcDbText
 73
     1
  0
TEXT
  5
448
330
1F
100
AcDbEntity
  8
TEXT
 62
     7
370
    25
100
AcDbText
 10
1.435
 20
108.1418181818182
 30
0.0
 40
2.0
  1
depth
 41
1.26
  7
Arial
 11
1.435
 21
107.55
 31
0.0
100
AcDbText
 73
     1
  0
TEXT
  5
449
330
1F
100
AcDbEntity
  8
TEXT
 62
     7
370
    25
100
AcDbText
 10
28.97352923808855
 20
128.9375
 30
0.0
 40
2.0
  1
1'
 41
1.26
  7
Arial
 11
28.97352923808855
 21
130.9375
 31
0.0
100
AcDbText
 73
     3
  0
TEXT
  5
44A
330
1F
100
AcDbEntity
  8
TEXT
 62
     7
370
    25
100
AcDbText
 10
124.9735292380886
 20
128.9375
 30
0.0
 40
2.0
  1
1'
 41
1.26
  7
Arial
 11
124.9735292380886
 21
130.9375
 31
0.0
100
AcDbText
 73
     3
  0
TEXT
  5
44B
330
1F
100
AcDbEntity
  8
TEXT
 62
     7
370
    25
100
AcDbText
 10
50.1196875
 20
130.75
 30
0.0
 40
2.0
  1
Minimum 2x diameter of larger hole
 41
1.26
  7
Arial
 11
50.1196875
 21
132.75
 31
0.0
100
AcDbText
 73
     3
  0
TEXT
  5
44C
330
1F
100
AcDbEntity
  8
TEXT
 62
     7
370
    25
100
AcDbText
 10
73.21851917905062
 20
111.1875
 30
0.0
 40
2.0
  1
Area A
 41
1.26
  7
Arial
 11
73.21851917905062
 21
113.1875
 31
0.0
100
AcDbText
 73
     3
  0
TEXT
  5
44D
330
1F
100
AcDbEntity
  8
TEXT
 62
     7
370
    25
100
AcDbText
 10
69.72852923808856
 20
82.0
 30
0.0
 40
2.0
  1
Clear Span
 41
1.26
  7
Arial
 11
69.72852923808856
 21
84.0
 31
0.0
100
AcDbText
 73
     3
  0
TEXT
  5
44E
330
1F
100
AcDbEntity
  8
TEXT
 62
     7
370
    25
100
AcDbText
 10
42.90601917905061
 20
111.5
 30
0.0
 40
2.0
  1
Area B
 41
1.26
  7
Arial
 11
42.90601917905061
 21
113.5
 31
0.0
100
AcDbText
 73
     3
  0
TEXT
  5
44F
330
1F
100
AcDbEntity
  8
TEXT
 62
     7
370
    25
100
AcDbText
 10
103.0310191790506
 20
111.5
 30
0.0
 40
2.0
  1
Area B
 41
1.26
  7
Arial
 11
103.0310191790506
 21
113.5
 31
0.0
100
AcDbText
 73
     3
  0
INSERT
  5
450
330
1F
100
AcDbEntity
  8
0
  6
ByBlock
 62
     7
100
AcDbBlockReference
  2
GROUP_0_cf7a7263-52a3-4af9-b95f-2cb79a24fea1
 10
0.0
 20
0.0
 30
0.0
  0
INSERT
  5
451
330
1F
100
AcDbEntity
  8
5 Hatches
  6
ByBlock
 62
    42
100
AcDbBlockReference
  2
HATCH_1_4948ade9-4a9f-47ff-b7cf-84647bd6d86b
 10
0.0
 20
0.0
 30
0.0
  0
INSERT
  5
452
330
1F
100
AcDbEntity
  8
5 Hatches
  6
ByBlock
 62
    42
100
AcDbBlockReference
  2
HATCH_2_dc6b0f86-4209-4004-b5f2-9212e5be736a
 10
0.0
 20
0.0
 30
0.0
  0
INSERT
  5
453
330
1F
100
AcDbEntity
  8
5 Hatches
  6
ByBlock
 62
    42
100
AcDbBlockReference
  2
HATCH_3_c921b24b-3a8f-44df-992c-2ce89c1dcc5d
 10
0.0
 20
0.0
 30
0.0
  0
INSERT
  5
454
330
1F
100
AcDbEntity
  8
5 Hatches
  6
ByBlock
 62
    42
100
AcDbBlockReference
  2
HATCH_4_50aed048-3173-437f-a9eb-0063e47d797e
 10
0.0
 20
0.0
 30
0.0
  0
ENDSEC
  0
SECTION
  2
OBJECTS
  0
DICTIONARY
  5
C
330
0
100
AcDbDictionary
281
     1
  3
ACAD_GROUP
350
D
  3
ACAD_LAYOUT
350
1A
  3
ACAD_MATERIAL
350
3B
  3
ACAD_MLEADERSTYLE
350
457
  3
ACAD_MLINESTYLE
350
17
  3
ACAD_PLOTSETTINGS
350
19
  3
ACAD_PLOTSTYLENAME
350
E
  3
ACAD_VISUALSTYLE
350
2A
  3
AcDbVariableDictionary
350
455
  0
DICTIONARY
  5
D
102
{ACAD_REACTORS
330
C
102
}
330
C
100
AcDbDictionary
281
     1
  0
DICTIONARY
  5
1A
102
{ACAD_REACTORS
330
C
102
}
330
C
100
AcDbDictionary
281
     1
  3
Layout1
350
1E
  3
Layout2
350
26
  3
Model
350
22
  0
DICTIONARY
  5
3B
102
{ACAD_REACTORS
330
C
102
}
330
C
100
AcDbDictionary
281
     1
  3
ByBlock
350
3D
  3
ByLayer
350
3C
  3
Global
350
3E
  0
DICTIONARY
  5
457
102
{ACAD_REACTORS
330
C
102
}
330
C
100
AcDbDictionary
281
     1
  0
DICTIONARY
  5
17
102
{ACAD_REACTORS
330
C
102
}
330
C
100
AcDbDictionary
281
     1
  3
Standard
350
18
  0
DICTIONARY
  5
19
102
{ACAD_REACTORS
330
C
102
}
330
C
100
AcDbDictionary
281
     1
  0
ACDBDICTIONARYWDFLT
  5
E
102
{ACAD_REACTORS
330
C
102
}
330
C
100
AcDbDictionary
281
     1
  3
Normal
350
F
100
AcDbDictionaryWithDefault
340
F
  0
DICTIONARY
  5
2A
102
{ACAD_REACTORS
330
C
102
}
330
C
100
AcDbDictionary
281
     1
  3
2dWireframe
350
2F
  3
3D Hidden
350
31
  3
3dWireframe
350
30
  3
Basic
350
32
  3
Brighten
350
36
  3
ColorChange
350
3A
  3
Conceptual
350
34
  3
Dim
350
35
  3
Facepattern
350
39
  3
Flat
350
2B
  3
FlatWithEdges
350
2C
  3
Gouraud
350
2D
  3
GouraudWithEdges
350
2E
  3
Linepattern
350
38
  3
Realistic
350
33
  3
Thicken
350
37
  0
DICTIONARY
  5
455
102
{ACAD_REACTORS
330
C
102
}
330
C
100
AcDbDictionary
281
     1
  3
DIMASSOC
350
458
  3
HIDETEXT
350
459
  0
LAYOUT
  5
1E
102
{ACAD_REACTORS
330
1A
102
}
330
1A
100
AcDbPlotSettings
  1

  2
none_device
  4

  6

 40
0.0
 41
0.0
 42
0.0
 43
0.0
 44
0.0
 45
0.0
 46
0.0
 47
0.0
 48
0.0
 49
0.0
140
0.0
141
0.0
142
1.0
143
1.0
 70
   688
 72
     0
 73
     0
 74
     5
  7

 75
    16
147
1.0
148
0.0
149
0.0
100
AcDbLayout
  1
Layout1
 70
     1
 71
     1
 10
0.0
 20
0.0
 11
12.0
 21
9.0
 12
0.0
 22
0.0
 32
0.0
 14
1.000000000000000E+20
 24
1.000000000000000E+20
 34
1.000000000000000E+20
 15
-1.000000000000000E+20
 25
-1.000000000000000E+20
 35
-1.000000000000000E+20
146
0.0
 13
0.0
 23
0.0
 33
0.0
 16
1.0
 26
0.0
 36
0.0
 17
0.0
 27
1.0
 37
0.0
 76
     0
330
1B
  0
LAYOUT
  5
26
102
{ACAD_REACTORS
330
1A
102
}
330
1A
100
AcDbPlotSettings
  1

  2
none_device
  4

  6

 40
0.0
 41
0.0
 42
0.0
 43
0.0
 44
0.0
 45
0.0
 46
0.0
 47
0.0
 48
0.0
 49
0.0
140
0.0
141
0.0
142
1.0
143
1.0
 70
   688
 72
     0
 73
     0
 74
     5
  7

 75
    16
147
1.0
148
0.0
149
0.0
100
AcDbLayout
  1
Layout2
 70
     1
 71
     2
 10
0.0
 20
0.0
 11
0.0
 21
0.0
 12
0.0
 22
0.0
 32
0.0
 14
0.0
 24
0.0
 34
0.0
 15
0.0
 25
0.0
 35
0.0
146
0.0
 13
0.0
 23
0.0
 33
0.0
 16
1.0
 26
0.0
 36
0.0
 17
0.0
 27
1.0
 37
0.0
 76
     0
330
23
  0
LAYOUT
  5
22
102
{ACAD_REACTORS
330
1A
102
}
330
1A
100
AcDbPlotSettings
  1

  2
none_device
  4

  6

 40
0.0
 41
0.0
 42
0.0
 43
0.0
 44
0.0
 45
0.0
 46
0.0
 47
0.0
 48
0.0
 49
0.0
140
0.0
141
0.0
142
1.0
143
1.0
 70
  1712
 72
     0
 73
     0
 74
     0
  7

 75
     0
147
1.0
148
0.0
149
0.0
100
AcDbLayout
  1
Model
 70
     1
 71
     0
 10
-7.260660000000001
 20
-7.254899999999999
 11
152.47386
 21
152.3529
 12
0.0
 22
0.0
 32
0.0
 14
-7.260660000000001
 24
-7.254899999999999
 34
0.0
 15
152.47386
 25
152.3529
 35
0.0
146
0.0
 13
0.0
 23
0.0
 33
0.0
 16
1.0
 26
0.0
 36
0.0
 17
0.0
 27
1.0
 37
0.0
 76
     0
330
1F
331
29
  0
MATERIAL
  5
3D
102
{ACAD_REACTORS
330
3B
102
}
102
{ACAD_XDICTIONARY
360
47C
102
}
330
3B
100
AcDbMaterial
  1
ByBlock
  0
MATERIAL
  5
3C
102
{ACAD_REACTORS
330
3B
102
}
102
{ACAD_XDICTIONARY
360
47A
102
}
330
3B
100
AcDbMaterial
  1
ByLayer
  0
MATERIAL
  5
3E
102
{ACAD_REACTORS
330
3B
102
}
102
{ACAD_XDICTIONARY
360
47E
102
}
330
3B
100
AcDbMaterial
  1
Global
  0
MLINESTYLE
  5
18
102
{ACAD_REACTORS
330
17
102
}
330
17
100
AcDbMlineStyle
  2
Standard
 70
     0
  3

 62
   256
 51
90.0
 52
90.0
 71
     2
 49
0.5
 62
   256
  6
BYLAYER
 49
-0.5
 62
   256
  6
BYLAYER
  0
ACDBPLACEHOLDER
  5
F
102
{ACAD_REACTORS
330
E
102
}
330
E
  0
VISUALSTYLE
  5
2F
102
{ACAD_REACTORS
330
2A
102
}
102
{ACAD_XDICTIONARY
360
462
102
}
330
2A
100
AcDbVisualStyle
  2
2dWireframe
 70
     4
 71
     0
 72
     2
 73
     0
 90
        0
 40
-0.6
 41
-30.0
 62
     5
 63
     7
 74
     1
 91
        4
 64
     7
 65
   257
 75
     1
175
     1
 42
1.0
 92
        0
 66
   257
 43
1.0
 76
     1
 77
     6
 78
     2
 67
     7
 79
     5
170
     0
171
     0
290
     0
174
     0
 93
        1
 44
0.0
173
     0
291
     0
 45
0.0
1001
ACAD
1000
AcDbSavedByObjectVersion
1070
     0
  0
VISUALSTYLE
  5
31
102
{ACAD_REACTORS
330
2A
102
}
102
{ACAD_XDICTIONARY
360
466
102
}
330
2A
100
AcDbVisualStyle
  2
3D Hidden
 70
     6
 71
     1
 72
     2
 73
     2
 90
        0
 40
-0.6
 41
-30.0
 62
     5
 63
     7
 74
     2
 91
        2
 64
     7
 65
   257
 75
     2
175
     1
 42
40.0
 92
        0
 66
   257
 43
1.0
 76
     1
 77
     6
 78
     2
 67
     7
 79
     3
170
     0
171
     0
290
     0
174
     0
 93
        1
 44
0.0
173
     0
291
     0
 45
0.0
1001
ACAD
1000
AcDbSavedByObjectVersion
1070
     0
  0
VISUALSTYLE
  5
30
102
{ACAD_REACTORS
330
2A
102
}
102
{ACAD_XDICTIONARY
360
464
102
}
330
2A
100
AcDbVisualStyle
  2
3dWireframe
 70
     5
 71
     0
 72
     2
 73
     0
 90
        0
 40
-0.6
 41
-30.0
 62
     5
 63
     7
 74
     1
 91
        4
 64
     7
 65
   257
 75
     1
175
     1
 42
1.0
 92
        0
 66
   257
 43
1.0
 76
     1
 77
     6
 78
     2
 67
     7
 79
     5
170
     0
171
     0
290
     0
174
     0
 93
        1
 44
0.0
173
     0
291
     0
 45
0.0
1001
ACAD
1000
AcDbSavedByObjectVersion
1070
     0
  0
VISUALSTYLE
  5
32
102
{ACAD_REACTORS
330
2A
102
}
102
{ACAD_XDICTIONARY
360
468
102
}
330
2A
100
AcDbVisualStyle
  2
Basic
 70
     7
 71
     1
 72
     0
 73
     1
 90
        0
 40
-0.6
 41
-30.0
 62
     5
 63
     7
 74
     0
 91
        4
 64
     7
 65
   257
 75
     1
175
     1
 42
1.0
 92
        8
 66
     7
 43
1.0
 76
     1
 77
     6
 78
     2
 67
     7
 79
     5
170
     0
171
     0
290
     0
174
     0
 93
        1
 44
0.0
173
     0
291
     1
 45
0.0
1001
ACAD
1000
AcDbSavedByObjectVersion
1070
     0
  0
VISUALSTYLE
  5
36
102
{ACAD_REACTORS
330
2A
102
}
102
{ACAD_XDICTIONARY
360
470
102
}
330
2A
100
AcDbVisualStyle
  2
Brighten
 70
    12
 71
     2
 72
     2
 73
     0
 90
        0
 40
-0.6
 41
-30.0
 62
     5
 63
     7
 74
     1
 91
        4
 64
     7
 65
   257
 75
     1
175
     1
 42
1.0
 92
        8
 66
     7
 43
1.0
 76
     1
 77
     6
 78
     2
 67
     7
 79
     5
170
     0
171
     0
290
     0
174
     0
 93
        1
 44
50.0
173
     0
291
     1
 45
0.0
1001
ACAD
1000
AcDbSavedByObjectVersion
1070
     0
  0
VISUALSTYLE
  5
3A
102
{ACAD_REACTORS
330
2A
102
}
102
{ACAD_XDICTIONARY
360
478
102
}
330
2A
100
AcDbVisualStyle
  2
ColorChange
 70
    16
 71
     2
 72
     2
 73
     3
 90
        0
 40
-0.6
 41
-30.0
 62
     5
 63
     8
 74
     1
 91
        4
 64
     7
 65
   257
 75
     1
175
     1
 42
1.0
 92
        8
 66
     8
 43
1.0
 76
     1
 77
     6
 78
     2
 67
     7
 79
     5
170
     0
171
     0
290
     0
174
     0
 93
        1
 44
0.0
173
     0
291
     1
 45
0.0
1001
ACAD
1000
AcDbSavedByObjectVersion
1070
     0
  0
VISUALSTYLE
  5
34
102
{ACAD_REACTORS
330
2A
102
}
102
{ACAD_XDICTIONARY
360
46C
102
}
330
2A
100
AcDbVisualStyle
  2
Conceptual
 70
     9
 71
     3
 72
     2
 73
     0
 90
        0
 40
-0.6
 41
-30.0
 62
     5
 63
     7
 74
     2
 91
        2
 64
     7
 65
   257
 75
     1
175
     1
 42
40.0
 92
        8
 66
     7
 43
1.0
 76
     1
 77
     6
 78
     2
 67
     7
 79
     3
170
     0
171
     0
290
     0
174
     0
 93
        1
 44
0.0
173
     0
291
     0
 45
0.0
1001
ACAD
1000
AcDbSavedByObjectVersion
1070
     0
  0
VISUALSTYLE
  5
35
102
{ACAD_REACTORS
330
2A
102
}
102
{ACAD_XDICTIONARY
360
46E
102
}
330
2A
100
AcDbVisualStyle
  2
Dim
 70
    11
 71
     2
 72
     2
 73
     0
 90
        0
 40
-0.6
 41
-30.0
 62
     5
 63
     7
 74
     1
 91
        4
 64
     7
 65
   257
 75
     1
175
     1
 42
1.0
 92
        8
 66
     7
 43
1.0
 76
     1
 77
     6
 78
     2
 67
     7
 79
     5
170
     0
171
     0
290
     0
174
     0
 93
        1
 44
-50.0
173
     0
291
     1
 45
0.0
1001
ACAD
1000
AcDbSavedByObjectVersion
1070
     0
  0
VISUALSTYLE
  5
39
102
{ACAD_REACTORS
330
2A
102
}
102
{ACAD_XDICTIONARY
360
476
102
}
330
2A
100
AcDbVisualStyle
  2
Facepattern
 70
    15
 71
     2
 72
     2
 73
     0
 90
        0
 40
-0.6
 41
-30.0
 62
     5
 63
     7
 74
     1
 91
        4
 64
     7
 65
   257
 75
     1
175
     1
 42
1.0
 92
        8
 66
     7
 43
1.0
 76
     1
 77
     6
 78
     2
 67
     7
 79
     5
170
     0
171
     0
290
     0
174
     0
 93
        1
 44
0.0
173
     0
291
     1
 45
0.0
1001
ACAD
1000
AcDbSavedByObjectVersion
1070
     0
  0
VISUALSTYLE
  5
2B
102
{ACAD_REACTORS
330
2A
102
}
102
{ACAD_XDICTIONARY
360
45A
102
}
330
2A
100
AcDbVisualStyle
  2
Flat
 70
     0
 71
     2
 72
     1
 73
     1
 90
        2
 40
-0.6
 41
30.0
 62
     5
 63
     7
 74
     0
 91
        4
 64
     7
 65
   257
 75
     1
175
     1
 42
1.0
 92
        8
 66
     7
 43
1.0
 76
     1
 77
     6
 78
     2
 67
     7
 79
     5
170
     0
171
     0
290
     0
174
     0
 93
       13
 44
0.0
173
     0
291
     1
 45
0.0
1001
ACAD
1000
AcDbSavedByObjectVersion
1070
     0
  0
VISUALSTYLE
  5
2C
102
{ACAD_REACTORS
330
2A
102
}
102
{ACAD_XDICTIONARY
360
45C
102
}
330
2A
100
AcDbVisualStyle
  2
FlatWithEdges
 70
     1
 71
     2
 72
     1
 73
     1
 90
        2
 40
-0.6
 41
30.0
 62
     5
 63
     7
 74
     1
 91
        4
 64
     7
 65
   257
 75
     1
175
     1
 42
1.0
 92
        0
 66
   257
 43
1.0
 76
     1
 77
     6
 78
     2
 67
     7
 79
     5
170
     0
171
     0
290
     0
174
     0
 93
       13
 44
0.0
173
     0
291
     1
 45
0.0
1001
ACAD
1000
AcDbSavedByObjectVersion
1070
     0
  0
VISUALSTYLE
  5
2D
102
{ACAD_REACTORS
330
2A
102
}
102
{ACAD_XDICTIONARY
360
45E
102
}
330
2A
100
AcDbVisualStyle
  2
Gouraud
 70
     2
 71
     2
 72
     2
 73
     1
 90
        2
 40
-0.6
 41
30.0
 62
     5
 63
     7
 74
     0
 91
        4
 64
     7
 65
   257
 75
     1
175
     1
 42
1.0
 92
        0
 66
     7
 43
1.0
 76
     1
 77
     6
 78
     2
 67
     7
 79
     5
170
     0
171
     0
290
     0
174
     0
 93
       13
 44
0.0
173
     0
291
     1
 45
0.0
1001
ACAD
1000
AcDbSavedByObjectVersion
1070
     0
  0
VISUALSTYLE
  5
2E
102
{ACAD_REACTORS
330
2A
102
}
102
{ACAD_XDICTIONARY
360
460
102
}
330
2A
100
AcDbVisualStyle
  2
GouraudWithEdges
 70
     3
 71
     2
 72
     2
 73
     1
 90
        2
 40
-0.6
 41
30.0
 62
     5
 63
     7
 74
     1
 91
        4
 64
     7
 65
   257
 75
     1
175
     1
 42
1.0
 92
        0
 66
   257
 43
1.0
 76
     1
 77
     6
 78
     2
 67
     7
 79
     5
170
     0
171
     0
290
     0
174
     0
 93
       13
 44
0.0
173
     0
291
     1
 45
0.0
1001
ACAD
1000
AcDbSavedByObjectVersion
1070
     0
  0
VISUALSTYLE
  5
38
102
{ACAD_REACTORS
330
2A
102
}
102
{ACAD_XDICTIONARY
360
474
102
}
330
2A
100
AcDbVisualStyle
  2
Linepattern
 70
    14
 71
     2
 72
     2
 73
     0
 90
        0
 40
-0.6
 41
-30.0
 62
     5
 63
     7
 74
     1
 91
        4
 64
     7
 65
   257
 75
     7
175
     7
 42
1.0
 92
        8
 66
     7
 43
1.0
 76
     1
 77
     6
 78
     2
 67
     7
 79
     5
170
     0
171
     0
290
     0
174
     0
 93
        1
 44
0.0
173
     0
291
     1
 45
0.0
1001
ACAD
1000
AcDbSavedByObjectVersion
1070
     0
  0
VISUALSTYLE
  5
33
102
{ACAD_REACTORS
330
2A
102
}
102
{ACAD_XDICTIONARY
360
46A
102
}
330
2A
100
AcDbVisualStyle
  2
Realistic
 70
     8
 71
     2
 72
     2
 73
     0
 90
        0
 40
-0.6
 41
-30.0
 62
     5
 63
     7
 74
     1
 91
        0
 64
     7
 65
   257
 75
     1
175
     1
 42
1.0
 92
        8
 66
     8
 43
1.0
 76
     1
 77
     6
 78
     2
 67
     7
 79
     5
170
     0
171
     0
290
     0
174
     0
 93
       13
 44
0.0
173
     0
291
     0
 45
0.0
1001
ACAD
1000
AcDbSavedByObjectVersion
1070
     0
  0
VISUALSTYLE
  5
37
102
{ACAD_REACTORS
330
2A
102
}
102
{ACAD_XDICTIONARY
360
472
102
}
330
2A
100
AcDbVisualStyle
  2
Thicken
 70
    13
 71
     2
 72
     2
 73
     0
 90
        0
 40
-0.6
 41
-30.0
 62
     5
 63
     7
 74
     1
 91
        4
 64
     7
 65
   257
 75
     1
175
     1
 42
1.0
 92
       12
 66
     7
 43
1.0
 76
     1
 77
     6
 78
     2
 67
     7
 79
     5
170
     0
171
     0
290
     0
174
     0
 93
        1
 44
0.0
173
     0
291
     1
 45
0.0
1001
ACAD
1000
AcDbSavedByObjectVersion
1070
     0
  0
DICTIONARYVAR
  5
458
102
{ACAD_REACTORS
330
455
102
}
330
455
100
DictionaryVariables
280
     0
  1
2
  0
DICTIONARYVAR
  5
459
102
{ACAD_REACTORS
330
455
102
}
330
455
100
DictionaryVariables
280
     0
  1
1
  0
DICTIONARY
  5
47C
330
3D
100
AcDbDictionary
280
     1
281
     1
  3
ACAD_XREC_ROUNDTRIP
360
47D
  0
DICTIONARY
  5
47A
330
3C
100
AcDbDictionary
280
     1
281
     1
  3
ACAD_XREC_ROUNDTRIP
360
47B
  0
DICTIONARY
  5
47E
330
3E
100
AcDbDictionary
280
     1
281
     1
  3
ACAD_XREC_ROUNDTRIP
360
47F
  0
DICTIONARY
  5
462
330
2F
100
AcDbDictionary
280
     1
281
     1
  3
ACAD_XREC_ROUNDTRIP
360
463
  0
DICTIONARY
  5
466
330
31
100
AcDbDictionary
280
     1
281
     1
  3
ACAD_XREC_ROUNDTRIP
360
467
  0
DICTIONARY
  5
464
330
30
100
AcDbDictionary
280
     1
281
     1
  3
ACAD_XREC_ROUNDTRIP
360
465
  0
DICTIONARY
  5
468
330
32
100
AcDbDictionary
280
     1
281
     1
  3
ACAD_XREC_ROUNDTRIP
360
469
  0
DICTIONARY
  5
470
330
36
100
AcDbDictionary
280
     1
281
     1
  3
ACAD_XREC_ROUNDTRIP
360
471
  0
DICTIONARY
  5
478
330
3A
100
AcDbDictionary
280
     1
281
     1
  3
ACAD_XREC_ROUNDTRIP
360
479
  0
DICTIONARY
  5
46C
330
34
100
AcDbDictionary
280
     1
281
     1
  3
ACAD_XREC_ROUNDTRIP
360
46D
  0
DICTIONARY
  5
46E
330
35
100
AcDbDictionary
280
     1
281
     1
  3
ACAD_XREC_ROUNDTRIP
360
46F
  0
DICTIONARY
  5
476
330
39
100
AcDbDictionary
280
     1
281
     1
  3
ACAD_XREC_ROUNDTRIP
360
477
  0
DICTIONARY
  5
45A
330
2B
100
AcDbDictionary
280
     1
281
     1
  3
ACAD_XREC_ROUNDTRIP
360
45B
  0
DICTIONARY
  5
45C
330
2C
100
AcDbDictionary
280
     1
281
     1
  3
ACAD_XREC_ROUNDTRIP
360
45D
  0
DICTIONARY
  5
45E
330
2D
100
AcDbDictionary
280
     1
281
     1
  3
ACAD_XREC_ROUNDTRIP
360
45F
  0
DICTIONARY
  5
460
330
2E
100
AcDbDictionary
280
     1
281
     1
  3
ACAD_XREC_ROUNDTRIP
360
461
  0
DICTIONARY
  5
474
330
38
100
AcDbDictionary
280
     1
281
     1
  3
ACAD_XREC_ROUNDTRIP
360
475
  0
DICTIONARY
  5
46A
330
33
100
AcDbDictionary
280
     1
281
     1
  3
ACAD_XREC_ROUNDTRIP
360
46B
  0
DICTIONARY
  5
472
330
37
100
AcDbDictionary
280
     1
281
     1
  3
ACAD_XREC_ROUNDTRIP
360
473
  0
XRECORD
  5
47D
102
{ACAD_REACTORS
330
47C
102
}
330
47C
100
AcDbXrecord
280
     1
102
MATERIAL
148
0.0
149
0.0
149
0.0
 93
        0
 94
      127
282
     0
 72
     1
 77
     1
171
     1
175
     1
179
     1
273
     0
  0
XRECORD
  5
47B
102
{ACAD_REACTORS
330
47A
102
}
330
47A
100
AcDbXrecord
280
     1
102
MATERIAL
148
0.0
149
0.0
149
0.0
 93
        0
 94
      127
282
     0
 72
     1
 77
     1
171
     1
175
     1
179
     1
273
     0
  0
XRECORD
  5
47F
102
{ACAD_REACTORS
330
47E
102
}
330
47E
100
AcDbXrecord
280
     1
102
MATERIAL
148
0.0
149
0.0
149
0.0
 93
        0
 94
      127
282
     0
 72
     1
 77
     1
171
     1
175
     1
179
     1
273
     0
  0
XRECORD
  5
463
102
{ACAD_REACTORS
330
462
102
}
330
462
100
AcDbXrecord
280
     1
102
RTVSPropertyOp0
 70
     1
102
RTVSPropertyOp1
 70
     1
102
RTVSPropertyOp2
 70
     1
102
RTVSPropertyOp3
 70
     1
102
RTVSPropertyOp4
 70
     1
102
RTVSPropertyOp5
 70
     1
102
RTVSPropertyOp6
 70
     1
102
RTVSPropertyOp7
 70
     1
102
RTVSPropertyOp8
 70
     1
102
RTVSPropertyOp9
 70
     1
102
RTVSPropertyOp10
 70
     1
102
RTVSPropertyOp11
 70
     1
102
RTVSPropertyOp12
 70
     1
102
RTVSPropertyOp13
 70
     1
102
RTVSPropertyOp14
 70
     1
102
RTVSPropertyOp15
 70
     1
102
RTVSPropertyOp16
 70
     1
102
RTVSPropertyOp17
 70
     1
102
RTVSPropertyOp18
 70
     1
102
RTVSPropertyOp19
 70
     1
102
RTVSPropertyOp20
 70
     1
102
RTVSPropertyOp21
 70
     1
102
RTVSPropertyOp22
 70
     1
102
RTVSPropertyOp23
 70
     1
102
RTVSPropertyOp24
 70
     1
102
RTVSPropertyOp25
 70
     1
102
RTVSPropertyOp26
 70
     1
102
RTVSPropertyOp27
 70
     1
  0
XRECORD
  5
467
102
{ACAD_REACTORS
330
466
102
}
330
466
100
AcDbXrecord
280
     1
102
RTVSPropertyOp0
 70
     1
102
RTVSPropertyOp1
 70
     1
102
RTVSPropertyOp2
 70
     1
102
RTVSPropertyOp3
 70
     1
102
RTVSPropertyOp4
 70
     1
102
RTVSPropertyOp5
 70
     1
102
RTVSPropertyOp6
 70
     1
102
RTVSPropertyOp7
 70
     1
102
RTVSPropertyOp8
 70
     1
102
RTVSPropertyOp9
 70
     1
102
RTVSPropertyOp10
 70
     1
102
RTVSPropertyOp11
 70
     1
102
RTVSPropertyOp12
 70
     1
102
RTVSPropertyOp13
 70
     1
102
RTVSPropertyOp14
 70
     1
102
RTVSPropertyOp15
 70
     1
102
RTVSPropertyOp16
 70
     1
102
RTVSPropertyOp17
 70
     1
102
RTVSPropertyOp18
 70
     1
102
RTVSPropertyOp19
 70
     1
102
RTVSPropertyOp20
 70
     1
102
RTVSPropertyOp21
 70
     1
102
RTVSPropertyOp22
 70
     1
102
RTVSPropertyOp23
 70
     1
102
RTVSPropertyOp24
 70
     1
102
RTVSPropertyOp25
 70
     1
102
RTVSPropertyOp26
 70
     1
102
RTVSPropertyOp27
 70
     1
  0
XRECORD
  5
465
102
{ACAD_REACTORS
330
464
102
}
330
464
100
AcDbXrecord
280
     1
102
RTVSPropertyOp0
 70
     1
102
RTVSPropertyOp1
 70
     1
102
RTVSPropertyOp2
 70
     1
102
RTVSPropertyOp3
 70
     1
102
RTVSPropertyOp4
 70
     1
102
RTVSPropertyOp5
 70
     1
102
RTVSPropertyOp6
 70
     1
102
RTVSPropertyOp7
 70
     1
102
RTVSPropertyOp8
 70
     1
102
RTVSPropertyOp9
 70
     1
102
RTVSPropertyOp10
 70
     1
102
RTVSPropertyOp11
 70
     1
102
RTVSPropertyOp12
 70
     1
102
RTVSPropertyOp13
 70
     1
102
RTVSPropertyOp14
 70
     1
102
RTVSPropertyOp15
 70
     1
102
RTVSPropertyOp16
 70
     1
102
RTVSPropertyOp17
 70
     1
102
RTVSPropertyOp18
 70
     1
102
RTVSPropertyOp19
 70
     1
102
RTVSPropertyOp20
 70
     1
102
RTVSPropertyOp21
 70
     1
102
RTVSPropertyOp22
 70
     1
102
RTVSPropertyOp23
 70
     1
102
RTVSPropertyOp24
 70
     1
102
RTVSPropertyOp25
 70
     1
102
RTVSPropertyOp26
 70
     1
102
RTVSPropertyOp27
 70
     1
  0
XRECORD
  5
469
102
{ACAD_REACTORS
330
468
102
}
330
468
100
AcDbXrecord
280
     1
102
RTVSPropertyOp0
 70
     1
102
RTVSPropertyOp1
 70
     1
102
RTVSPropertyOp2
 70
     1
102
RTVSPropertyOp3
 70
     1
102
RTVSPropertyOp4
 70
     1
102
RTVSPropertyOp5
 70
     1
102
RTVSPropertyOp6
 70
     1
102
RTVSPropertyOp7
 70
     1
102
RTVSPropertyOp8
 70
     1
102
RTVSPropertyOp9
 70
     1
102
RTVSPropertyOp10
 70
     1
102
RTVSPropertyOp11
 70
     1
102
RTVSPropertyOp12
 70
     1
102
RTVSPropertyOp13
 70
     1
102
RTVSPropertyOp14
 70
     1
102
RTVSPropertyOp15
 70
     1
102
RTVSPropertyOp16
 70
     1
102
RTVSPropertyOp17
 70
     1
102
RTVSPropertyOp18
 70
     1
102
RTVSPropertyOp19
 70
     1
102
RTVSPropertyOp20
 70
     1
102
RTVSPropertyOp21
 70
     1
102
RTVSPropertyOp22
 70
     1
102
RTVSPropertyOp23
 70
     1
102
RTVSPropertyOp24
 70
     1
102
RTVSPropertyOp25
 70
     1
102
RTVSPropertyOp26
 70
     1
102
RTVSPropertyOp27
 70
     1
  0
XRECORD
  5
471
102
{ACAD_REACTORS
330
470
102
}
330
470
100
AcDbXrecord
280
     1
102
RTVSPropertyOp0
 70
     1
102
RTVSPropertyOp1
 70
     1
102
RTVSPropertyOp2
 70
     1
102
RTVSPropertyOp3
 70
     1
102
RTVSPropertyOp4
 70
     1
102
RTVSPropertyOp5
 70
     1
102
RTVSPropertyOp6
 70
     1
102
RTVSPropertyOp7
 70
     1
102
RTVSPropertyOp8
 70
     1
102
RTVSPropertyOp9
 70
     1
102
RTVSPropertyOp10
 70
     1
102
RTVSPropertyOp11
 70
     1
102
RTVSPropertyOp12
 70
     1
102
RTVSPropertyOp13
 70
     1
102
RTVSPropertyOp14
 70
     1
102
RTVSPropertyOp15
 70
     1
102
RTVSPropertyOp16
 70
     1
102
RTVSPropertyOp17
 70
     1
102
RTVSPropertyOp18
 70
     1
102
RTVSPropertyOp19
 70
     1
102
RTVSPropertyOp20
 70
     1
102
RTVSPropertyOp21
 70
     1
102
RTVSPropertyOp22
 70
     1
102
RTVSPropertyOp23
 70
     1
102
RTVSPropertyOp24
 70
     1
102
RTVSPropertyOp25
 70
     1
102
RTVSPropertyOp26
 70
     1
102
RTVSPropertyOp27
 70
     1
  0
XRECORD
  5
479
102
{ACAD_REACTORS
330
478
102
}
330
478
100
AcDbXrecord
280
     1
102
RTVSPropertyOp0
 70
     1
102
RTVSPropertyOp1
 70
     1
102
RTVSPropertyOp2
 70
     1
102
RTVSPropertyOp3
 70
     1
102
RTVSPropertyOp4
 70
     1
102
RTVSPropertyOp5
 70
     1
102
RTVSPropertyOp6
 70
     1
102
RTVSPropertyOp7
 70
     1
102
RTVSPropertyOp8
 70
     1
102
RTVSPropertyOp9
 70
     1
102
RTVSPropertyOp10
 70
     1
102
RTVSPropertyOp11
 70
     1
102
RTVSPropertyOp12
 70
     1
102
RTVSPropertyOp13
 70
     1
102
RTVSPropertyOp14
 70
     1
102
RTVSPropertyOp15
 70
     1
102
RTVSPropertyOp16
 70
     1
102
RTVSPropertyOp17
 70
     1
102
RTVSPropertyOp18
 70
     1
102
RTVSPropertyOp19
 70
     1
102
RTVSPropertyOp20
 70
     1
102
RTVSPropertyOp21
 70
     1
102
RTVSPropertyOp22
 70
     1
102
RTVSPropertyOp23
 70
     1
102
RTVSPropertyOp24
 70
     1
102
RTVSPropertyOp25
 70
     1
102
RTVSPropertyOp26
 70
     1
102
RTVSPropertyOp27
 70
     1
  0
XRECORD
  5
46D
102
{ACAD_REACTORS
330
46C
102
}
330
46C
100
AcDbXrecord
280
     1
102
RTVSPropertyOp0
 70
     1
102
RTVSPropertyOp1
 70
     1
102
RTVSPropertyOp2
 70
     1
102
RTVSPropertyOp3
 70
     1
102
RTVSPropertyOp4
 70
     1
102
RTVSPropertyOp5
 70
     1
102
RTVSPropertyOp6
 70
     1
102
RTVSPropertyOp7
 70
     1
102
RTVSPropertyOp8
 70
     1
102
RTVSPropertyOp9
 70
     1
102
RTVSPropertyOp10
 70
     1
102
RTVSPropertyOp11
 70
     1
102
RTVSPropertyOp12
 70
     1
102
RTVSPropertyOp13
 70
     1
102
RTVSPropertyOp14
 70
     1
102
RTVSPropertyOp15
 70
     1
102
RTVSPropertyOp16
 70
     1
102
RTVSPropertyOp17
 70
     1
102
RTVSPropertyOp18
 70
     1
102
RTVSPropertyOp19
 70
     1
102
RTVSPropertyOp20
 70
     1
102
RTVSPropertyOp21
 70
     1
102
RTVSPropertyOp22
 70
     1
102
RTVSPropertyOp23
 70
     1
102
RTVSPropertyOp24
 70
     1
102
RTVSPropertyOp25
 70
     1
102
RTVSPropertyOp26
 70
     1
102
RTVSPropertyOp27
 70
     1
  0
XRECORD
  5
46F
102
{ACAD_REACTORS
330
46E
102
}
330
46E
100
AcDbXrecord
280
     1
102
RTVSPropertyOp0
 70
     1
102
RTVSPropertyOp1
 70
     1
102
RTVSPropertyOp2
 70
     1
102
RTVSPropertyOp3
 70
     1
102
RTVSPropertyOp4
 70
     1
102
RTVSPropertyOp5
 70
     1
102
RTVSPropertyOp6
 70
     1
102
RTVSPropertyOp7
 70
     1
102
RTVSPropertyOp8
 70
     1
102
RTVSPropertyOp9
 70
     1
102
RTVSPropertyOp10
 70
     1
102
RTVSPropertyOp11
 70
     1
102
RTVSPropertyOp12
 70
     1
102
RTVSPropertyOp13
 70
     1
102
RTVSPropertyOp14
 70
     1
102
RTVSPropertyOp15
 70
     1
102
RTVSPropertyOp16
 70
     1
102
RTVSPropertyOp17
 70
     1
102
RTVSPropertyOp18
 70
     1
102
RTVSPropertyOp19
 70
     1
102
RTVSPropertyOp20
 70
     1
102
RTVSPropertyOp21
 70
     1
102
RTVSPropertyOp22
 70
     1
102
RTVSPropertyOp23
 70
     1
102
RTVSPropertyOp24
 70
     1
102
RTVSPropertyOp25
 70
     1
102
RTVSPropertyOp26
 70
     1
102
RTVSPropertyOp27
 70
     1
  0
XRECORD
  5
477
102
{ACAD_REACTORS
330
476
102
}
330
476
100
AcDbXrecord
280
     1
102
RTVSPropertyOp0
 70
     1
102
RTVSPropertyOp1
 70
     1
102
RTVSPropertyOp2
 70
     1
102
RTVSPropertyOp3
 70
     1
102
RTVSPropertyOp4
 70
     1
102
RTVSPropertyOp5
 70
     1
102
RTVSPropertyOp6
 70
     1
102
RTVSPropertyOp7
 70
     1
102
RTVSPropertyOp8
 70
     1
102
RTVSPropertyOp9
 70
     1
102
RTVSPropertyOp10
 70
     1
102
RTVSPropertyOp11
 70
     1
102
RTVSPropertyOp12
 70
     1
102
RTVSPropertyOp13
 70
     1
102
RTVSPropertyOp14
 70
     1
102
RTVSPropertyOp15
 70
     1
102
RTVSPropertyOp16
 70
     1
102
RTVSPropertyOp17
 70
     1
102
RTVSPropertyOp18
 70
     1
102
RTVSPropertyOp19
 70
     1
102
RTVSPropertyOp20
 70
     1
102
RTVSPropertyOp21
 70
     1
102
RTVSPropertyOp22
 70
     1
102
RTVSPropertyOp23
 70
     1
102
RTVSPropertyOp24
 70
     1
102
RTVSPropertyOp25
 70
     1
102
RTVSPropertyOp26
 70
     1
102
RTVSPropertyOp27
 70
     1
  0
XRECORD
  5
45B
102
{ACAD_REACTORS
330
45A
102
}
330
45A
100
AcDbXrecord
280
     1
102
RTVSPropertyOp0
 70
     1
102
RTVSPropertyOp1
 70
     1
102
RTVSPropertyOp2
 70
     1
102
RTVSPropertyOp3
 70
     1
102
RTVSPropertyOp4
 70
     1
102
RTVSPropertyOp5
 70
     1
102
RTVSPropertyOp6
 70
     1
102
RTVSPropertyOp7
 70
     1
102
RTVSPropertyOp8
 70
     1
102
RTVSPropertyOp9
 70
     1
102
RTVSPropertyOp10
 70
     1
102
RTVSPropertyOp11
 70
     1
102
RTVSPropertyOp12
 70
     1
102
RTVSPropertyOp13
 70
     1
102
RTVSPropertyOp14
 70
     1
102
RTVSPropertyOp15
 70
     1
102
RTVSPropertyOp16
 70
     1
102
RTVSPropertyOp17
 70
     1
102
RTVSPropertyOp18
 70
     1
102
RTVSPropertyOp19
 70
     1
102
RTVSPropertyOp20
 70
     1
102
RTVSPropertyOp21
 70
     1
102
RTVSPropertyOp22
 70
     1
102
RTVSPropertyOp23
 70
     1
102
RTVSPropertyOp24
 70
     1
102
RTVSPropertyOp25
 70
     1
102
RTVSPropertyOp26
 70
     1
102
RTVSPropertyOp27
 70
     1
  0
XRECORD
  5
45D
102
{ACAD_REACTORS
330
45C
102
}
330
45C
100
AcDbXrecord
280
     1
102
RTVSPropertyOp0
 70
     1
102
RTVSPropertyOp1
 70
     1
102
RTVSPropertyOp2
 70
     1
102
RTVSPropertyOp3
 70
     1
102
RTVSPropertyOp4
 70
     1
102
RTVSPropertyOp5
 70
     1
102
RTVSPropertyOp6
 70
     1
102
RTVSPropertyOp7
 70
     1
102
RTVSPropertyOp8
 70
     1
102
RTVSPropertyOp9
 70
     1
102
RTVSPropertyOp10
 70
     1
102
RTVSPropertyOp11
 70
     1
102
RTVSPropertyOp12
 70
     1
102
RTVSPropertyOp13
 70
     1
102
RTVSPropertyOp14
 70
     1
102
RTVSPropertyOp15
 70
     1
102
RTVSPropertyOp16
 70
     1
102
RTVSPropertyOp17
 70
     1
102
RTVSPropertyOp18
 70
     1
102
RTVSPropertyOp19
 70
     1
102
RTVSPropertyOp20
 70
     1
102
RTVSPropertyOp21
 70
     1
102
RTVSPropertyOp22
 70
     1
102
RTVSPropertyOp23
 70
     1
102
RTVSPropertyOp24
 70
     1
102
RTVSPropertyOp25
 70
     1
102
RTVSPropertyOp26
 70
     1
102
RTVSPropertyOp27
 70
     1
  0
XRECORD
  5
45F
102
{ACAD_REACTORS
330
45E
102
}
330
45E
100
AcDbXrecord
280
     1
102
RTVSPropertyOp0
 70
     1
102
RTVSPropertyOp1
 70
     1
102
RTVSPropertyOp2
 70
     1
102
RTVSPropertyOp3
 70
     1
102
RTVSPropertyOp4
 70
     1
102
RTVSPropertyOp5
 70
     1
102
RTVSPropertyOp6
 70
     1
102
RTVSPropertyOp7
 70
     1
102
RTVSPropertyOp8
 70
     1
102
RTVSPropertyOp9
 70
     1
102
RTVSPropertyOp10
 70
     1
102
RTVSPropertyOp11
 70
     1
102
RTVSPropertyOp12
 70
     1
102
RTVSPropertyOp13
 70
     1
102
RTVSPropertyOp14
 70
     1
102
RTVSPropertyOp15
 70
     1
102
RTVSPropertyOp16
 70
     1
102
RTVSPropertyOp17
 70
     1
102
RTVSPropertyOp18
 70
     1
102
RTVSPropertyOp19
 70
     1
102
RTVSPropertyOp20
 70
     1
102
RTVSPropertyOp21
 70
     1
102
RTVSPropertyOp22
 70
     1
102
RTVSPropertyOp23
 70
     1
102
RTVSPropertyOp24
 70
     1
102
RTVSPropertyOp25
 70
     1
102
RTVSPropertyOp26
 70
     1
102
RTVSPropertyOp27
 70
     1
  0
XRECORD
  5
461
102
{ACAD_REACTORS
330
460
102
}
330
460
100
AcDbXrecord
280
     1
102
RTVSPropertyOp0
 70
     1
102
RTVSPropertyOp1
 70
     1
102
RTVSPropertyOp2
 70
     1
102
RTVSPropertyOp3
 70
     1
102
RTVSPropertyOp4
 70
     1
102
RTVSPropertyOp5
 70
     1
102
RTVSPropertyOp6
 70
     1
102
RTVSPropertyOp7
 70
     1
102
RTVSPropertyOp8
 70
     1
102
RTVSPropertyOp9
 70
     1
102
RTVSPropertyOp10
 70
     1
102
RTVSPropertyOp11
 70
     1
102
RTVSPropertyOp12
 70
     1
102
RTVSPropertyOp13
 70
     1
102
RTVSPropertyOp14
 70
     1
102
RTVSPropertyOp15
 70
     1
102
RTVSPropertyOp16
 70
     1
102
RTVSPropertyOp17
 70
     1
102
RTVSPropertyOp18
 70
     1
102
RTVSPropertyOp19
 70
     1
102
RTVSPropertyOp20
 70
     1
102
RTVSPropertyOp21
 70
     1
102
RTVSPropertyOp22
 70
     1
102
RTVSPropertyOp23
 70
     1
102
RTVSPropertyOp24
 70
     1
102
RTVSPropertyOp25
 70
     1
102
RTVSPropertyOp26
 70
     1
102
RTVSPropertyOp27
 70
     1
  0
XRECORD
  5
475
102
{ACAD_REACTORS
330
474
102
}
330
474
100
AcDbXrecord
280
     1
102
RTVSPropertyOp0
 70
     1
102
RTVSPropertyOp1
 70
     1
102
RTVSPropertyOp2
 70
     1
102
RTVSPropertyOp3
 70
     1
102
RTVSPropertyOp4
 70
     1
102
RTVSPropertyOp5
 70
     1
102
RTVSPropertyOp6
 70
     1
102
RTVSPropertyOp7
 70
     1
102
RTVSPropertyOp8
 70
     1
102
RTVSPropertyOp9
 70
     1
102
RTVSPropertyOp10
 70
     1
102
RTVSPropertyOp11
 70
     1
102
RTVSPropertyOp12
 70
     1
102
RTVSPropertyOp13
 70
     1
102
RTVSPropertyOp14
 70
     1
102
RTVSPropertyOp15
 70
     1
102
RTVSPropertyOp16
 70
     1
102
RTVSPropertyOp17
 70
     1
102
RTVSPropertyOp18
 70
     1
102
RTVSPropertyOp19
 70
     1
102
RTVSPropertyOp20
 70
     1
102
RTVSPropertyOp21
 70
     1
102
RTVSPropertyOp22
 70
     1
102
RTVSPropertyOp23
 70
     1
102
RTVSPropertyOp24
 70
     1
102
RTVSPropertyOp25
 70
     1
102
RTVSPropertyOp26
 70
     1
102
RTVSPropertyOp27
 70
     1
  0
XRECORD
  5
46B
102
{ACAD_REACTORS
330
46A
102
}
330
46A
100
AcDbXrecord
280
     1
102
RTVSPropertyOp0
 70
     1
102
RTVSPropertyOp1
 70
     1
102
RTVSPropertyOp2
 70
     1
102
RTVSPropertyOp3
 70
     1
102
RTVSPropertyOp4
 70
     1
102
RTVSPropertyOp5
 70
     1
102
RTVSPropertyOp6
 70
     1
102
RTVSPropertyOp7
 70
     1
102
RTVSPropertyOp8
 70
     1
102
RTVSPropertyOp9
 70
     1
102
RTVSPropertyOp10
 70
     1
102
RTVSPropertyOp11
 70
     1
102
RTVSPropertyOp12
 70
     1
102
RTVSPropertyOp13
 70
     1
102
RTVSPropertyOp14
 70
     1
102
RTVSPropertyOp15
 70
     1
102
RTVSPropertyOp16
 70
     1
102
RTVSPropertyOp17
 70
     1
102
RTVSPropertyOp18
 70
     1
102
RTVSPropertyOp19
 70
     1
102
RTVSPropertyOp20
 70
     1
102
RTVSPropertyOp21
 70
     1
102
RTVSPropertyOp22
 70
     1
102
RTVSPropertyOp23
 70
     1
102
RTVSPropertyOp24
 70
     1
102
RTVSPropertyOp25
 70
     1
102
RTVSPropertyOp26
 70
     1
102
RTVSPropertyOp27
 70
     1
  0
XRECORD
  5
473
102
{ACAD_REACTORS
330
472
102
}
330
472
100
AcDbXrecord
280
     1
102
RTVSPropertyOp0
 70
     1
102
RTVSPropertyOp1
 70
     1
102
RTVSPropertyOp2
 70
     1
102
RTVSPropertyOp3
 70
     1
102
RTVSPropertyOp4
 70
     1
102
RTVSPropertyOp5
 70
     1
102
RTVSPropertyOp6
 70
     1
102
RTVSPropertyOp7
 70
     1
102
RTVSPropertyOp8
 70
     1
102
RTVSPropertyOp9
 70
     1
102
RTVSPropertyOp10
 70
     1
102
RTVSPropertyOp11
 70
     1
102
RTVSPropertyOp12
 70
     1
102
RTVSPropertyOp13
 70
     1
102
RTVSPropertyOp14
 70
     1
102
RTVSPropertyOp15
 70
     1
102
RTVSPropertyOp16
 70
     1
102
RTVSPropertyOp17
 70
     1
102
RTVSPropertyOp18
 70
     1
102
RTVSPropertyOp19
 70
     1
102
RTVSPropertyOp20
 70
     1
102
RTVSPropertyOp21
 70
     1
102
RTVSPropertyOp22
 70
     1
102
RTVSPropertyOp23
 70
     1
102
RTVSPropertyOp24
 70
     1
102
RTVSPropertyOp25
 70
     1
102
RTVSPropertyOp26
 70
     1
102
RTVSPropertyOp27
 70
     1
  0
ENDSEC
  0
SECTION
  2
THUMBNAILIMAGE
 90
    45386
310
28000000D2000000D1000000010008000000000014AD000000000000000000000000000000000000000000000000330000006600000099000000CC000000FF00003300000033330000336600003399000033CC000033FF00006600000066330000666600006699000066CC000066FF00009900000099330000996600009999
310
000099CC000099FF0000CC000000CC330000CC660000CC990000CCCC0000CCFF0000FF000000FF330000FF660000FF990000FFCC0000FFFF00330000003300330033006600330099003300CC003300FF00333300003333330033336600333399003333CC003333FF00336600003366330033666600336699003366CC003366
310
FF00339900003399330033996600339999003399CC003399FF0033CC000033CC330033CC660033CC990033CCCC0033CCFF0033FF000033FF330033FF660033FF990033FFCC0033FFFF00660000006600330066006600660099006600CC006600FF00663300006633330066336600663399006633CC006633FF006666000066
310
66330066666600666699006666CC006666FF00669900006699330066996600669999006699CC006699FF0066CC000066CC330066CC660066CC990066CCCC0066CCFF0066FF000066FF330066FF660066FF990066FFCC0066FFFF00990000009900330099006600990099009900CC009900FF00993300009933330099336600
310
993399009933CC009933FF00996600009966330099666600996699009966CC009966FF00999900009999330099996600999999009999CC009999FF0099CC000099CC330099CC660099CC990099CCCC0099CCFF0099FF000099FF330099FF660099FF990099FFCC0099FFFF00CC000000CC003300CC006600CC009900CC00CC
310
00CC00FF00CC330000CC333300CC336600CC339900CC33CC00CC33FF00CC660000CC663300CC666600CC669900CC66CC00CC66FF00CC990000CC993300CC996600CC999900CC99CC00CC99FF00CCCC0000CCCC3300CCCC6600CCCC9900CCCCCC00CCCCFF00CCFF0000CCFF3300CCFF6600CCFF9900CCFFCC00CCFFFF00FF00
310
0000FF003300FF006600FF009900FF00CC00FF00FF00FF330000FF333300FF336600FF339900FF33CC00FF33FF00FF660000FF663300FF666600FF669900FF66CC00FF66FF00FF990000FF993300FF996600FF999900FF99CC00FF99FF00FFCC0000FFCC3300FFCC6600FFCC9900FFCCCC00FFCCFF00FFFF0000FFFF3300FF
310
FF6600FFFF9900FFFFCC00FFFFFF0000000000000000000000000000000000000000000000000000000000000000000000000000000000000000000000000000000000000000000000000000000000000000000000000000000000000000000000000000000000000000000000000000000000000000000000000000000000
310
000000000000000000000000000000000000000000000000000000000000000000000000000000000000000000000000D7D7D7D7D7D7D7D7D7D7D7D7D7D7D7D7D7D7D7D7D7D7D7D7D7D7D7D7D7D7D7D7D7D7D7D7D7D7D7D7D7D7D7D7D7D7D7D7D7D7D7D7D7D7D7D7D7D7D7D7D7D7D7D7D7D7D7D7D7D7D7D7D7D7D7D7D7D7D7
310
D7D7D7D7D7D7D7D7D7D7D7D7D7D7D7D7D7D7D7D7D7D7D7D7D7D7D7D7D7D7D7D7D7D7D7D7D7D7D7D7D7D7D7D7D7D7D7D7D7D7D7D7D7D7D7D7D7D7D7D7D7D7D7D7D7D7D7D7D7D7D7D7D7D7D7D7D7D7D7D7D7D7D7D7D7D7D7D7D7D7D7D7D7D7D7D7D7D7D7D7D7D7D7D7D7D7D7D7D7D7D7D7D7D7D7D7D7D7D7D7D7D7D7D7D7D7D7
310
D7D7D7D70000D7D7D7D7D7D7D7D7D7D7D7D7D7D7D7D7D7D7D7D7D7D7D7D7D7D7D7D7D7D7D7D7D7D7D7D7D7D7D7D7D7D7D7D7D7D7D7D7D7D7D7D7D7D7D7D7D7D7D7D7D7D7D7D7D7D7D7D7D7D7D7D7D7D7D7D7D7D7D7D7D7D7D7D7D7D7D7D7D7D7D7D7D7D7D7D7D7D7D7D7D7D7D7D7D7D7D7D7D7D7D7D7D7D7D7D7D7D7D7D7D7
310
D7D7D7D7D7D7D7D7D7D7D7D7D7D7D7D7D7D7D7D7D7D7D7D7D7D7D7D7D7D7D7D7D7D7D7D7D7D7D7D7D7D7D7D7D7D7D7D7D7D7D7D7D7D7D7D7D7D7D7D7D7D7D7D7D7D7D7D7D7D7D7D7D7D7D7D7D7D7D7D7D7D7D7D7D7D7D7D7D70000D7D7D7D7D7D7D7D7D7D7D7D7D7D7D7D7D7D7D7D7D7D7D7D7D7D7D7D7D7D7D7D7D7D7D7D7
310
D7D7D7D7D7D7D7D7D7D7D7D7D7D7D7D7D7D7D7D7D7D7D7D7D7D7D7D7D7D7D7D7D7D7D7D7D7D7D7D7D7D7D7D7D7D7D7D7D7D7D7D7D7D7D7D7D7D7D7D7D7D7D7D7D7D7D7D7D7D7D7D7D7D7D7D7D7D7D7D7D7D7D7D7D7D7D7D7D7D7D7D7D7D7D7D7D7D7D7D7D7D7D7D7D7D7D7D7D7D7D7D7D7D7D7D7D7D7D7D7D7D7D7D7D7D7D7
310
D7D7D7D7D7D7D7D7D7D7D7D7D7D7D7D7D7D7D7D7D7D7D7D7D7D7D7D7D7D7D7D7D7D7D7D7D7D7D7D7D7D7D7D7D7D7D70000D7D7D7D7D7D7D7D7D7D7D7D7D7D7D7D7D7D7D7D7D7D7D7D7D7D7D7D7D7D7D7D7D7D7D7D7D7D7D7D7D7D7D7D7D7D7D7D7D7D7D7D7D7D7D7D7D7D7D7D7D7D7D7D7D7D7D7D7D7D7D7D7D7D7D7D7D7D7
310
D7D7D7D7D7D7D7D7D7D7D7D7D7D7D7D7D7D7D7D7D7D7D7D7D7D7D7D7D7D7D7D7D7D7D7D7D7D7D7D7D7D7D7D7D7D7D7D7D7D7D7D7D7D7D7D7D7D7D7D7D7D7D7D7D7D7D7D7D7D7D7D7D7D7D7D7D7D7D7D7D7D7D7D7D7D7D7D7D7D7D7D7D7D7D7D7D7D7D7D7D7D7D7D7D7D7D7D7D7D7D7D7D7D7D7D7D7D7D7D7D7D7D7D7D7D7D7
310
D7D7D7D7D70000D7D7D7D7D7D7D7D7D7D7D7D7D7D7D7D7D7D7D7D7D7D7D7D7D7D7D7D7D7D7D7D7D7D7D7D7D7D7D7D7D7D7D7D7D7D7D7D7D7D7D7D7D7D7D7D7D7D7D7D7D7D7D7D7D7D7D7D7D7D7D7D7D7D7D7D7D7D7D7D7D7D7D7D7D7D7D7D7D7D7D7D7D7D7D7D7D7D7D7D7D7D7D7D7D7D7D7D7D7D7D7D7D7D7D7D7D7D7D7D7
310
D7D7D7D7D7D7D7D7D7D7D7D7D7D7D7D7D7D7D7D7D7D7D7D7D7D7D7D7D7D7D7D7D7D7D7D7D7D7D7D7D7D7D7D7D7D7D7D7D7D7D7D7D7D7D7D7D7D7D7D7D7D7D7D7D7D7D7D7D7D7D7D7D7D7D7D7D7D7D7D7D7D7D7D7D7D7D7D7D7D70000D7D7D7D7D7D7D7D7D7D7D7D7D7D7D7D7D7D7D7D7D7D7D7D7D7D7D7D7D7D7D7D7D7D7D7
310
D7D7D7D7D7D7D7D7D7D7D7D7D7D7D7D7D7D7D7D7D7D7D7D7D7D7D7D7D7D7D7D7D7D7D7D7D7D7D7D7D7D7D7D7D7D7D7D7D7D7D7D7D7D7D7D7D7D7D7D7D7D7D7D7D7D7D7D7D7D7D7D7D7D7D7D7D7D7D7D7D7D7D7D7D7D7D7D7D7D7D7D7D7D7D7D7D7D7D7D7D7D7D7D7D7D7D7D7D7D7D7D7D7D7D7D7D7D7D7D7D7D7D7D7D7D7D7
310
D7D7D7D7D7D7D7D7D7D7D7D7D7D7D7D7D7D7D7D7D7D7D7D7D7D7D7D7D7D7D7D7D7D7D7D7D7D7D7D7D7D7D7D7D7D7D7D70000D7D7D7D7D7D7D7D7D7D7D7D7D7D7D7D7D7D7D7D7D7D7D7D7D7D7D7D7D7D7D7D7D7D7D7D7D7D7D7D7D7D7D7D7D7D7D7D7D7D7D7D7D7D7D7D7D7D7D7D7D7D7D7D7D7D7D7D7D7D7D7D7D7D7D7D7D7
310
D7D7D7D7D7D7D7D7D7D7D7D7D7D7D7D7D7D7D7D7D7D7D7D7D7D7D7D7D7D7D7D7D7D7D7D7D7D7D7D7D7D7D7D7D7D7D7D7D7D7D7D7D7D7D7D7D7D7D7D7D7D7D7D7D7D7D7D7D7D7D7D7D7D7D7D7D7D7D7D7D7D7D7D7D7D7D7D7D7D7D7D7D7D7D7D7D7D7D7D7D7D7D7D7D7D7D7D7D7D7D7D7D7D7D7D7D7D7D7D7D7D7D7D7D7D7D7
310
D7D7D7D7D7D70000D7D7D7D7D7D7D7D7D7D7D7D7D7D7D7D7D7D7D7D7D7D7D7D7D7D7D7D7D7D7D7D7D7D7D7D7D7D7D7D7D7D7D7D7D7D7D7D7D7D7D7D7D7D7D7D7D7D7D7D7D7D7D7D7D7D7D7D7D7D7D7D7D7D7D7D7D7D7D7D7D7D7D7D7D7D7D7D7D7D7D7D7D7D7D7D7D7D7D7D7D7D7D7D7D7D7D7D7D7D7D7D7D7D7D7D7D7D7D7
310
D7D7D7D7D7D7D7D7D7D7D7D7D7D7D7D7D7D7D7D7D7D7D7D7D7D7D7D7D7D7D7D7D7D7D7D7D7D7D7D7D7D7D7D7D7D7D7D7D7D7D7D7D7D7D7D7D7D7D7D7D7D7D7D7D7D7D7D7D7D7D7D7D7D7D7D7D7D7D7D7D7D7D7D7D7D7D7D7D7D7D70000D7D7D7D7D7D7D7D7D7D7D7D7D7D7D7D7D7D7D7D7D7D7D7D7D7D7D7D7D7D7D7D7D7D7
310
D7D7D7D7D7D7D7D7D7D7D7D7D7D7D7D7D7D7D7D7D7D7D7D7D7D7D7D7D7D7D7D7D7D7D7D7D7D7D7D7D7D7D7D7D7D7D7D7D7D7D7D7D7D7D7D7D7D7D7D7D7D7D7D7D7D7D7D7D7D7D7D7D7D7D7D7D7D7D7D7D7D7D7D7D7D7D7D7D7D7D7D7D7D7D7D7D7D7D7D7D7D7D7D7D7D7D7D7D7D7D7D7D7D7D7D7D7D7D7D7D7D7D7D7D7D7D7
310
D7D7D7D7D7D7D7D7D7D7D7D7D7D7D7D7D7D7D7D7D7D7D7D7D7D7D7D7D7D7D7D7D7D7D7D7D7D7D7D7D7D7D7D7D7D7D7D7D70000D7D7D7D7D7D7D7D7D700000000000000000000000000000000000000000000000000000000000000000000000000000000000000000000000000000000000000000000000000000000000000
310
0000000000000000000000000000000000000000000000000000000000000000000000000000000000000000000000000000000000000000000000000000000000000000000000000000000000000000000000000000000000000000000000000000000000000000000000000000000000000000000000000000000000D7D7
310
D7D7D7D7D7D7D70000D7D7D7D7D7D7D7D7D700D7D7D7D7D7D7D7D7D7D7D7D7D7D7D7D7D7D7D7D7D7D7D7D7D7D7D7D7D7D7D7D7D7D7D7D7D7D7D7D7D7D7D7D7D7D7D7D7D7D7D7D7D7D7D7D7D7D7D7D7D7D7D7D7D7D7D7D7D7D7D7D7D7D7D7D7D7D7D7D7D7D7D7D7D7D7D7D7D7D7D7D7D7D7D7D7D7D7D7D7D7D7D7D7D7D7D7D7
310
D7D7D7D7D7D7D7D7D7D7D7D7D7D7D7D7D7D7D7D7D7D7D7D7D7D7D7D7D7D7D7D7D7D7D7D7D7D7D7D7D7D7D7D7D7D7D7D7D7D7D7D7D7D7D7D7D7D7D7D7D7D7D7D7D7D7D7D7D7D7D7D7D7D7D7D7D7D7D7D7D7D700D7D7D7D7D7D7D7D7D70000D7D7D7D7D7D7D7D7D700D7D7D7D7D7D7D7D7D7D7D7D7D7D7D7D7D7D7D7D7D7D7D7
310
D7D7D7D7D7D7D7D7D7D7D7D7D7D7D7D7D7D7D7D7D7D7D7D7D7D7D7D7D7D7D7D7D7D7D7D7D7D7D7D7D7D7D7D7D7D7D7D7D7D7D7D7D7D7D7D7D7D7D7D7D7D7D7D7D7D7D7D7D7D7D7D7D7D7D7D7D7D7D7D7D7D7D7D7D7D7D7D7D7D7D7D7D7D7D7D7D7D7D7D7D7D7D7D7D7D7D7D7D7D7D7D7D7D7D7D7D7D7D7D7D7D7D7D7D7D7D7
310
D7D7D7D7D7D7D7D7D7D7D7D7D7D7D7D7D7D7D7D7D7D7D7D7D7D7D7D7D7D7D7D7D7D7D7D7D7D7D7D700D7D7D7D7D7D7D7D7D70000D7D7D7D7D7D7D7D7D700D7D7D7D7D7D7D7D7D7D7D7D7D7D7D7D7D7D7D7D7D7D7D7D7D7D7D7D7D7D7D7D7D7D7D7D7D7D7D7D7D7D7D7D7D7D7D7D7D7D7D7D7D7D7D7D7D7D7D7D7D7D7D7D7D7
310
D7D7D7D7D7D7D7D7D7D7D7D7D7D7D7D7D7D7D7D7D7D7D7D7D7D7D7D7D7D7D7D7D7D7D7D7D7D7D7D7D7D7D7D7D7D7D7D7D7D7D7D7D7D7D7D7D7D7D7D7D7D7D7D7D7D7D7D7D7D7D7D7D7D7D7D7D7D7D7D7D7D7D7D7D7D7D7D7D7D7D7D7D7D7D7D7D7D7D7D7D7D7D7D7D7D7D7D7D7D7D7D7D7D7D7D7D7D7D7D7D7D7D7D7D700D7
310
D7D7D7D7D7D7D7D70000D7D7D7D7D7D7D7D7D700D7D7D7D7D7D7D7D7D7D7D7D7D7D7D7D7D7D7D7D7D7D7D7D7D7D7D7D7D7D7D7D7D7D7D7D7D7D7D7D7D7D7D7D7D7D7D7D7D7D7D7D7D7D7D7D7D7D7D7D7D7D7D7D7D7D7D7D7D7D7D7D7D7D7D7D7D7D7D7D7D7D7D7D7D7D7D7D7D7D7D7D7D7D7D7D7D7D7D7D7D7D7D7D7D7D7D7
310
D7D7D7D7D7D7D7D7D7D7D7D7D7D7D7D7D7D7D7D7D7D7D7D7D7D7D7D7D7D7D7D7D7D7D7D7D7D7D7D7D7D7D7D7D7D7D7D7D7D7D7D7D7D7D7D7D7D7D7D7D7D7D7D7D7D7D7D7D7D7D7D7D7D7D7D7D7D7D7D7D7D7D700D7D7D7D7D7D7D7D7D70000D7D7D7D7D7D7D7D7D700D7D7D7D7D7D7D7D7D7D7D7D7D7D7D7D7D7D7D7D7D7D7
310
D7D7D7D7D7D7D7D7D7D7D7D7D7D7D7D7D7D7D7D7D7D7D7D7D7D7D7D7D7D7D7D7D7D7D7D7D7D7D7D7D7D7D7D7D7D7D7D7D7D7D7D7D7D7D7D7D7D7D7D7D7D7D7D7D7D7D7D7D7D7D7D7D7D7D7D7D7D7D7D7D7D7D7D7D7D7D7D7D7D7D7D7D7D7D7D7D7D7D7D7D7D7D7D7D7D7D7D7D7D7D7D7D7D7D7D7D7D7D7D7D7D7D7D7D7D7D7
310
D7D7D7D7D7D7D7D7D7D7D7D7D7D7D7D7D7D7D7D7D7D7D7D7D7D7D7D7D7D7D7D7D7D7D7D7D7D7D7D7D700D7D7D7D7D7D7D7D7D70000D7D7D7D7D7D7D7D7D700D7D7D7D7D7D7D7D7D7D7D7D7D7D7D7D7D7D7D7D7D7D7D7D7D7D7D7D7D7D7D7D7D7D7D7D7D7D7D7D7D7D7D7D7D7D7D7D7D7D7D7D7D7D7D7D7D7D7D7D7D7D7D7D7
310
D7D7D7D7D7D7D7D7D7D7D7D7D7D7D7D7D7D7D7D7D7D7D7D7D7D7D7D7D7D7D7D7D7D7D7D7D7D7D7D7D7D7D7D7D7D7D7D7D7D7D7D7D7D7D7D7D7D7D7D7D7D7D7D7D7D7D7D7D7D7D7D7D7D7D7D7D7D7D7D7D7D7D7D7D7D7D7D7D7D7D7D7D7D7D7D7D7D7D7D7D7D7D7D7D7D7D7D7D7D7D7D7D7D7D7D7D7D7D7D7D7D7D7D7D7D700
310
D7D7D7D7D7D7D7D7D70000D7D7D7D7D7D7D7D7D700D7D7D7D7D7D7D7D7D7D7D7D7D7D7D7D7D7D7D7D7D7D7D7D7D7D7D7D7D7D7D7D7D7D7D7D7D7D7D7D7D7D7D7D7D7D7D7D7D7D7D7D7D7D7D7D7D7D7D7D7D7D7D7D7D7D7D7D7D7D7D7D7D7D7D7D7D7D7D7D7D7D7D7D7D7D7D7D7D7D7D7D7D7D7D7D7D7D7D7D7D7D7D7D7D7D7
310
D7D7D7D7D7D7D7D7D7D7D7D7D7D7D7D7D7D7D7D7D7D7D7D7D7D7D7D7D7D7D7D7D7D7D7D7D7D7D7D7D7D7D7D7D7D7D7D7D7D7D7D7D7D7D7D7D7D7D7D7D7D7D7D7D7D7D7D7D7D7D7D7D7D7D7D7D7D7D7D7D7D7D7D700D7D7D7D7D7D7D7D7D70000D7D7D7D7D7D7D7D7D700D7D7D7D7D7D7D7D7D7D7D7D700D70000D7D7000000
310
0000D7D7D700000000D7D7D7000000D7000000D7D700D7D7D70000D7000000D70000D7D700D70000D7D70000D70000D7D70000D7D70000D70000D7D70000D7D7D7D7D7D7D7D7D7D7D7D7D7D7D7D7D7D7D7D7D7D7D7D7D7D7D7D7D7D7D7D7D7D7D7D7D7D7D7D7D7D7D7D7D7D7D7D7D7D7D7D7D7D7D7D7D7D7D7D7D7D7D7D7D7
310
D7D7D7D7D7D7D7D7D7D7D7D7D7D7D7D7D7D7D7D7D7D7D7D7D7D7D7D7D7D7D7D7D7D7D7D7D7D7D7D7D7D700D7D7D7D7D7D7D7D7D70000D7D7D7D7D7D7D7D7D700D7D7D7D7D700D7D7D7D700D700D70000D7D7000000D700D7D7D700000000D7D7D70000D7D7000000D7D700D7D7D700D7D7000000D70000D70000D70000D7D7
310
0000D70000D7D70000D7D70000D70000D7D70000D7D7D7D7D7D7D7D7D7D7D7D7D7D7D7D7D7D7D7D7D7D7D7D7D7D7D7D7D7D7D7D7D7D7D7D7D7D7D7D7D7D7D7D7D7D7D7D7D7D7D7D7D7D7D7D7D7D7D7D7D7D7D7D7D7D7D7D7D7D7D7D7D7D7D7D7D7D7D7D7D7D7D7D7D7D7D7D7D7D7D7D7D7D7D7D7D7D7D7D7D7D7D7D7D7D7D7
310
00D7D7D7D7D7D7D7D7D70000D7D7D7D7D7D7D7D7D700D7D7D7D7D700D7D7D7D70000D7D7D7D7D7D7D7D7D7D700D7D7D7D700D7D7D7D7D7D700D7D7D7D7D7D7D7D7D7D7D7D7D7D700D7D7D7D7D7D700D7D7D7D7D7D7D7D7D7D7D7D7D7D7D7D7D7D7D7D7D7D7D7D7D7D7D7D7D7D7D7D7D7D7D7D7D7D7D7D7D7D7D7D7D7D7D7D7
310
D7D7D7D7D7D7D7D7D7D7D7D7D7D7D7D7D7D7D7D7D7D7D7D7D7D7D7D7D7D7D7D7D7D7D7D7D7D7D7D7D7D7D7D7D7D7D7D7D7D7D7D7D7D7D7D7D7D7D7D7D7D7D7D7D7D7D7D7D7D7D7D7D7D7D7D7D7D7D7D7D7D7D7D7D700D7D7D7D7D7D7D7D7D70000D7D7D7D7D7D7D7D7D700D7D7D7D7D7D7D7D7D7D7D7D7D7D7D7D7D7D7D7D7
310
D7D7D7D7D7D7D7D7D7D7D7D7D7D7D7D7D7D7D7D7D7D7D7D7D7D7D7D7D7D7D7D7D7D7D7D7D7D7D7D7D7D7D7D7D7D7D7D7D7D7D7D7D7D7D7D7D7D7D7D7D7D7D7D7D7D7D7D7D7D7D7D7D7D7D7D7D7D7D7D7D7D7D7D7D7D7D7D7D7D7D7D7D7D7D7D7D7D7D7D7D7D7D7D7D7D7D7D7D7D7D7D7D7D7D7D7D7D7D7D7D7D7D7D7D7D7D7
310
D7D7D7D7D7D7D7D7D7D7D7D7D7D7D7D7D7D7D7D7D7D7D7D7D7D7D7D7D7D7D7D7D7D7D7D7D7D7D7D7D7D7D700D7D7D7D7D7D7D7D7D70000D7D7D7D7D7D7D7D7D700D7D7D7D7D7D7D7D7D7D7D7D7D7D7D7D7D7D7D7D7D7D7D7D7D7D7D7D7D7D7D7D7D7D7D7D7D7D7D7D7D7D7D7D7D7D7D7D7D7D7D7D7D7D7D7D7D7D7D7D7D7D7
310
D7D7D7D7D7D7D7D7D7D7D7D7D7D7D7D7D7D7D7D7D7D7D7D7D7D7D7D7D7D7D7D7D7D7D7D7D7D7D7D7D7D7D7D7D7D7D7D7D7D7D7D7D7D7D7D7D7D7D7D7D7D7D7D7D7D7D7D7D7D7D7D7D7D7D7D7D7D7D7D7D7D7D7D7D7D7D7D7D7D7D7D7D7D7D7D7D7D7D7D7D7D7D7D7D7D7D7D7D7D7D7D7D7D7D7D7D7D7D7D7D7D7D7D7D7D7D7
310
D700D7D7D7D7D7D7D7D7D70000D7D7D7D7D7D7D7D7D700D7D7D7D7D7D7D7D7D7D7D7D7D7D7D7D7D7D7D7D7D7D7D7D7D7D7D7D7D7D7D7D7D7D7D7D7D7D7D7D7D7D7D7D7D7D7D7D7D7D7D7D7D7D7D7D7D7D7D7D7D7D7D7D7D7D7D7D7D7D7D7D7D7D7D7D7D7D7D7D7D7D7D7D7D7D7D7D7D7D7D7D7D7D7D7D7D7D7D7D7D7D7D7D7
310
D7D7D7D7D7D7D7D7D7D7D7D7D7D7D7D7D7D7D7D7D7D7D7D7D7D7D7D7D7D7D7D7D7D7D7D7D7D7D7D7D7D7D7D7D7D7D7D7D7D7D7D7D7D7D7D7D7D7D7D7D7D7D7D7D7D7D7D7D7D7D7D7D7D7D7D7D7D7D7D7D7D7D7D7D7D700D7D7D7D7D7D7D7D7D70000D7D7D7D7D7D7D7D7D700D7D7D7D7D7D7D7D7D7D7D7D7D7D7D7D7D7D7D7
310
D7D7D7D7D7D7D7D7D7D7D7D7D7D7D7D7D7D7D7D7D7D7D7D7D7D7D7D7D7D7D7D7D7D7D7D7D7D7D7D7D7D7D7D7D7D7D7D7D7D7D7D7D7D7D7D7D7D7D7D7D7D7D7D7D7D7D7D7D7D7D7D7D7D7D7D7D7D7D7D7D7D7D7D7D7D7D7D7D7D7D7D7D7D7D7D7D7D7D7D7D7D7D7D7D7D7D7D7D7D7D7D7D7D7D7D7D7D7D7D7D7D7D7D7D7D7D7
310
D7D7D7D7D7D7D7D7D7D7D7D7D7D7D7D7D7D7D7D7D7D7D7D7D7D7D7D7D7D7D7D7D7D7D7D7D7D7D7D7D7D7D7D700D7D7D7D7D7D7D7D7D70000D7D7D7D7D7D7D7D7D700D7D7D7D7D7D7D7D7D7D7D7D7D7D7D7D7D7D7D7D7D7D7D7D7D7D7D7D7D7D7D7D7D7D7D7D7D7D7D7D7D7D7D7D7D7D7D7D7D7D7D7D7D7D7D7D7D7D7D7D7D7
310
D7D7D7D7D7D7D7D7D7D7D7D7D7D7D7D7D7D7D7D7D7D7D7D7D7D7D7D7D7D7D7D7D7D7D7D7D7D7D7D7D7D7D7D7D7D7D7D7D7D7D7D7D7D7D7D7D7D7D7D7D7D7D7D7D7D7D7D7D7D7D7D7D7D7D7D7D7D7D7D7D7D7D7D7D7D7D7D7D7D7D7D7D7D7D7D7D7D7D7D7D7D7D7D7D7D7D7D7D7D7D7D7D7D7D7D7D7D7D7D7D7D7D7D7D7D7D7
310
D7D700D7D7D7D7D7D7D7D7D70000D7D7D7D7D7D7D7D7D700D7D7D7D70000D7D7D7D7D7D7D7D7D7D7D7D700D7000000000000D7D70000D7D7D7000000D70000D70000D7D7000000D7D70000D7D70000D7D70000D7000000D7D7000000D700D7D7D7D7D7D7D7D7D7D7D7D7D7D7D7D7D7D7D7D7D7D7D7D7D7D7D7D7D7D7D7D7D7
310
D7D7D7D7D7D7D7D7D7D7D7D7D7D7D7D7D7D7D7D7D7D7D7D7D7D7D7D7D7D7D7D7D7D7D7D7D7D7D7D7D7D7D7D7D7D7D7D7D7D7D7D7D7D7D7D7D7D7D7D7D7D7D7D7D7D7D7D7D7D7D7D7D7D7D7D7D7D7D7D7D7D7D7D7D7D7D700D7D7D7D7D7D7D7D7D70000D7D7D7D7D7D7D7D7D700D7D7D7D7D700D700D700D7D70000D7D7D7D7
310
00D7D70000D7D700D7D70000D7D7D70000D7D70000D7D700D7D7D70000D7D70000D7D700D7D70000D7D7000000D7D7000000D7D7D7D7D7D7D7D7D7D7D7D7D7D7D7D7D7D7D7D7D7D7D7D7D7D7D7D7D7D7D7D7D7D7D7D7D7D7D7D7D7D7D7D7D7D7D7D7D7D7D7D7D7D7D7D7D7D7D7D7D7D7D7D7D7D7D7D7D7D7D7D7D7D7D7D7D7
310
D7D7D7D7D7D7D7D7D7D7D7D7D7D7D7D7D7D7D7D7D7D7D7D7D7D7D7D7D7D7D7D7D7D7D7D7D7D7D7D7D7D7D7D7D700D7D7D7D7D7D7D7D7D70000D7D7D7D7D7D7D7D7D700D7D7D7D70000D7D7D700D7D7D7D7D700D7D700D7D7D7D7D7D7D7D7D7D7D7D7D7D7D7D7D7D700D7D7D7D7D7D7D7D700D7D7D7D7D7D7D7D7D7D7D7D7D7
310
D7D7D7D7D70000D7D7D7D7D7D7D7D7D7D7D7D7D7D7D7D7D7D7D7D7D7D7D7D7D7D7D7D7D7D7D7D7D7D7D7D7D7D7D7D7D7D7D7D7D7D7D7D7D7D7D7D7D7D7D7D7D7D7D7D7D7D7D7D7D7D7D7D7D7D7D7D7D7D7D7D7D7D7D7D7D7D7D7D7D7D7D7D7D7D7D7D7D7D7D7D7D7D7D7D7D7D7D7D7D7D7D7D7D7D7D7D7D7D7D7D7D7D7D7D7
310
D7D7D700D7D7D7D7D7D7D7D7D70000D7D7D7D7D7D7D7D7D700D7D7D7D7D7D7D7D7D7D7D7D7D7D7D7D7D7D7D7D7D7D7D7D7D7D7D7D7D7D7D7D7D7D7D7D7D7D7D7D7D7D7D7D7D7D7D7D7D7D7D7D7D7D7D7D7D7D7D7D7D7D7D7D7D7D7D7D7D7D7D7D7D7D7D7D7D7D7D7D7D7D7D7D7D7D7D7D7D7D7D7D7D7D7D7D7D7D7D7D7D7D7
310
D7D7D7D7D7D7D7D7D7D7D7D7D7D7D7D7D7D7D7D7D7D7D7D7D7D7D7D7D7D7D7D7D7D7D7D7D7D7D7D7D7D7D7D7D7D7D7D7D7D7D7D7D7D7D7D7D7D7D7D7D7D7D7D7D7D7D7D7D7D7D7D7D7D7D7D7D7D7D7D7D7D7D7D7D7D7D7D700D7D7D7D7D7D7D7D7D70000D7D7D7D7D7D7D7D7D700D7D7D7D7D7D7D7D7D7D700D7D7D7D7D700
310
D7D7D7D7D7D7D7D7D7D7D7D7D7D7D7D7D7D7D7D7D7D7D7D7D7D7D7D7D7D7D7D7D7D7D7D7D7D7D7D7D7D7D7D7D7D7D7D7D7D7D7D7D7D7D7D7D7D7D7D7D7D7D7D7D7D7D7D7D7D7D7D7D7D7D7D7D7D7D7D7D7D7D7D7D700D7D7D7D7D7D7D7D7D7D7D7D7D7D7D7D7D7D7D7D7D7D7D7D7D7D7D7D7D7D7D7D7D7D7D7D7D7D7D7D7D7
310
D7D7D7D7D7D7D7D7D7D7D7D7D7D7D7D7D7D7D7D7D7D7D7D7D7D7D7D7D7D7D7D7D7D7D7D7D7D7D7D7D7D7D7D7D7D700D7D7D7D7D7D7D7D7D70000D7D7D7D7D7D7D7D7D700D7D7D7D70000D70000D7D7D70000D7D7D7D7000000D7D7D700D7D7D70000D7D7D700000000D7D7000000D7D700D70000D7D7D7D700D7D7D7D7D7D7
310
D7000000D7D700D700D7D7000000D70000D70000D7D7D70000D7D70000D7D7000000D7D70000D7D70000D7D700D7D70000D7D7D7D70000D700D7D70000D70000000000D7D700D7D7D7D7D7D7000000D7D70000D700D70000D7D700000000D7D7000000000000D7D70000D7D7D7D70000D7D7D700D7D7000000D7D700D7D7D7
310
D7D7D7D700D7D7D7D7D7D7D7D7D70000D7D7D7D7D7D7D7D7D700D7D7D7D70000D70000D700D7000000D7D7D7000000D7D7D700D7D7000000D7D7000000000000D7D70000000000D70000D700D7D7D7D7D7D7D7D7D7D7000000000000D700D700000000D70000D70000D7D7D70000D7000000D7D700000000D70000D7D70000
310
D70000D7D7000000D7D7D70000D700D7D70000D70000000000000000D7D7D7D7D7D7000000D7D70000D700D70000D70000000000D7D7000000000000D7D70000D70000D70000D7D7D700D700000000D70000D7D7D7D7D7D7D700D7D7D7D7D7D7D7D7D70000D7D7D7D7D7D7D7D7D700D7D7D7D7D7D7D7D7D7D7D7D7D7D7D7D7
310
D7D7D7D7D7D7D7D7D7D7D7D7D7D7D7D7D7D7D7D7D7D7D7D7D7D7D7D7D7D7D7D7D7D7D7D7D7D7D7D7D7D7D7D7D7D7D7D7D7D7D7D7D7D7D7D7D7D7D7D7D7D7D7D7D7D7D7D7D7D7D7D7D7D7D7D7D7D7D7D7D7D7D7D7D7D7D7D7D7D7D7D7D7D7D7D7D7D7D7D7D7D7D7D7D7D7D7D7D7D7D7D7D7D7D7D7D7D7D7D7D7D7D7D7D7D7D7
310
D7D7D7D7D7D7D7D7D7D7D7D7D7D7D7D7D7D7D7D7D7D7D7D7D7D7D7D7D7D7D7D7D7D7D7D7D7D7D7D7D7D7D7D7D7D7D700D7D7D7D7D7D7D7D7D70000D7D7D7D7D7D7D7D7D700D7D7D7D7D7D7D7D7D7D7D7D7D7D7D7D7D7D7D7D7D7D7D7D7D7D7D7D7D7D7D7D7D7D7D7D7D7D7D7D7D7D7D7D7D7D7D7D7D7D7D7D7D7D7D7D7D7D7
310
D7D7D7D7D7D7D7D7D7D7D7D7D7D7D700D7D7D7D7D7D7D7D7D7D7D7D7D7D7D7D7D7D7D7D7D7D7D7D7D7D7D7D7D7D7D7D7D7D7D7D7D7D7D7D7D7D7D7D7D7D7D7D7D7D7D7D7D7D7D7D7D7D7D7D7D7D7D7D7D7D7D7D7D7D7D7D7D7D7D7D7D7D7D7D7D7D7D7D7D7D7D7D7D7D7D7D7D7D7D7D7D7D7D7D7D7D7D7D7D7D7D7D7D7D7D7
310
D7D7D7D7D700D7D7D7D7D7D7D7D7D70000D7D7D7D7D7D7D7D7D700D7D7D7D7D700D70000D700D7D700D70000D700D700D7D7000000D70000D7D70000D7D7D700D700D7D7D7000000D7D700D700D7D7D70000D700D7D700D7D7D700D7D7D7D7D7D7D700D7D7D7D700D7D700D7D7D700D7D700000000D7D7D7000000D7D70000
310
D700D7D7000000D7D700D7D700D700000000D7D700D7D7D700D7D700D7D7000000D7D7D700D700D7D7D700000000D7D700D7D7D700D70000D7D7D70000D700D7D7D70000D7D700D700D7D700D7D7D7D7000000D7D7D7D7D7D7D700D7D7D7D7D7D7D7D7D70000D7D7D7D7D7D7D7D7D700D7D7D7D7D700D70000D700D70000D7
310
0000D700000000D7000000D70000D700000000D70000D700D7D700000000D70000D700D7D7D700000000D70000D7D7D700D7D700D7D7D70000D700D70000D7D700D7D7D700D7D700000000D7D700000000D7D700000000D7D7000000000000D7D700D700000000D7D700D700D700000000D7D700000000D7D7000000D7D7D7
310
00000000D7D7000000D70000000000D7D70000D700D700D70000D70000D70000D700D7D7D700000000D7D7D7D7D7D7D700D7D7D7D7D7D7D7D7D70000D7D7D7D7D7D7D7D7D700D7D7D7D7D7D7D7D7D7D7D7D7D7D7D7D7D7D7D7D7D7D7D7D7D7D7D7D7D7D7D7D7D7D7D7D7D7D7D7D7D7D7D7D7D7D7D7D7D7D7D7D7D7D7D7D7D7
310
D7D7D7D7D7D7D7D7D7D7D7D7D7D7D7D7D7D7D7D7D7D7D7D7D7D7D7D7D7D7D7D7D7D7D7D7D7D7D7D7D7D7D7D7D7D7D7D7D7D7D7D7D7D7D7D7D7D7D7D7D7D7D7D7D7D7D7D7D7D7D7D7D7D7D7D7D7D7D7D7D7D7D7D7D7D7D7D7D7D7D7D7D7D7D7D7D7D7D7D7D7D7D7D7D7D7D7D7D7D7D7D7D7D7D7D7D7D7D7D7D7D7D7D7D7D7D7
310
D7D7D7D7D7D700D7D7D7D7D7D7D7D7D70000D7D7D7D7D7D7D7D7D700D7D7D7D7D7D7D7D7D7D7D7D7D7D7D7D7D7D7D7D7D7D7D7D7D7D7D7D7D7D7D7D7D7D7D7D7D7D7D7D7D7D7D7D7D7D7D7D7D7D7D7D7D7D7D7D7D7D7D7D7D7D7D7D7D7D7D7D7D7D7D7D7D7D7D7D7D7D7D7D7D7D7D7D7D7D7D7D7D7D7D7D7D7D7D7D7D7D7D7
310
D7D7D7D7D7D7D7D7D7D7D7D7D7D7D7D7D7D7D7D7D7D7D7D7D7D7D7D7D7D7D7D7D7D7D7D7D7D7D7D7D7D7D7D7D7D7D7D7D7D7D7D7D7D7D7D7D7D7D7D7D7D7D7D7D7D7D7D7D7D7D7D7D7D7D7D7D7D7D7D7D7D7D7D7D7D7D7D7D7D7D700D7D7D7D7D7D7D7D7D70000D7D7D7D7D7D7D7D7D700D7D7D7D70000D7D7D7D70000D7D7
310
00D7D7D70000D7D700D7D7D7D700000000D70000D700D7D7D7D7D7D70000D70000D700000000D700D7D7000000D700D7D7D7000000D7D70000D700D700D70000D70000D7D700D7D7D7D7D700D700D7D700D70000D70000D7D7D7D7000000D7D70000D7000000000000D7D7000000D7D7000000D700000000D7000000D7D7D7
310
D7D700D70000D7D70000D7D7000000D70000D7D70000D7D7D7D700D70000D7D70000D7D7D70000D7D70000000000D700D700D7D7D7D7D7D7D7D7D70000D7D7D7D7D7D7D7D7D700D7D7D7D70000D7D7D7D7D700D70000D7D7D70000D7D70000D7D7D700000000D700D7D7000000D7D7D7D70000D70000D700000000D7000000
310
000000D7D700D7D7000000D7D70000D700D700D70000D70000D7D70000D7D7D7D7D700D7D7D700D70000D700D7D7D7D7D7000000D7D70000D7000000000000D7000000000000000000D700000000D7000000D7D70000D700D7000000D70000D7D7000000000000D7D70000D7D7D7D7D7000000D7D70000D7D7D70000D70000
310
00000000D7D7D700D7D7D7D7D7D7D7D7D70000D7D7D7D7D7D7D7D7D700D7D7D7D70000D7D7D7D7D700D7D7D7D7D7D7D7D7D7D700D7D7D7D7D7D7D7D7D70000D700D700D700D7D700D7D7D700D7D7D7D7D7D7D7D7D7D7D7D7D7D7D7D7D7D7D7D7D7D7D7D7D7D7D700D7D7D7D7D700D7D7D7D7D7D700D7D700D7D7D7D7D7D7D7
310
D70000D70000D700D7D7D7D7D7D7D7D7D7D7D7D7D7D7D7D7D7D7D7D7D7D7D7D7D700D7D7D700D7D7D7D7D7D7D7D7D7D7D7D7D7D7D7D7D7D7D7D7D7D700D7D7D7D7D7D7D7D7D7D7D7D7D7D7D7D7D7D7D700D7D7D7D7D7D7D7D7D7D7D700D7D7D7D7D7D7D7D7D70000D7D7D7D7D7D7D7D7D700D7D7D7D7D7D7D7D7D7D7D7D7D7
310
D7D7D7D7D7D7D7D7D7D7D7D7D7D7D7D7D7D7D7D7D7D7D7D7D7D7D7D7D7D7D7D7D7D7D7D7D7D7D7D7D7D7D7D7D7D7D7D7D7D7D7D7D7D7D7D7D7D7D7D7D7D7D7D7D7D7D7D7D7D7D7D7D7D7D7D7D7D7D7D7D7D7D7D7D7D7D7D7D7D7D7D7D7D7D7D7D7D7D7D7D7D7D7D7D7D7D7D7D7D7D7D7D7D7D7D7D7D7D7D7D7D7D7D7D7D7D7
310
D7D7D7D7D7D7D7D7D7D7D7D7D7D7D7D7D7D7D7D7D7D7D7D7D7D7D7D7D7D7D7D7D7D7D7D7D7D7D7D7D7D7D7D7D7D7D7D7D7D700D7D7D7D7D7D7D7D7D70000D7D7D7D7D7D7D7D7D700D7D7D7D7D7D7D7D7D7D7D7D7D7D7D7D7D7D7D7D7D7D7D7D7D7D7D7D7D7D7D7D7D7D7D7D7D7D7D7D7D7D7D7D7D7D7D7D7D7D7D7D7D7D7D7
310
D7D7D7D7D7D7D7D7D7D7D7D7D7D7D7D7D7D7D7D7D7D7D7D7D7D7D7D7D7D7D7D7D7D7D7D7D7D7D7D7D7D7D7D7D7D7D7D7D7D7D7D7D7D7D7D7D7D7D7D7D7D7D7D7D7D7D7D7D7D7D7D7D7D7D7D7D7D7D7D7D7D7D7D7D7D7D7D7D7D7D7D7D7D7D7D7D7D7D7D7D7D7D7D7D7D7D7D7D7D7D7D7D7D7D7D7D7D7D7D7D7D7D7D7D7D7D7
310
D7D7D7D7D7D7D7D700D7D7D7D7D7D7D7D7D70000D7D7D7D7D7D7D7D7D700D7D7D7D7D7D7D7D7D7D7D7D7D7D7D7D7D7D7D7D7D7D7D7D7D7D7D7D7D7D7D7D7D7D7D7D7D7D7D7D7D7D7D7D7D7D7D7D7D7D7D7D7D7D7D7D7D7D7D7D7D7D7D7D7D7D7D7D7D7D7D7D7D7D7D7D7D7D7D7D7D7D7D7D7D7D7D7D7D7D7D7D7D7D7D7D7D7
310
D7D7D7D7D7D7D7D7D7D7D7D7D7D7D7D7D7D7D7D7D7D7D7D7D7D7D7D7D7D7D7D7D7D7D7D7D7D7D7D7D7D7D7D7D7D7D7D7D7D7D7D7D7D7D7D7D7D7D7D7D7D7D7D7D7D7D7D7D7D7D7D7D7D7D7D7D7D7D7D7D7D7D7D7D7D7D7D7D7D7D7D7D700D7D7D7D7D7D7D7D7D70000D7D7D7D7D7D7D7D7D700D7D7D7D7D7D7D7D7D7D7D7D7
310
D7D7D7D7D7D7D7D7D7D7D7D7D7D7D7D7D7D7D7D7D7D7D7D7D7D7D7D7D7D7D7D7D7D7D7D7D7D7D7D7D7D7D7D7D7D7D7D7D7D7D7D7D7D7D7D7D7D7D7D7D7D7D7D7D7D7D7D7D7D7D7D7D7D7D7D7D7D7D7D7D7D7D7D7D7D7D7D7D7D7D7D7D7D7D7D7D7D7D7D7D7D7D7D7D7D7D7D7D7D7D7D7D7D7D7D7D7D7D7D7D7D7D7D7D7D7D7
310
D7D7D7D7D7D7D7D7D7D7D7D7D7D7D7D7D7D7D7D7D7D7D7D7D7D7D7D7D7D7D7D7D7D7D7D7D7D7D7D7D7D7D7D7D7D7D7D7D7D7D700D7D7D7D7D7D7D7D7D70000D7D7D7D7D7D7D7D7D700D7D7D7D7D7D7D7D7D7D7D7D7D7D7D7D7D7D7D7D7D7D7D7D7D7D7D7D7D7D7D7D7D7D7D7D7D7D7D7D7D7D7D7D7D7D7D7D7D7D7D7D7D7D7
310
D7D7D7D7D7D7D7D7D7D7D7D7D7D7D7D7D7D7D7D7D7D7D7D7D7D7D7D7D7D7D7D7D7D7D7D7D7D7D7D7D7D7D7D7D7D7D7D7D7D7D7D7D7D7D7D7D7D7D7D7D7D7D7D7D7D7D7D7D7D7D7D7D7D7D7D7D7D7D7D7D7D7D7D7D7D7D7D7D7D7D7D7D7D7D7D7D7D7D7D7D7D7D7D7D7D7D7D7D7D7D7D7D7D7D7D7D7D7D7D7D7D7D7D7D7D7D7
310
D7D7D7D7D7D7D7D7D700D7D7D7D7D7D7D7D7D70000D7D7D7D7D7D7D7D7D700D7D7D7D700D7D70000D7D7D70000D7D7000000D70000D7D700D700D7D700000000D7D7000000D7D7000000D70000D7D70000D7000000D7D7000000D70000D7D7D7000000D7000000D7D7000000D7D7D7D70000D70000D7000000D7D700D7D700
310
0000D7D7D700000000D7D70000000000D700000000D7D70000D700D7D7D700D700D700000000D70000D7D7D7D700D70000D700000000D70000D70000D7D70000D70000D7D7D70000000000D7D70000D7D7D7D7D7D7D7D7D7D7D7D7D7D7D700D7D7D7D7D7D7D7D7D70000D7D7D7D7D7D7D7D7D700D7D7D7D70000D70000D7D7
310
D70000D7D7000000D70000D7D700D70000D7D7000000D7D700D700D7D70000D7D70000D7D700D7D7000000D7D700D700D7D7D7D7D700000000D7D70000D7D7D7D70000D7D7D7D700D70000D70000D7D7D70000D7000000D7D7D700D7D700D7D70000000000D700000000D7D70000D7D7D7D700000000D7D70000D7D70000D7
310
D7000000D70000D7D70000D7D7D7D7D7D700D7D7D700D7D700D7D7D700D70000D7D7D70000D7D7D7D7D7D7D7D7D7D7D7D7D7D7D700D7D7D7D7D7D7D7D7D70000D7D7D7D7D7D7D7D7D700D7D7D7D70000D7D7D7D7D7D7D7D7D7D7D7D7D7D7D7D7D7D7D7D7D700D7D7D7D7D7D7D7D7D7D7D7D7D7D7D7D7D7D7D7D7D7D7D7D7D7
310
D7D7D700D7D7D7D7D7D7D7D7D7D7D7D7D7D7D7D7D7D7D7000000D7D70000D7D7D7D7D7D7D7D70000D7D7D7D7D7D7D7D70000D7D7D7D7D7D7D7D7D7D7D7D7D7D7D7D7D7D7D7D7D7D700D7D700D7D7D7D7D7D7D700D7D70000D7D7D7D7D7D700D7D7D7D7D7D7D7D7D7D7D700D7D7D7D7D7D7D7D7D7D7D7D7D7D7D7D7D7D7D7D7
310
D7D7D7D7D7D7D7D7D7D700D7D7D7D7D7D7D7D7D70000D7D7D7D7D7D7D7D7D700D7D7D7D7D7D7D7D7D7D7D7D7D7D7D7D7D7D7D7D7D7D7D7D7D7D7D7D7D7D7D7D7D7D7D7D7D7D7D7D7D7D7D7D7D7D7D7D7D7D7D7D7D7D7D7D7D7D7D7D7D7D7D7D7D7D7D7D7D7D7D7D7D7D7D7D7D7D7D7D7D7D7D7D7D7D7D7D7D7D7D7D7D7D7D7
310
D7D7D7D7D7D7D7D7D7D7D7D7D7D7D7D7D7D7D7D7D7D7D7D7D7D7D7D7D7D7D7D7D7D7D7D7D7D7D7D7D7D7D7D7D7D7D7D7D7D7D7D7D7D7D7D7D7D7D7D7D7D7D7D7D7D7D7D7D7D7D7D7D7D7D7D7D7D7D7D7D7D7D7D7D7D7D7D7D7D7D7D7D7D7D700D7D7D7D7D7D7D7D7D70000D7D7D7D7D7D7D7D7D700D7D7D7D70000D7D7D7D7
310
0000D7D70000D700D700D7D7D7000000D7D70000D7D70000D700D700000000D7D700000000D70000D7D700D70000D7D700D7D70000D70000000000D70000D70000D7D70000D7D7D70000D7D7D7D7D7D7D7D700000000D700D7D700000000D70000000000D70000D7D7D7D7D700D7D70000D7D7D7000000D7D70000D7000000
310
D7D7000000D7D7D700D70000D700D70000D7D70000000000D7D7000000D7D70000D7D700D70000D70000D700D7D7D7D7D7D7D7D7D700D7D7D7D7D7D7D7D7D70000D7D7D7D7D7D7D7D7D700D7D7D7D70000D7D7D7D7D700D7D70000D700D700D7D700000000D7D70000D7D70000D7D70000000000D7D700000000D70000D7D7
310
00D70000D70000D7D70000D7D700000000D70000D7000000D70000D7D700D700D70000D700D7D7D700000000D70000D700000000D70000000000D70000D7D70000D700D7D70000D7D7D7000000D7D70000D7000000D7D700000000D70000D70000D700D70000D7D70000000000D7D700000000D70000D7D7D7000000D70000
310
D7D7D7D7D7D7D7D7D7D7D700D7D7D7D7D7D7D7D7D70000D7D7D7D7D7D7D7D7D700D7D7D7D70000D7D7D7D70000D7D700D7D7D7D7D7D7D7D7D7D7D7D7D7D7D7D7D7D7D7D7D7D7D7D7D7D7D7D7D7D7D7D7D7D700D7D7D7D7D7D7D7D7D7D7D7D7D7D7D7D7D7D7D7D700D7D7D7D7D7D7D7D7D7D700D700D700000000D7D7D7D7D7
310
D7D7D7D7D7D7D7D7D7D7D7D7D7D700D7D7D7D7D7D7D7D7D7D7D7D700D7D7D7D7D7D7D7D7D700D7D7D7D7D7D7D7D7D7D7D7D7D7D7D7D7D7D7D7D7D7D7D7D7D7D7D7D7D7D7D7D7D7D7D7D7D7D7D7D7D7D7D7D7D7D7D7D7D7D7D7D7D7D7D7D7D7D700D7D7D7D7D7D7D7D7D70000D7D7D7D7D7D7D7D7D700D7D7D7D7D7D7D7D7D7
310
D7D7D7D7D7D7D7D7D7D7D7D7D7D7D7D7D7D7D7D7D7D7D7D7D7D7D7D7D7D7D7D7D7D7D7D7D7D7D7D7D7D7D7D7D7D7D7D7D7D7D7D7D7D7D7D7D7D7D7D7D7D7D7D7D7D7D7D7D7D7D7D7D7D7D7D7D7D7D7D7D7D7D7D7D7D7D7D7D7D7D7D7D7D7D7D7D7D7D7D7D7D7D7D7D7D7D7D7D7D7D7D7D7D7D7D7D7D7D7D7D7D7D7D7D7D7D7
310
D7D7D7D7D7D7D7D7D7D7D7D7D7D7D7D7D7D7D7D7D7D7D7D7D7D7D7D7D7D7D7D7D7D7D7D7D7D7D7D7D7D7D7D7D7D7D7D7D7D7D7D7D7D700D7D7D7D7D7D7D7D7D70000D7D7D7D7D7D7D7D7D700D7D7D7D7D7D7D7D7D7D7D7D7D7D7D7D7D7D7D7D7D7D7D7D7D7D7D7D7D7D7D7D7D7D7D7D7D7D7D7D7D7D7D7D7D7D7D7D7D7D7D7
310
D7D7D7D7D7D7D7D7D7D7D7D7D7D7D7D7D7D7D7D7D7D7D7D7D7D7D7D7D7D7D7D7D7D7D7D7D7D7D7D7D7D7D7D7D7D7D7D7D7D7D7D7D7D7D7D7D7D7D7D7D7D7D7D7D7D7D7D7D7D7D7D7D7D7D7D7D7D7D7D7D7D7D7D7D7D7D7D7D7D7D7D7D7D7D7D7D7D7D7D7D7D7D7D7D7D7D7D7D7D7D7D7D7D7D7D7D7D7D7D7D7D7D7D7D7D7D7
310
D7D7D7D7D7D7D7D7D7D7D7D700D7D7D7D7D7D7D7D7D70000D7D7D7D7D7D7D7D7D700D7D7D7D7D7D7D7D7D7D7D7D7D7D7D7D7D7D7D7D7D7D7D7D7D7D7D7D7D7D7D7D7D7D7D7D7D7D7D7D7D7D7D7D7D7D7D7D7D7D7D7D7D7D7D7D7D7D7D7D7D7D7D7D7D7D7D7D7D7D7D7D7D7D7D7D7D7D7D7D7D7D7D7D7D7D7D7D7D7D7D7D7D7
310
D7D7D7D7D7D7D7D7D7D7D7D7D7D7D7D7D7D7D7D7D7D7D7D7D7D7D7D7D7D7D7D7D7D7D7D7D7D7D7D7D7D7D7D7D7D7D7D7D7D7D7D7D7D7D7D7D7D7D7D7D7D7D7D7D7D7D7D7D7D7D7D7D7D7D7D7D7D7D7D7D7D7D7D7D7D7D7D7D7D7D7D7D7D7D7D7D700D7D7D7D7D7D7D7D7D70000D7D7D7D7D7D7D7D7D700D7D7D7D7D7D7D7D7
310
D7D7D7D7D7D7D7D7D7D7D7D7D7D7D7D7D7D7D7D7D7D7D7D7D7D7D7D7D7D7D7D7D7D7D7D7D7D7D7D7D7D7D7D7D7D7D7D7D7D7D7D7D7D7D7D7D7D7D7D7D7D7D7D7D7D7D7D7D7D7D7D7D7D7D7D7D7D7D7D7D7D7D7D7D7D7D7D7D7D7D7D7D7D7D7D7D7D7D7D7D7D7D7D7D7D7D7D7D7D7D7D7D7D7D7D7D7D7D7D7D7D7D7D7D7D7D7
310
D7D7D7D7D7D7D7D7D7D7D7D7D7D7D7D7D7D7D7D7D7D7D7D7D7D7D7D7D7D7D7D7D7D7D7D7D7D7D7D7D7D7D7D7D7D7D7D7D7D7D7D7D7D7D700D7D7D7D7D7D7D7D7D70000D7D7D7D7D7D7D7D7D700D7D7D7D7D7D7D7D7D7D7D7D7D7D7D7D7D7D7D7D7D7D7D7D7D7D7D7D7D7D7D7D7D7D7D7D7D7D7D7D7D7D7D7D7D7D7D7D7D7D7
310
D7D7D7D7D7D7D7D7D7D7D7D7D7D7D7D7D7D7D7D7D7D7D7D7D7D7D7D7D7D7D7D7D7D7D7D7D7D7D7D7D7D7D7D7D7D7D7D7D7D7D7D7D7D7D7D7D7D7D7D7D7D7D7D7D7D7D7D7D7D7D7D7D7D7D7D7D7D7D7D7D7D7D7D7D7D7D7D7D7D7D7D7D7D7D7D7D7D7D7D7D7D7D7D7D7D7D7D7D7D7D7D7D7D7D7D7D7D7D7D7D7D7D7D7D7D7D7
310
D7D7D7D7D7D7D7D7D7D7D7D7D700D7D7D7D7D7D7D7D7D70000D7D7D7D7D7D7D7D7D700D7D7D7D7D7D7D7D7D7D700D7D70000D7D700D700D70000D7D7D7D7D70000D7D7000000D700D7D70000000000D700D7D7000000D7D700000000D7000000D700D70000D7D70000D7D70000D7D700D7D700D7D7000000D7000000D7D700
310
00D7D7D7000000D7D70000D7D70000D700D70000D700D700D700D7D7D7000000D7D70000D7D7D70000D70000D7D70000D70000D70000D70000D7D7D700000000D700D700D70000D7D7000000D700D7D7D7D7D7D7D7D7D7D7D7D7D7D7D7D7D7D7D7D700D7D7D7D7D7D7D7D7D70000D7D7D7D7D7D7D7D7D700D7D7D7D70000D7
310
D7D7D7D700D7D7D7D7D700000000D700D7D7D7D7D70000D7D7000000D700D7D7D700000000D700D7D7000000D7D7D7D7D700D7000000D700D7000000D70000D7D7D700D7D70000D700D7D70000D7D7000000D7D70000D7D7D7000000D7D7D700D7D70000D700D70000D700D700D700D7D7D7000000D7D70000D7D7D70000D7
310
0000D7D70000D700D7D70000D700D7D7D7D700000000D700D700D70000D7D7000000D7D7D7D7D7D7D7D7D7D7D7D7D7D7D7D7D7D7D7D7D7D700D7D7D7D7D7D7D7D7D70000D7D7D7D7D7D7D7D7D700D7D7D7D7D700D7D7D7D70000D70000D7D700D700000000D7D700D7D7D700D7D7D70000D700D7D7D7D700D7D7D7D7D7D7D7
310
D7D7D7D7D7D7D7D7D7D7D700D700D7D7D7D7D7D7D7D7D7D7D7D7D7D7D7D7D7D7D7D7D7D7D7D7D700D7D7D7D7D7D7D7D7D7D7D7D7D7D7D7D7D7D7D7D7D7D7D7D7D7D7D7D700D7D7D7D7D7D7D7D7D7D7D7D7D700D7D7D7D7D7D7D7D7D7D7D7D7D7D7D7D7D7D7D7D7D700D7D7D7D7D7D7D7D7D7D7D7D7D7D7D7D7D7D7D7D7D7D7
310
D7D7D7D7D7D7D7D7D7D7D7D7D7D700D7D7D7D7D7D7D7D7D70000D7D7D7D7D7D7D7D7D700D7D7D7D7D7D7D7D7D7D7D7D7D7D7D7D7D7D7D7D7D7D7D7D7D7D7D7D7D7D7D7D7D7D7D7D7D7D7D7D7D7D7D7D7D7D7D7D7D7D7D7D7D7D7D7D7D7D7D7D7D7D7D7D7D7D7D7D7D7D7D7D7D7D7D7D7D7D7D7D7D7D7D7D7D7D7D7D7D7D7D7
310
D7D7D7D7D7D7D7D7D7D7D7D7D7D7D7D7D7D7D7D7D7D7D7D7D7D7D7D7D7D7D7D7D7D7D7D7D7D7D7D7D7D7D7D7D7D7D7D7D7D7D7D7D7D7D7D7D7D7D7D7D7D7D7D7D7D7D7D7D7D7D7D7D7D7D7D7D7D7D7D7D7D7D7D7D7D7D7D7D7D7D7D7D7D7D7D7D7D7D700D7D7D7D7D7D7D7D7D70000D7D7D7D7D7D7D7D7D700D7D7D7D7D7D7
310
D7D7D7D7D7D7D7D7D7D7D7D7D7D7D7D7D7D7D7D7D7D7D7D7D7D7D7D7D7D7D7D7D7D7D7D7D7D7D7D7D7D7D7D7D7D7D7D7D7D7D7D7D7D7D7D7D7D7D7D7D7D7D7D7D7D7D7D7D7D7D7D7D7D7D7D7D7D7D7D7D7D7D7D7D7D7D7D7D7D7D7D7D7D7D7D7D7D7D7D7D7D7D7D7D7D7D7D7D7D7D7D7D7D7D7D7D7D7D7D7D7D7D7D7D7D7D7
310
D7D7D7D7D7D7D7D7D7D7D7D7D7D7D7D7D7D7D7D7D7D7D7D7D7D7D7D7D7D7D7D7D7D7D7D7D7D7D7D7D7D7D7D7D7D7D7D7D7D7D7D7D7D7D7D7D700D7D7D7D7D7D7D7D7D70000D7D7D7D7D7D7D7D7D700D7D7D7D7D7D7D7D7D7D7D7D7D7D7D7D7D7D7D7D7D7D7D7D7D7D7D7D7D7D7D7D7D7D7D7D7D7D7D7D7D7D7D7D7D7D7D7D7
310
D7D7D7D7D7D7D7D7D7D7D7D7D7D7D7D7D7D7D7D7D7D7D7D7D7D7D7D7D7D7D7D7D7D7D7D7D7D7D7D7D7D7D7D7D7D7D7D7D7D7D7D7D7D7D7D7D7D7D7D7D7D7D7D7D7D7D7D7D7D7D7D7D7D7D7D7D7D7D7D7D7D7D7D7D7D7D7D7D7D7D7D7D7D7D7D7D7D7D7D7D7D7D7D7D7D7D7D7D7D7D7D7D7D7D7D7D7D7D7D7D7D7D7D7D7D7D7
310
D7D7D7D7D7D7D7D7D7D7D7D7D7D7D700D7D7D7D7D7D7D7D7D70000D7D7D7D7D7D7D7D7D700D7D7D7D7D7D7D7D7D7D7D7D7D7D7D7D7D7D7D7D7D7D7D7D7D7D7D7D7D7D7D7D7D7D7D7D7D7D7D7D7D7D7D7D7D7D7D7D7D7D7D7D7D7D7D7D7D7D7D7D7D7D7D7D7D7D7D7D7D7D7D7D7D7D7D7D7D7D7D7D7D7D7D7D7D7D7D7D7D7D7
310
D7D7D7D7D7D7D7D7D7D7D7D7D7D7D7D7D7D7D7D7D7D7D7D7D7D7D7D7D7D7D7D7D7D7D7D7D7D7D7D7D7D7D7D7D7D7D7D7D7D7D7D7D7D7D7D7D7D7D7D7D7D7D7D7D7D7D7D7D7D7D7D7D7D7D7D7D7D7D7D7D7D7D7D7D7D7D7D7D7D7D7D7D7D7D7D7D7D7D7D700D7D7D7D7D7D7D7D7D70000D7D7D7D7D7D7D7D7D700D7D7D7D7D7
310
D7D7D7D7D7D7D7D7D7D7D7D7D7D7D7D7D7D7D7D7D7D7D7D7D7D7D7D7D7D7D7D7D7D7D7D7D7D7D7D7D7D7D7D7D7D7D7D7D7D7D7D7D7D7D7D7D7D7D7D7D7D7D7D7D7D7D7D7D7D7D7D7D7D7D7D7D7D7D7D7D7D7D7D7D7D7D7D7D7D7D7D7D7D7D7D7D7D7D7D7D7D7D7D7D7D7D7D7D7D7D7D7D7D7D7D7D7D7D7D7D7D7D7D7D7D7D7
310
D7D7D7D7D7D7D7D7D7D7D7D7D7D7D7D7D7D7D7D7D7D7D7D7D7D7D7D7D7D7D7D7D7D7D7D7D7D7D7D7D7D7D7D7D7D7D7D7D7D7D7D7D7D7D7D7D7D700D7D7D7D7D7D7D7D7D70000D7D7D7D7D7D7D7D7D700D7D7D7D7D7D7D7D7D7D7D7D7D7D7D7D7D7D7D7D7D7D7D7D700D7D7D7D7D7D7D7D7D7D7D7D7D7D7D7D7D7D7D7D7D7D7
310
D7D7D7D7D7D7D7D7D7D7D7D7D7D7D7D7D7D7D7D7D7D7D7D7D7D7D7D7D7D7D7D7D7D7D7D7D7D7D7D7D7D7D7D7D7D7D7D7D7D7D7D7D7D7D7D7D7D7D7D7D7D7D7D7D7D7D7D7D7D7D7D7D7D7D7D7D7D7D7D7D7D7D7D7D7D7D7D7D7D7D7D7D7D7D7D7D7D7D7D7D7D7D7D7D7D7D7D7D7D7D7D7D7D7D7D7D7D7D7D7D7D7D7D7D7D7D7
310
D7D7D7D7D7D7D7D7D7D7D7D7D7D7D7D700D7D7D7D7D7D7D7D7D70000D7D7D7D7D7D7D7D7D700D7D7D7D7D700D7D7D7D700D7D7000000D700D700D70000D7D7D70000D7D700D7D7D7D70000D7D700D70000D700D7D700D700D70000D7000000D700D7D7D7D7D7D7D70000D700D7D7D700D70000D7D700D7D7D7D7D7D7D7D7D7
310
D7D7D7D7D7D7D7D7D7D7D7D7D7D7D7D7D7D7D7D7D7D7D7D7D7D7D7D7D7D7D7D7D7D7D7D7D7D7D7D7D7D7D7D7D7D7D7D7D7D7D7D7D7D7D7D7D7D7D7D7D7D7D7D7D7D7D7D7D7D7D7D7D7D7D7D7D7D7D7D7D7D7D7D7D7D7D7D7D7D7D7D7D7D7D7D7D7D7D7D7D700D7D7D7D7D7D7D7D7D70000D7D7D7D7D7D7D7D7D700D7D7D7D7
310
00D7D7D7D7D7D700D700000000000000D70000D700D70000D70000D7D7D7D70000D70000D700000000D70000D700D70000D700D700D700D7D7D7D7D7D7000000D70000D70000D70000D70000D7D7D7D7D7D7D7D7D7D7D7D7D7D7D7D7D7D7D7D7D7D7D7D7D7D7D7D7D7D7D7D7D7D7D7D7D7D7D7D7D7D7D7D7D7D7D7D7D7D7D7
310
D7D7D7D7D7D7D7D7D7D7D7D7D7D7D7D7D7D7D7D7D7D7D7D7D7D7D7D7D7D7D7D7D7D7D7D7D7D7D7D7D7D7D7D7D7D7D7D7D7D7D7D7D7D7D7D7D7D7D700D7D7D7D7D7D7D7D7D70000D7D7D7D7D7D7D7D7D700D7D7D7D7D7D7D7D7D7D7D7D7D7D7D7D7D7D7D7D7D7D7D7D7D7D7D7D7D7D7D7D7D7D7D7D7D7D7D7D7D7D7D7D7D7D7
310
D7D7D7D7D7D7D7D7D7D7D7D7D7D7D7D7D7D7D7D7D7D7D7D7D7D7D7D7D7D7D7D7D7D7D7D7D7D7D7D7D7D7D7D7D7D7D7D7D7D7D7D7D7D7D7D7D7D7D7D7D7D7D7D7D7D7D7D7D7D7D7D7D7D7D7D7D7D7D7D7D7D7D7D7D7D7D7D7D7D7D7D7D7D7D7D7D7D7D7D7D7D7D7D7D7D7D7D7D7D7D7D7D7D7D7D7D7D7D7D7D7D7D7D7D7D7D7
310
D7D7D7D7D7D7D7D7D7D7D7D7D7D7D7D7D700D7D7D7D7D7D7D7D7D70000D7D7D7D7D7D7D7D7D700D7D7D7D7D7D7D7D7D7D7D7D7D7D7D7D7D7D7D7D7D7D7D7D7D7D7D7D7D7D7D7D7D7D7D7D7D7D7D7D7D7D7D7D7D7D7D7D7D7D7D7D7D7D7D7D7D7D7D7D7D7D7D7D7D7D7D7D7D7D7D7D7D7D7D7D7D7D7D7D7D7D7D7D7D7D7D7D7
310
D7D7D7D7D7D7D7D7D7D7D7D7D7D7D7D7D7D7D7D7D7D7D7D7D7D7D7D7D7D7D7D7D7D7D7D7D7D7D7D7D7D7D7D7D7D7D7D7D7D7D7D7D7D7D7D7D7D7D7D7D7D7D7D7D7D7D7D7D7D7D7D7D7D7D7D7D7D7D7D7D7D7D7D7D7D7D7D7D7D7D7D7D7D7D7D7D7D7D7D7D7D700D7D7D7D7D7D7D7D7D70000D7D7D7D7D7D7D7D7D700D7D7D7
310
D7D7D7D7D7D7D7D7D7D7D7D7D7D7D7D7D7D7D7D7D7D7D7D7D7D7D7D7D7D7D7D7D7D7D7D7D7D7D7D7D7D7D7D7D7D7D7D7D7D7D7D7D7D7D7D7D7D7D7D7D7D7D7D7D7D7D7D7D7D7D7D7D7D7D7D7D7D7D7D7D7D7D7D7D7D7D7D7D7D7D7D7D7D7D7D7D7D7D7D7D7D7D7D7D7D7D7D7D7D7D7D7D7D7D7D7D7D7D7D7D7D7D7D7D7D7D7
310
D7D7D7D7D7D7D7D7D7D7D7D7D7D7D7D7D7D7D7D7D7D7D7D7D7D7D7D7D7D7D7D7D7D7D7D7D7D7D7D7D7D7D7D7D7D7D7D7D7D7D7D7D7D7D7D7D7D7D7D700D7D7D7D7D7D7D7D7D70000D7D7D7D7D7D7D7D7D700D7D7D7D7D7D7D7D7D7D7D7D7D7D7D7D7D7D7D7D7D7D7D7D7D7D7D7D7D7D7D7D7D7D7D7D7D7D7D7D7D7D7D7D7D7
310
D7D7D7D7D7D7D7D7D7D7D7D7D7D7D7D7D7D7D7D7D7D7D7D7D7D7D7D7D7D7D7D7D7D7D7D7D7D7D7D7D7D7D7D7D7D7D7D7D7D7D7D7D7D7D7D7D7D7D7D7D7D7D7D7D7D7D7D7D7D7D7D7D7D7D7D7D7D7D7D7D7D7D7D7D7D7D7D7D7D7D7D7D7D7D7D7D7D7D7D7D7D7D7D7D7D7D7D7D7D7D7D7D7D7D7D7D7D7D7D7D7D7D7D7D7D7D7
310
D7D7D7D7D7D7D7D7D7D7D7D7D7D7D7D7D7D700D7D7D7D7D7D7D7D7D70000D7D7D7D7D7D7D7D7D700D7D7D7D7D7D7D7D7D7D7D7D7D7D7D7D7D7D7D7D7D7D7D7D7D7D7D7D7D7D7D7D7D7D7D7D7D7D7D7D7D7D7D7D7D7D7D7D7D7D7D7D7D7D7D7D7D7D7D7D7D7D7D7D7D7D7D7D7D7D7D7D7D7D7D7D7D7D7D7D7D7D7D7D7D7D7D7
310
D7D7D7D7D7D7D7D7D7D7D7D7D7D7D7D7D7D7D7D7D7D7D7D7D7D7D7D7D7D7D7D7D7D7D7D7D7D7D7D7D7D7D7D7D7D7D7D7D7D7D7D7D7D7D7D7D7D7D7D7D7D7D7D7D7D7D7D7D7D7D7D7D7D7D7D7D7D7D7D7D7D7D7D7D7D7D7D7D7D7D7D7D7D7D7D7D7D7D7D7D7D7D700D7D7D7D7D7D7D7D7D70000D7D7D7D7D7D7D7D7D700D7D7
310
D7D7D7D7D7D7D7D7D7D7D7D7D7D7D7D7D7D7D7D7D7D7D7D7D7D7D700D7D7D7D7D7D7D7D7D7D7D70000D7D7D7D7D7D7D7D7D7D7D7D7D7D7D7D7D7D7D7D7D7D7D7D7D7D7D7D7D7D7D7D7D7D7D7D7D7D7D7D7D7D7D7D7D7D7D700D7D7D7D7D7D7D7D70000D7D7D7D7D7D7D7D7D7D7D7D7D7D7D7D7D7D7D7D7D7D7D7D7D7D7D7D7
310
D7D7D7D7D7D7D7D7D7D7D7D7D7D7D7D7D7D7D7D7D7D7D7D7D7D7D7D7D7D7D7D7D7D7D7D7D7D7D7D7D7D7D7D7D7D7D7D7D7D7D7D7D7D7D7D7D7D7D7D7D700D7D7D7D7D7D7D7D7D70000D7D7D7D7D7D7D7D7D700D7D7D7D7D7D7D7D7D7D7D7D70000D7D7D7D70000D700D7D70000D70000D7000000D7D70000D7D7000000D7D7
310
D7D70000D7D70000D7D7D7D700D7D7D7D7D7D7D70000D7D7000000D7D700D7D7D7D7D7D700D700D7D700000000D7D700D700000000D7D700D7D7D70000D70000000000D700D7D7D7D7000000D70000D7D70000D7D7D7D700D7D7D7D7D7D7D7D7D7D7D7D7D7D7D7D7D7D7D7D7D7D7D7D7D7D7D7D7D7D7D7D7D7D7D7D7D7D7D7
310
D7D7D7D7D7D7D7D7D7D7D7D7D7D7D7D7D7D7D700D7D7D7D7D7D7D7D7D70000D7D7D7D7D7D7D7D7D700D7D7D7D7D700D7D7D700D7D7D700D7D7D7000000D700D7D70000D700000000000000D70000D7D7D7000000D7D7D70000D7D7D700D7D700D7000000D7D7D7D7D70000D700000000D7D7D7D7D7D7D700D700D700D7D700
310
000000D70000D700000000D7D70000D7D70000D70000000000D700D7D7D700000000D70000D7D7D700D7D700D7000000D7D7D7D7D7D7D7D7D7D7D7D7D7D7D7D7D7D7D7D7D7D7D7D7D7D7D7D7D7D7D7D7D7D7D7D7D7D7D7D7D7D7D7D7D7D7D7D7D7D7D7D7D7D7D7D700D7D7D7D7D7D7D7D7D70000D7D7D7D7D7D7D7D7D700D7
310
D7D7D7D7D7D7D7D7D7D7D7D7D7D7D7D7D7D7D7D7D7D7D7D7D7D7D7D7D7D7D7D7D7D7D7D7D7D7D7D7D7D7D7D7D7D7D7D7D7D7D7D7D7D7D7D7D7D7D7D7D7D7D7D7D7D7D7D7D7D7D7D7D7D7D7D7D7D7D7D7D7D7D7D7D7D7D7D7D7D7D7D7D7D7D7D7D7D7D7D7D7D7D7D7D7D7D7D7D7D7D7D7D7D7D7D7D7D7D7D7D7D7D7D7D7D7D7
310
D7D7D7D7D7D7D7D7D7D7D7D7D7D7D7D7D7D7D7D7D7D7D7D7D7D7D7D7D7D7D7D7D7D7D7D7D7D7D7D7D7D7D7D7D7D7D7D7D7D7D7D7D7D7D7D7D7D7D7D7D7D700D7D7D7D7D7D7D7D7D70000D7D7D7D7D7D7D7D7D700D7D7D7D7D7D7D7D7D7D7D7D7D7D7D7D7D7D7D7D7D7D7D7D7D7D7D7D7D7D7D7D7D7D7D7D7D7D7D7D7D7D7D7
310
D7D7D7D7D7D7D7D7D7D7D7D7D7D7D7D7D7D7D7D7D7D7D7D7D7D7D7D7D7D7D7D7D7D7D7D7D7D7D7D7D7D7D7D7D7D7D7D7D7D7D7D7D7D7D7D7D7D7D7D7D7D7D7D7D7D7D7D7D7D7D7D7D7D7D7D7D7D7D7D7D7D7D7D7D7D7D7D7D7D7D7D7D7D7D7D7D7D7D7D7D7D7D7D7D7D7D7D7D7D7D7D7D7D7D7D7D7D7D7D7D7D7D7D7D7D7D7
310
D7D7D7D7D7D7D7D7D7D7D7D7D7D7D7D7D7D7D7D700D7D7D7D7D7D7D7D7D70000D7D7D7D7D7D7D7D7D700D7D7D7D70000D7000000D7D70000D7000000D7D7D700D7D7D7D70000D7D70000000000D7D7000000D7D70000D70000D7D70000D7D7D700D7D700000000D7000000000000D7D70000D70000D700000000D70000D7D7
310
0000D700000000D7D700D700D7D7D700000000D7D70000D70000D70000D7D7000000D7D700D7D7D7D7D7D700000000D7D7D700000000D70000D70000D7D70000D7D7D700D7D7D7000000D70000D7D70000D70000D70000D7D70000D7D7D7D7D7D7D7D7D7D7D7D7D7D700D7D7D7D7D7D7D7D7D70000D7D7D7D7D7D7D7D7D700
310
D7D7D7D7D700D7000000D7D700D7D7D70000D7D7D70000D7D7D70000D7D70000000000D7D7000000D7D70000D70000D7D70000D7D7D700D7D700000000D7000000D70000D7D70000D70000D70000D700D7D7D7D7D700D7D7000000D7D7D700D700D7D7D700000000D7D700D7D7D700D70000D7D7000000D7D700D7D7D700D7
310
D700000000D7D7D70000D700D7D7D7D70000D7D70000D7D7D700D7D7D7000000D70000D7D7D700D7D700D70000D7D7D700D7D7D7D7D7D7D7D7D7D7D7D7D7D700D7D7D7D7D7D7D7D7D70000D7D7D7D7D7D7D7D7D700D7D7D7D7D7D7D7D7D7D7D7D7D7D7D7D7D700D7D7D7D7D7D7D7D700D7D7D70000D7D7D7D7D7D7D7D7D7D7
310
D7D7D7D7D7D7D7D7D7D7D7D7D7D7D7D7D7D7D7D7D7D7D7D7D7D7D7D7D7D7D7D700D7D7D7D7D7D7D7D7D7D700D7D7D7D7D7D7D7D7D7D7D7D7D7D700D7D7D7D7D7D7D7D7D7D7D7D7D7D7D7D7D7D7D7D7D7D7D7D70000D700D7D7D7D7D7D7D7D7D7D7D7D7D7D7D7D7D7D7D7D7D7D7D7D7D7D7D7D7D7D7D7D7D7D7D7D7D7D7D7D7
310
D7D7D7D7D7D7D7D7D7D7D7D7D7D7D7D7D7D7D7D7D700D7D7D7D7D7D7D7D7D70000D7D7D7D7D7D7D7D7D700D7D7D7D7D7D7D7D7D7D7D7D7D7D7D7D7D7D7D7D7D7D7D7D7D7D7D7D7D7D7D7D7D7D7D7D7D7D7D7D7D7D7D7D7D7D7D7D7D7D7D7D7D7D7D7D7D7D7D7D7D7D7D7D7D7D7D7D7D700D7D7D7D7D7D7D7D7D7D7D7D7D7D7
310
D7D7D7D7D7D7D7D7D7D7D7D7D7D7D7D7D7D7D7D7D7D70000D7D7D7D7D7D7D7D7D7D7D7D7D7D7D7D7D7D7D7D7D7D7D7D7D7D7D7D7D7D7D7D7D7D7D7D7D7D7D7D7D7D7D7D7D7D7D7D7D7D7D7D7D7D7D7D7D7D7D7D7D7D7D7D7D7D7D7D7D7D7D7D7D7D7D7D7D7D7D7D7D7D700D7D7D7D7D7D7D7D7D70000D7D7D7D7D7D7D7D7D7
310
00D7D7D7D70000D7D7D7D7D700D700000000D7D7000000D7D7D7D70000D7D700000000D7D700000000D7D700D700000000D7D70000D7D70000D70000D70000D7D700000000D700D700D7D7D7000000D7000000D7D700D700D7D7D700D70000D700000000D7D7D700D7D7D700D7D7D7D7000000D70000000000D70000D7D7D7
310
0000D700D700D700D700000000D7D7D700000000D700D70000D7D700D7D7000000D7D7D7D7D700D70000D7D7D70000D7000000D7000000D7D7D7D7D7D7D7D7D700D7D7D7D7D7D7D7D7D70000D7D7D7D7D7D7D7D7D700D7D7D7D7D7D7D7D7D7D7D700D7000000D7D700000000D7D700D70000D7D700000000D7D700000000D7
310
0000D700000000D7D70000D7D70000D70000D70000D7D700000000D7D700D700D700000000D7000000D7D7000000D7D7D7D700D700D700000000D7D700D7D7D7D70000D7D7D70000D7000000000000D70000D7D7D70000D700D700D7D7D700000000D7D70000000000D700D70000D7D70000D700000000D7D700D700D70000
310
D7D7D70000D7000000D7000000D7D7D7D7D7D7D7D7D700D7D7D7D7D7D7D7D7D70000D7D7D7D7D7D7D7D7D700D7D7D7D70000D7D7D7D70000D7D7D7D7D7D7D7D7D7D7D7D7D7D7D7D7D7D7D7D7D7D7D7D7D7D7D7D7D7D7D7D700D7D7D7D7D7D7D7D7D7D700D7D7D7D7D700D7D7D7D7D7D7D7D7D7D7D7D7D7D7D7D7D7D7D7D7D7
310
D7D7D7D7D70000D700D7D7D7D7D7D7D7D7D700D7D700D7D7D7D7D7D7D7D7D7D7D7D7D7D7D7D7D700D7D7D700D7D7D7D700D7D7D7D7D7D7D7D7D7D7D7D7D7D7D7D7D7D7D7D7D700D7D7D7D7D7D7D7D700D7D7D7D7D7D7D7D700D7D7D7D700D7D7D7D7D7D7D7D7D7D7D7D7D700D7D7D7D7D7D7D7D7D70000D7D7D7D7D7D7D7D7
310
D700D7D7D7D7D7D7D7D7D7D7D7D7D7D7D7D7D7D7D7D7D7D7D7D7D7D7D7D7D7D7D7D7D7D7D7D7D7D7D7D7D7D7D7D7D7D7D7D7D7D7D7D7D7D7D7D7D7D7D7D7D7D7D7D7D7D7D7D7D7D7D7D7D7D7D7D7D7D7D7D7D7D7D7D7D7D7D7D7D7D7D7D7D7D7D7D7D7D7D7D7D7D7D7D7D7D7D7D7D7D7D7D7D7D7D7D7D7D7D7D7D7D7D7D7D7
310
D7D7D7D7D7D7D7D7D7D7D7D7D7D7D7D7D7D7D7D7D7D7D7D7D7D7D7D7D7D7D7D7D7D7D7D7D7D7D7D7D7D7D7D7D7D7D7D7D7D7D7D7D7D7D7D7D7D7D7D7D7D7D7D7D700D7D7D7D7D7D7D7D7D70000D7D7D7D7D7D7D7D7D700D7D7D7D7D7D7D7D7D7D7D7D7D7D7D7D7D7D7D7D7D7D7D7D7D7D7D7D7D7D7D7D7D7D7D7D7D7D7D7D7
310
D7D7D7D7D7D7D7D7D7D7D7D7D7D7D7D7D7D7D7D7D7D7D7D7D7D7D7D7D7D7D7D7D7D7D7D7D7D7D7D7D7D7D7D7D7D7D7D7D7D7D7D7D7D7D7D7D7D7D7D7D7D7D7D7D7D7D7D7D7D7D7D7D7D7D7D7D7D7D7D7D7D7D7D7D7D7D7D7D7D7D7D7D7D7D7D7D7D7D7D7D7D7D7D7D7D7D7D7D7D7D7D7D7D7D7D7D7D7D7D7D7D7D7D7D7D7D7
310
D7D7D7D7D7D7D7D7D7D7D7D7D7D7D7D7D7D7D7D7D7D7D700D7D7D7D7D7D7D7D7D70000D7D7D7D7D7D7D7D7D700D7D7D7D7D7D7D7D7D7D7D7D7D7D7D7D7D7D7D7D7D7D7D7D7D7D7D7D7D7D7D7D7D7D7D7D7D7D7D7D7D7D7D7D7D7D7D7D7D7D7D7D7D7D7D7D7D7D7D7D7D7D7D7D7D7D7D7D7D7D7D7D7D7D7D7D7D7D7D7D7D7D7
310
D7D7D7D7D7D7D7D7D7D7D7D7D7D7D7D7D7D7D7D7D7D7D7D7D7D7D7D7D7D7D7D7D7D7D7D7D7D7D7D7D7D7D7D7D7D7D7D7D7D7D7D7D7D7D7D7D7D7D7D7D7D7D7D7D7D7D7D7D7D7D7D7D7D7D7D7D7D7D7D7D7D7D7D7D7D7D7D7D7D7D7D7D7D7D7D7D7D7D7D7D7D7D7D7D7D7D7D700D7D7D7D7D7D7D7D7D70000D7D7D7D7D7D7D7
310
D7D700D7D7D7D7D7D7D7D7D7D7D7D7D7D7D7D7D7D7D7D7D7D7D7D7D7D7D7D7D7D7D7D7D7D7D7D7D7D7D7D7D7D7D7D7D7D7D7D7D7D7D7D7D7D7D7D7D7D7D7D7D7D7D7D7D7D7D7D7D7D7D7D7D7D7D7D7D7D7D7D7D7D7D7D7D7D7D7D7D7D7D7D7D7D7D7D7D7D7D7D7D7D7D7D7D7D7D7D7D7D7D7D7D7D7D7D7D7D7D7D7D7D7D7D7
310
D7D7D7D7D7D7D7D7D7D7D7D7D7D7D7D7D7D7D7D7D7D7D7D7D7D7D7D7D7D7D7D7D7D7D7D7D7D7D7D7D7D7D7D7D7D7D7D7D7D7D7D7D7D7D7D7D7D7D7D7D7D7D7D7D7D700D7D7D7D7D7D7D7D7D70000D7D7D7D7D7D7D7D7D700D7D7D7D7D7D7D7D7D7D7D7D7D7D7D7D7D7D7D7D7D7D7D7D7D7D7D7D7D7D7D7D7D7D7D7D7D7D7D7
310
D7D7D7D7D7D7D7D7D7D7D7D7D7D7D7D7D7D7D7D7D7D7D7D7D7D7D7D7D7D7D7D7D7D7D7D7D7D7D7D7D7D7D7D7D7D7D7D7D7D7D7D7D7D7D7D7D7D7D7D7D7D7D7D7D7D7D7D7D7D7D7D7D7D7D7D7D7D7D7D7D7D7D7D7D7D7D7D7D7D7D7D7D7D7D7D7D7D7D7D7D7D7D7D7D7D7D7D7D7D7D7D7D7D7D7D7D7D7D7D7D7D7D7D7D7D7D7
310
D7D7D7D7D7D7D7D7D7D7D7D7D7D7D7D7D7D7D7D7D7D7D7D700D7D7D7D7D7D7D7D7D70000D7D7D7D7D7D7D7D7D700D7D7D7D7D7000000D7000000D7D70000D7D7D7D70000D7D7D700D70000D700D70000D700D7000000D7D7D7D70000D7D7000000000000D7D70000D7D70000000000D70000D70000D7D7D700D7D700000000
310
0000D7D700D7D700D700000000D70000000000D700D7D70000D70000D70000D7D700000000D700000000D7D7D7D7000000D7D7000000000000D7D70000000000D7D70000000000D700D7D7D7D7D7D7D7D7D7D7D7D7D7D7D7D7D7D7D7D7D7D7D7D7D7D7D7D7D7D7D7D7D7D7D7D700D7D7D7D7D7D7D7D7D70000D7D7D7D7D7D7
310
D7D7D700D7D7D7D7000000D7D7000000D7D700D7D700D7D70000D7D7D7000000D7D700D7D700D7D70000D700D7D7D7D70000D7D70000D7000000D7D70000D7D70000000000D70000D7D700D700D700D7D70000000000D7D7D70000D700D7D70000D7D7D70000D700D700D7D700D7D70000D70000D7D7000000D7D70000D700
310
D7D700D7D70000D7D70000D700D700D7D7D70000D700D7D70000D70000D7D7D7D7D7D7D7D7D7D7D7D7D7D7D7D7D7D7D7D7D7D7D7D7D7D7D7D7D7D7D7D7D7D7D7D7D7D700D7D7D7D7D7D7D7D7D70000D7D7D7D7D7D7D7D7D700D7D7D7D7D7D7D7D7D7D7D7D7D7D700D7D70000D70000D7D70000D7D7D7D700D7D7000000D700
310
D7D7D7D7D7D70000D7D70000D7D7D7D7D7D7D7D7D7D7D7D7D7D7D7D7D7D7D7D700D7000000D7D7D7D7D7D7D7D7D7D7000000D7D7D7D7D7D7D7D7D7D7D700D7D7D7D7D7D7D7D7D7D700D7D7D700D7D7D7D700D7D7D7D7D700D7D7D7D7D7D7D7D7D7D7D7D7D7D7D7D700D7D7D7D7D7D7D7D7D7D7D7D7D7D7D7D7D7D7D7D7D7D7
310
D7D7D7D7D7D7D7D7D7D7D7D7D7D7D7D7D7D7D7D7D7D7D7D7D700D7D7D7D7D7D7D7D7D70000D7D7D7D7D7D7D7D7D700D7D7D7D7D7D7D7D7D7D7D7D7D7D7D7D7D7D7D7D7D7D7D7D7D7D7D7D7D7D7D7D7D7D7D7D7D7D7D7D7D7D7D7D7D7D7D7D7D7D7D7D7D7D7D7D7D7D7D7D7D7D7D7D7D7D7D7D7D7D7D7D7D7D7D7D7D7D7D7D7
310
D7D7D7D7D7D7D7D7D7D7D7D7D7D7D7D7D7D7D7D7D7D7D7D7D7D7D7D7D7D7D7D7D7D7D7D7D7D7D7D7D7D7D7D7D7D7D7D7D7D7D7D7D7D7D7D7D7D7D7D7D7D7D7D7D7D7D7D7D7D7D7D7D7D7D7D7D7D7D7D7D7D7D7D7D7D7D7D7D7D7D7D7D7D7D7D7D7D7D7D7D7D7D7D7D7D7D7D7D7D700D7D7D7D7D7D7D7D7D70000D7D7D7D7D7
310
D7D7D7D700D7D7D7D70000D70000D7D7D7D700D700D7D7000000D7D700000000D7D700000000D7D70000D7D7D70000D7D7000000D700D7000000D70000D70000D7D70000D7D7D700000000D700000000D7D70000D700D7D700000000D7000000D7D7000000D7D700D7D7D7D70000D7D70000000000D7D70000000000D7D700
310
00D70000D70000D70000D7D7D700000000D700000000D7D7D70000D70000D700000000D70000D70000D700D70000D7D70000000000D7D7D7D7D7D7D7D7D7D7D7D7D7D7D700D7D7D7D7D7D7D7D7D70000D7D7D7D7D7D7D7D7D700D7D7D7D70000D70000D70000D7D7D700D7D7000000D7D700000000D7D70000000000D70000
310
D7D7D70000D700000000D700D7000000D70000D7000000D70000D7D7D700000000D700000000D7D70000D700D7D700000000D70000000000000000D700D7D7D7D7D70000D7D7000000000000D7000000000000D70000D70000D70000D70000D7D7D700000000D700000000D7D7D70000D70000D700000000D70000D70000D7
310
00D70000D7D70000000000D7D7D7D7D7D7D7D7D7D7D7D7D7D7D700D7D7D7D7D7D7D7D7D70000D7D7D7D7D7D7D7D7D700D7D7D7D7D7D7D7D7D7D7D7D7D7D7D70000D7D7D7D7D7D7D7D70000D7D7D7D70000D7D7D7D7D7D7D7D7D7D7D7D7D7D7D7D7D7D7D7D7D700D7D7D7D7D7D7D7D7D7D7D7D7D7D7D7D7D7D700D7D7D7D7D7
310
D7D7D7D7D7D7D7D7D7D7D7D7D7D7D7D7D7D7D7D7D7D7D7D700D7D7D7D7D7D7D7D7D7D7D7D7D7D7D7D7D700D7D7D7D7D7D7D7D7D700D7D7D7D7D7D7D7D7D700D7D7D7D7D7D7D7D7D7D7D7D7D7D7D7D7D7D7D7D7D7D7D7D7D7D7D7D7D7D7D7D700D7D7D7D7D7D7D7D7D7D7D7D7D7D7D700D7D7D7D7D7D7D7D7D70000D7D7D7D7
310
D7D7D7D7D700D7D7D7D7D7D7D7D7D7D7D7D7D7D7D7D7D7D7D7D7D7D7D7D7D7D7D7D7D7D7D7D7D7D7D7D7D7D7D7D7D7D7D7D7D7D7D7D7D7D7D7D7D7D7D7D7D7D7D7D7D7D7D7D7D7D7D7D7D7D7D7D7D7D7D7D7D7D7D7D7D7D7D7D7D7D7D7D7D7D7D7D7D7D7D7D7D7D7D7D7D7D7D7D7D7D7D7D7D7D7D7D7D7D7D7D7D7D7D7D7D7
310
D7D7D7D7D7D7D7D7D7D7D7D7D7D7D7D7D7D7D7D7D7D7D7D7D7D7D7D7D7D7D7D7D7D7D7D7D7D7D7D7D7D7D7D7D7D7D7D7D7D7D7D7D7D7D7D7D7D7D7D7D7D7D7D7D7D7D7D7D700D7D7D7D7D7D7D7D7D70000D7D7D7D7D7D7D7D7D700D7D7D7D7D7D7D7D7D7D7D7D7D7D7D7D7D7D7D7D7D7D7D7D7D7D7D7D7D7D7D7D7D7D7D7D7
310
D7D7D7D7D7D7D7D7D7D7D7D7D7D7D7D7D7D7D7D7D7D7D7D7D7D7D7D7D7D7D7D7D7D7D7D7D7D7D7D7D7D7D7D7D7D7D7D7D7D7D7D70000D7D7D7D7D7D7D7D7D7D7D7D7D7D7D7D7D7D7D7D7D7D7D7D7D7D7D7D7D7D7D7D7D7D7D7D7D70000D7D7D7D7D7D700D7D7D7D7D7D7D7D7D7D7D7D7D7D7D7D7D7D7D7D7D7D7D7D7D7D7D7
310
D7D7D7D7D7D7D7D7D7D7D7D7D7D7D7D7D7D7D7D7D7D7D7D7D7D7D700D7D7D7D7D7D7D7D7D70000D7D7D7D7D7D7D7D7D700D7D7D7D7D700D7D700D7D7D7000000D7D700D70000D7D7D70000D7D70000D7D7D7D7D70000D7D7D7000000D7000000D7D700D7D7D7D7D7000000D7D700D7D7D700D7D700D70000D700D700D7D700
310
D7D700000000D7000000D70000D7D7000000D7D7D7D70000000000D7D7D700D7D70000D7D700D7D700D7D70000D70000D7D7000000D7D7D70000000000D700D7000000D7D7D700000000D7D700D700D7D700D70000D7D7D7D70000D700D7D70000D7D7D7D7D7D7D7D7D7D7D7D7D7D7D700D7D7D7D7D7D7D7D7D70000D7D7D7
310
D7D7D7D7D7D700D7D7D7D7D700D7D7D7D7D7D700D7D7D7D7D7D7D7D7D7D7D70000D7D7D7D7D7D7D7D7D7D7D7D7D7D7D7D7D7D7D7D7D7D7D700D7D7D7D7D7D7D700D7D70000D7D7D7D7D700D7D7D7D7D7D7D7D7D7D7D7D7D700D7D7D7D7D7D7D7D7D7D7D7D7D7D7D7D7D7D7D7D7D70000D7D7D700D7D70000D700D7D7D7D7D7
310
D7D7D7D7D7D7D7D7D7D7D7D7D7D7D7D7D7D7D7D7D7D7D700D7D7D7D7D7D700D7D7D7D7D7D7D7D7D7D7D7D7D7D7D7D7D7D7D7D7D7D7D7D7D7D7D7D7D7D7D7D7D7D7D7D7D7D7D700D7D7D7D7D7D7D7D7D70000D7D7D7D7D7D7D7D7D700D7D7D7D7D7D7D7D7D7D7D7D7D7D7D7D7D7D7D7D7D7D7D7D7D7D7D7D7D7D7D7D7D7D7D7
310
D7D7D7D7D7D7D7D7D7D7D7D7D7D7D7D7D7D7D7D7D7D7D7D7D7D7D7D7D7D7D7D7D7D7D7D7D7D7D7D7D7D7D7D7D7D7D7D7D7D7D7D7D7D7D7D7D7D7D7D7D7D7D7D7D7D7D7D7D7D7D7D7D7D7D7D7D7D7D7D7D7D7D7D7D7D7D7D7D7D7D7D7D7D7D7D7D7D7D7D7D7D7D7D7D7D7D7D7D7D7D7D7D7D7D7D7D7D7D7D7D7D7D7D7D7D7D7
310
D7D7D7D7D7D7D7D7D7D7D7D7D7D7D7D7D7D7D7D7D7D7D7D7D7D7D7D700D7D7D7D7D7D7D7D7D70000D7D7D7D7D7D7D7D7D700D7D7D7D7D7D7D7D7D7D7D7D70000D700000000D70000D700000000D7000000D70000D70000D70000D70000D7D700D70000D7D7000000D7D7000000D7D70000D7D70000D70000D7D7D7D7D70000
310
D7D7D7D70000D70000D700D70000D70000D700000000D7000000D7D7000000D7D700000000D7D70000000000D700D70000D7D7D7000000D70000D7D7D70000D7D70000D7D70000D7000000D70000D700D700D700D70000D70000D7000000D7D70000000000D7D7D7D7D7D7D7D7D7D7D7D700D7D7D7D7D7D7D7D7D70000D7D7
310
D7D7D7D7D7D7D700D7D7D7D7D700D7D7D7D700D70000D70000D700D70000D7000000D7D70000D7D70000D70000D70000D70000D7D700D70000D7D7000000D7D70000D7D7D70000D7D70000D70000D7D7D7D7D7000000D7D7D700D7D7D700D7D7D70000D7D700D700D70000D7D70000D7D700D700D7D7D7000000D7D7000000
310
D700D700D70000D7D7000000D7D70000D7D7D70000D7D70000D7D7D7D7D7000000D7D7D700D7D70000D7D70000000000D7000000D7D70000D70000D7D7D7D7D7D7D7D7D7D7D7D700D7D7D7D7D7D7D7D7D70000D7D7D7D7D7D7D7D7D700D7D7D7D7D700D7D7D7D700D700D7D7D7D7D7D7D7D7D7D7D7D7D7D7D7D7D7D7D7D7D7
310
D7D7D7D7D7D7D7D7D7D7D7D7D7D7D7D7D7D700D7D7D700D7D7D7D7D7D7D7D7D7D7D7D7D7D7D7D7D7D7D700D7D7D7D7D7D7D7D7D7D7D7D7D7D7D7D700D700D7D7D7D7D7D7D7D7D7D7D7D7D7D7D7D7D7D7D7D7D7D7D7D700D7D7D7D700D7D700D7D7D7D7D7D7D7D7D70000D7D7D7D7D7D70000D7D7D7D7D7D7D7D7D7D7000000
310
D7D7D700D7D7D7D7D7D7D7D7D7D7D7D7D7D7D7D7D7D7D7D7D7D7D7D7D700D7D7D7D7D7D7D7D7D70000D7D7D7D7D7D7D7D7D700D7D7D7D7D7D7D7D7D7D7D7D7D7D7D7D7D7D7D7D7D7D7D7D7D7D7D7D7D7D7D7D7D7D7D7D7D7D7D7D7D7D7D7D7D7D7D7D7D7D7D7D7D7D7D7D7D7D7D7D7D7D7D7D7D7D7D7D7D7D7D7D7D7D7D7D7
310
D7D7D7D7D7D7D7D7D7D7D7D7D7D7D7D7D7D7D7D7D7D7D7D7D7D7D7D7D7D7D7D7D7D7D7D7D7D7D7D7D7D7D7D7D7D7D7D7D7D7D7D7D7D7D7D7D7D7D7D7D7D7D7D7D7D7D7D7D7D7D7D7D7D7D7D7D7D7D7D7D7D7D7D7D7D7D7D7D7D7D7D7D7D7D7D7D7D7D7D7D7D7D7D7D7D7D7D7D7D7D7D7D7D700D7D7D7D7D7D7D7D7D70000D7
310
D7D7D7D7D7D7D7D700D7D7D7D7D7D7D7D7D7D7D7D7D7D7D7D7D7D7D7D7D7D7D7D7D7D7D7D7D7D7D7D7D7D7D7D7D7D7D7D7D7D7D7D7D7D7D7D7D7D7D7D7D7D7D7D7D7D7D7D7D7D7D7D7D7D7D7D7D7D7D7D7D7D7D7D7D7D7D7D7D7D7D7D7D7D7D7D7D7D7D7D7D7D7D7D7D7D7D7D7D7D7D7D7D7D7D7D7D7D7D7D7D7D7D7D7D7D7
310
D7D7D7D7D7D7D7D7D7D7D7D7D7D7D7D7D7D7D7D7D7D7D7D7D7D7D7D7D7D7D7D7D7D7D7D7D7D7D7D7D7D7D7D7D7D7D7D7D7D7D7D7D7D7D7D7D7D7D7D7D7D7D7D7D7D7D7D7D7D7D7D700D7D7D7D7D7D7D7D7D70000D7D7D7D7D7D7D7D7D700D7D7D7D700D700D7D7D7D7D700D700D7D7D70000D7D7D7D7D7D7D7D7D7D7D7D7D7
310
D7D7D7D7D7D7D7D7D7D7D7D7D7D7D7D7D7D7D7D7D7D7D7D7D7D7D7D7D7D7D7D7D7D7D7D7D7D7D7D7D7D7D7D7D7D7D7D7D7D7D7D7D7D7D7D7D7D7D7D7D7D7D7D7D7D7D7D7D7D7D7D7D7D7D7D7D7D7D7D7D7D7D7D7D7D7D7D7D7D7D7D7D7D7D7D7D7D7D7D7D7D7D7D7D7D7D7D7D7D7D7D7D7D7D7D7D7D7D7D7D7D7D7D7D7D7D7
310
D7D7D7D7D7D7D7D7D7D7D7D7D7D7D7D7D7D7D7D7D7D7D7D7D7D7D7D7D7D700D7D7D7D7D7D7D7D7D70000D7D7D7D7D7D7D7D7D700D7D7D7D7000000D7D7D7D7D700D700D7D7D7D7D7D7D7D7D7D7D7D7D7D7D7D7D7D7D7D7D7D7D7D7D7D7D7D7D7D7D7D7D7D7D7D7D7D7D7D7D7D7D7D7D7D7D7D7D7D7D7D7D7D7D7D7D7D7D7D7
310
D7D7D7D7D7D7D7D7D7D7D7D7D7D7D7D7D7D7D7D7D7D7D7D7D7D7D7D7D7D7D7D7D7D7D7D7D7D7D7D7D7D7D7D7D7D7D7D7D7D7D7D7D7D7D7D7D7D7D7D7D7D7D7D7D7D7D7D7D7D7D7D7D7D7D7D7D7D7D7D7D7D7D7D7D7D7D7D7D7D7D7D7D7D7D7D7D7D7D7D7D7D7D7D7D7D7D7D7D7D7D7D7D7D7D700D7D7D7D7D7D7D7D7D70000
310
D7D7D7D7D7D7D7D7D700D7D7D7D7D7D7D7D7D7D7D7D7D7D7D7D7D7D7D7D7D7D7D7D7D7D7D7D7D7D7D7D7D7D7D7D7D7D7D7D7D7D7D7D7D7D7D7D7D7D7D7D7D7D7D7D7D7D7D7D7D7D7D7D7D7D7D7D7D7D7D7D7D7D7D7D7D7D7D7D7D7D7D7D7D7D7D7D7D7D7D7D7D7D7D7D7D7D7D7D7D7D7D7D7D7D7D7D7D7D7D7D7D7D7D7D7D7
310
D7D7D7D7D7D7D7D7D7D7D7D7D7D7D7D7D7D7D7D7D7D7D7D7D7D7D7D7D7D7D7D7D7D7D7D7D7D7D7D7D7D7D7D7D7D7D7D7D7D7D7D7D7D7D7D7D7D7D7D7D7D7D7D7D7D7D7D7D7D7D7D7D700D7D7D7D7D7D7D7D7D70000D7D7D7D7D7D7D7D7D700D7D7D7D7D7D7D7D7D7D7D7D7D7D7D7D7D7D7D7D7D7D7D7D7D7D7D7D7D7D7D7D7
310
D7D7D7D7D7D7D7D7D7D7D7D7D7D7D7D7D7D7D7D7D7D7D7D7D7D7D7D7D7D7D7D7D7D7D7D7D7D7D7D7D7D7D7D7D7D7D7D7D7D7D7D7D7D7D7D7D7D7D7D7D7D7D7D7D7D7D7D7D7D7D7D7D7D7D7D7D7D7D7D7D7D7D7D7D7D7D7D7D7D7D7D7D7D7D7D7D7D7D7D7D7D7D7D7D7D7D7D7D7D7D7D7D7D7D7D7D7D7D7D7D7D7D7D7D7D7D7
310
D7D7D7D7D7D7D7D7D7D7D7D7D7D7D7D7D7D7D7D7D7D7D7D7D7D7D7D7D7D7D700D7D7D7D7D7D7D7D7D70000D7D7D7D7D7D7D7D7D700D7D7D7D7D7D7D7D7D7D7D7D7D7D7D7D7D7D7D7D7D7D7D7D7D7D7D7D7D7D7D700D7D7D7D7D7D7D7D7D7D7D7D7D7D7D7D7D7D7D7D7D7D7D7D7D7D7D7D7D7D7D7D7D7D7D7D7D7D7D7D7D7D7
310
D7D7D7D7D7D7D7D7D7D7D7D7D7D7D7D7D7D7D7D7D7D7D7D7D7D7D7D7D7D7D7D7D7D7D7D7D7D7D7D7D7D7D7D7D7D7D7D7D7D7D7D7D7D7D7D7D7D7D7D7D7D7D7D7D7D7D7D7D7D7D7D7D7D7D7D7D7D7D7D7D7D7D7D7D7D7D7D7D7D7D7D7D7D7D7D7D7D7D700D7D7D7D7D7D7D7D7D7D7D7D7D7D7D7D700D7D7D7D7D7D7D7D7D700
310
00D7D7D7D7D7D7D7D7D700D7D7D7D7D7D7D7D7D7D7D7D7D7D7D7D7D7D7D7D7D7D7D7D7D7D7D7D7D700D700D7D7D7D7D7D7D7D7D7D7D7D7D7D7D7D7D7D7D7D7D7D7D7D7D7D7D7D7D7D7D7D7D7D7D7D7D7D7D7D7D7D7D7D7D7D7D7D7D7D7D7D7D7D7D7D7D7D7D7D7D7D7D7D7D7D7D7D7D7D7D7D7D7D7D7D7D7D7D7D7D7D7D7D7
310
D7D7D7D7D7D7D7D7D7D7D7D7D7D7D7D7D7D7D7D7D7D7D7D7D7D7D7D7D7D7D7D7D7D7D7D7D7D7D7D7D7D7D7D7D7D7D7D7D7D7D7D7D7D7D700D700D7D7D7D7D7D7D7D7D7D7D7D7D7D7D7D700D7D7D7D7D7D7D7D7D70000D7D7D7D7D7D7D7D7D700D7D7D7D7D7D7D7D7D7D7D7D7D7D7D7D7D7D7D7D7D7D7D7D7D7D7D7D7D7D7D7
310
00D7D7D7D7D7D7D7D7D7D7D7D7D7D7D7D7D7D7D7D7D7D7D7D7D7D7D7D7D7D7D7D7D7D7D7D7D7D7D7D7D7D7D7D7D7D7D7D7D7D7D7D7D7D7D7D7D7D7D7D7D7D7D7D7D7D7D7D7D7D7D7D7D7D7D7D7D7D7D7D7D7D7D7D7D7D7D7D7D7D7D7D7D7D7D7D7D7D7D7D7D7D7D7D7D7D7D7D7D7D7D7D7D7D7D7D7D7D7D7D7D7D7D7D7D7D7
310
D7D7D7D7D7D7D7D7D7D7D7D7D7D70000D7D7D7D7D7D7D7D7D7D7D7D7D7D7D7D700D7D7D7D7D7D7D7D7D70000D7D7D7D7D7D7D7D7D700D7D7D7D7D7D7D7D7D7D7D7D7D7D7D7D7D7D7D7D7D7D7D7D7D7D7D7D7D7D7D700D7D7D7D7D7D7D7D7D7D7D7D7D7D7D7D7D7D7D7D7D7D7D7D7D7D7D7D7D7D7D7D7D7D7D7D7D7D7D7D7D7
310
D7D7D7D7D7D7D7D7D7D7D7D7D7D7D7D7D7D7D7D7D7D7D7D7D7D7D7D7D7D7D7D7D70000D7D7D7D7D7D7D7D7D7D7D7D7D7D7D7D7D7D7D7D7D7D7D7D7D7D7D7D7D7D7D7D7D7D7D7D7D7D7D7D7D7D7D7D7D7D7D7D7D7D7D7D7D7D7D7D7D7D7D7D7D7D7D7D7D700D7D7D7D7D7D7D7D7D7D7D7D7D7D7D7D700D7D7D7D7D7D7D7D7D7
310
0000D7D7D7D7D7D7D7D7D700D7D7D7D7D7D7D7D7D7D7D7D7D7D7D7D7D7D7D7D7D7D7D7D7D7D7D7D7D7D7D70000D7D7D7D7D7D7D7D7D7D7D7D7D7D7D7D7D7D7D7D7D7D7D7D7D7D7D7D7D7D7D7D7D7D7D7D7D7D7D7D7D7D7D7D7D7D7D7D7D7D7D7D7D7D7D7D7D7D7D70000D7D70000D70000D7D7D7000000D7D7000000D7D7D7
310
D7D7D7D7D7D7D7D7D7D7D7D7D7D7D7D7D7D7D7D7D7D7D7D7D7D7D7D7D7D7D7D7D7D7D7D7D7D7D7D7D7D7D7D7D7D7D7D7D7D7D7D7D7D7D7D7D7D700D7D7D7D7D7D7D7D7D7D7D7D7D7D7D7D700D7D7D7D7D7D7D7D7D70000D7D7D7D7D7D7D7D7D700D7D7D7D7D7D7D7D7D7D7D7D7D7D7D7D7D7D7D7D7D7D7D7D7D7D7D7D7D7D7
310
D700D7D7D7D7D7D7D7D7D7D7D7D7D7D7D7D7D7D7D7D7D7D7D7D7D7D7D7D7D7D7D7D7D7D7D7D7D7D7D7D7D7D7D7D7D7D7D7D7D7D7D7D7D7D7D7D7D7D7D7D7D7D7D7D70000D70000D7D7D700D70000D700000000D7D7D7D7D7D7D7D7D7D7D7D7D7D7D7D7D7D7D7D7D7D7D7D7D7D7D7D7D7D7D7D7D7D7D7D7D7D7D7D7D7D7D7D7
310
D7D7D7D7D7D7D7D7D7D7D7D7D7D7D7D700D700D7D7D7D7D7D7D7D7D7D7D7D7D7D700D7D7D7D7D7D7D7D7D70000D7D7D7D7D7D7D7D7D700D7D7D7D7D7D7D7D7D7D7D7D7D7D7D7D7D7D7D7D7D7D7D7D7D7D7D7D7D7D7D700D7D700D7D7D7D7D7D7D7D7D7D7D7D7D7D7D7D7D7D7D7D7D7D7D7D7D7D7D7D7D7D7D7D7D7D7D7D7D7
310
D7D7D7D7D7D7D7D7D7D7D7D7D7D7D7D7D7D7D7D70000D7D7D7D7D7D7D7D7D7D70000D7D7D7D7D7D7D7D7D7D7D7D7D7D7D7D7D7D7D7D7D7D7D7D7D7D7D7D7D7D7D7D7D7D7D7D7D7D7D7D7D7D7D7D7D7D7D7D7D7D7D7D7D7D7D7D7D7D7D7D7D7D7D7D7D7D7D700D7D7D7D7D7D7D7D7D7D7D7D7D7D7D7D700D7D7D7D7D7D7D7D7
310
D70000D7D7D7D7D7D7D7D7D700D7D7D7D7D7D7D7D7D7D7D7D7D7D7D7D7D7D7D7D7D7D7D7D7D7D7D7D7D7D7D700D7D7D7D7D7D7D7D7D7D7D7D7D7D7D7D7D7D7D7D7D7D7D7D7D7D7D7D7D7D7D7D7D7D7D7D7D7D7D7D7D7D7D7D7D7D7D7D7D7D7D7D7D7D7D7D7D7D7D7D7D7D7D7D7D7D7D7D7D7D7D7D7D7D7D7D7D7D7D7D7D7D7
310
D7D7D7D7D7D7D7D7D7D7D7D7D7D7D7D7D7D7D7D7D7D7D7D7D7D7D7D7D7D7D7D7D7D7D7D7D7D7D7D7D7D7D7D7D7D7D7D7D7D7D7D7D7D7D7D7D7D7D700D7D7D7D7D7D7D7D7D7D7D7D7D7D7D7D700D7D7D7D7D7D7D7D7D70000D7D7D7D7D7D7D7D7D700D7D7D7D7D7D7D7D7D7D7D7D7D7D7D7D7D7D7D7D7D7D7D7D7D7D7D7D7D7
310
D7D700D7D7D7D7D7D7D7D7D7D7D7D7D7D7D7D7D7D7D7D7D7D7D7D7D7D7D7D7D7D7D7D7D7D7D7D7D7D7D7D7D7D7D7D7D7D7D7D7D7D7D7D7D7D7D7D7D7D7D7D7D7D7D7D7D7D7D7D7D7D7D7D7D7D7D7D7D7D7D7D7D7D7D7D7D7D7D7D7D7D7D7D7D7D7D7D7D7D7D7D7D7D7D7D7D7D7D7D7D7D7D7D7D7D7D7D7D7D7D7D7D7D7D7D7
310
D7D7D7D7D7D7D7D7D7D7D7D7D7D7D7D7D700D7D7D7D7D7D7D7D7D7D7D7D7D7D7D7D700D7D7D7D7D7D7D7D7D70000D7D7D7D7D7D7D7D7D700D7D7D7D7D7D7D7D7D7D7D7D7D7D7D7D7D7D7D7D7D7D7D7D7D7D7D7D7D7D7D7D7D7D7D7D7D7D7D7D7D7D7D7D7D7D7D7D7D7D7D7D7D7D7D7D7D7D7D7D7D7D7D7D7D7D7D7D7D7D7D7
310
D7D7D7D7D7D7D7D7D7D7D7D7D7D7D7D7D7D7D7D7D7D7D7D7D7D7D7D7D7D7D7D7D7D7D7D7D7D7D7D7D7D7D7D7D7D7D7D7D7D7D7D7D7D7D7D7D7D7D7D7D7D7D7D7D7D7D7D7D7D7D7D7D7D7D7D7D7D7D7D7D7D7D7D7D7D7D7D7D7D7D7D7D7D7D7D7D7D7D7D7D7D7D7D7D7D7D7D7D7D7D7D7D7D7D7D7D7D7D700D7D7D7D7D7D7D7
310
D7D70000D7D7D7D7D7D7D7D7D700D7D7D7D7D7D7D7D7D7D7D7D7D7D7D7D7D7D7D7D7D7D7D7D7D7D7D7D7D7D7D700D7D7D7D7D7D7D7D7D7D7D7D7D7D7D7D7D7D7D7D7D7D7D7D7D7D7D7D7D7D7D7D7D7D7D7D7D7D7D7D7D7D7D7D7D7D7D7D7D7D7D7D7D7D7D7D7D7D7D7D7D7D7D7D7D7D7D7D7D7D7D7D7D7D7D7D7D7D7D7D7D7
310
D7D7D7D7D7D7D7D7D7D7D7D7D7D7D7D7D7D7D7D7D7D7D7D7D7D7D7D7D7D7D7D7D7D7D7D7D7D7D7D7D7D7D7D7D7D7D7D7D7D7D7D7D7D7D7D7D7D7D7D700D7D7D7D7D7D7D700D7D7D7D7D7D7D7D700D7D7D7D7D7D7D7D7D70000D7D7D7D7D7D7D7D7D700D7D7D7D7D7D7D7D7D7D7D7D7D7D7D7D7D7D7D7D7D7D7D7D7D7D7D7D7
310
D7D7D700D7D7D7D7D7D7D7D7D7D7D7D7D7D7D7D7D7D7D7D7D7D7D7D7D7D7D7D7D7D7D7D7D7D7D7D7D7D7D7D7D7D7D7D7D7D7D7D7D7D7D7D7D7D7D7D7D7D7D7D7D7D7D7D7D7D7D7D7D7D7D7D7D7D7D7D7D7D7D7D7D7D7D7D7D7D7D7D7D7D7D7D7D7D7D7D7D7D7D7D7D7D7D7D7D7D7D7D7D7D7D7D7D7D7D7D7D7D7D7D7D7D7D7
310
D7D7D7D7D7D7D7D7D7D7D7D7D7D7D7D7D7D700D7D7D7D7D7D7D700D7D7D7D7D7D7D7D700D7D7D7D7D7D7D7D7D70000D7D7D7D7D7D7D7D7D700D7D7D7D7D7D7D7D7D7D7D7D7D7D7D7D7D7D7D7D7D7D7D7D7D7D7D7D7D7D7D700D7D7D7D7D7D7D7D7D7D7D7D7D7D7D7D7D7D7D7D7D7D7D7D7D7D7D7D7D7D7D7D7D7D7D7D7D7D7
310
D7D7D7D7D7D7D7D7D7D7D7D7D7D7D7D7D7D7D7D7D7D7D7D7D7D7D7D7D7D7D7D7D7D7D7D7D7D7D7D7D7D7D7D7D7D7D7D7D7D7D7D7D7D7D7D7D7D7D7D7D7D7D7D7D7D7D7D7D7D7D7D7D7D7D7D7D7D7D7D7D7D7D7D7D7D7D7D7D7D7D7D7D7D7D7D7D7D7D7D7D7D7D700D7D7D7D7D7D7D700D7D7D7D7D7D7D7D700D7D7D7D7D7D7
310
D7D7D70000D7D7D7D7D7D7D7D7D700D7D7D7D7D7D7D7D7D7D7D7D7D7D7D7D7D7D7D7D7D7D7D7D7D7D7D7D7D7D7D700D7D7D7D7D7D7D7D7D7D7D7D7D7D7D7D7D7D7D7D7D7D7D7D7D7D7D7D7D7D7D7D7D7D7D7D7D7D7D7D7D7D7D7D7D7D7D7D7D7D7D7D7D7D7D7D7D7D7D7D7D7D7D7D7D7D7D7D7D7D7D7D7D7D7D7D7D7D7D7D7
310
D7D7D7D7D7D7D7D7D7D7D7D7D7D7D7D7D7D7D7D7D7D7D7D7D7D7D7D7D7D7D7D7D7D7D7D7D7D7D7D7D7D7D7D7D7D7D7D7D7D7D7D7D7D7D7D7D7D7D7D7D700D7D7D7D7D7D7D700D7D7D7D7D7D7D7D700D7D7D7D7D7D7D7D7D70000D7D7D7D7D7D7D7D7D700D7D7D7D7D7D7D7D7D7D7D7D7D7D7D7D7D7D7D7D7D7D7D7D7D7D7D7
310
D7D7D7D700D7D7D7D7D7D7D7D7D7D7D7D7D7D7D7D7D7D7D7D7D7D7D7D7D7D7D7D7D7D7D7D7D7D7D7D7D7D7D7D7D7D7D7D7D7D7D7D7D7D7D7D7D7D7D7D7D7D7D7D7D7D7D7D7D7D7D7D7D7D7D7D7D7D7D7D7D7D7D7D7D7D7D7D7D7D7D7D7D7D7D7D7D7D7D7D7D7D7D7D7D7D7D7D7D7D7D7D7D7D7D7D7D7D7D7D7D7D7D7D7D7D7
310
D7D7D7D7D7D7D7D7D7D7D7D7D7D7D7D7D7D7D700D7D7D7D7D7D7D700D7D7D7D7D7D7D7D700D7D7D7D7D7D7D7D7D70000D7D7D7D7D7D7D7D7D700D7D7D7D7D7D7D7D7D7D7D7D7D7D7D7D7D7D7D7D7D7D7D7D7D7D7D7D7D7D7D700D7D7D7D7D7D7D7D7D7D7D7D7D7D7D7D7D7D7D7D7D7D7D7D7D7D7D7D7D7D7D7D7D7D7D7D7D7
310
D7D7D7D7D7D7D7D7D7D7D7D7D7D7D7D7D7D7D7D7D7D7D7D7D7D7D7D7D7D7D7D7D7D7D7D7D7D7D7D7D7D7D7D7D7D7D7D7D7D7D7D7D7D7D7D7D7D7D7D7D7D7D7D7D7D7D7D7D7D7D7D7D7D7D7D7D7D7D7D7D7D7D7D7D7D7D7D7D7D7D7D7D7D7D7D7D7D7D7D7D7D7D7D700D7D7D7D7D7D7D700D7D7D7D7D7D7D7D700D7D7D7D7D7
310
D7D7D7D70000D7D7D7D7D7D7D7D7D700D7D7D7D7D7D7D7D7D7D7D7D7D7D7D7D7D7D7D7D7D7D7D7D7D7D7D7D7D7D7D700D7D7D7D7D7D7D7D7D7D7D7D7D7D7D7D7D7D7D7D7D7D7D7D7D7D7D7D7D7D7D7D7D7D7D7D7D7D7D7D7D7D7D7D7D7D7D7D7D7D7D7D7D7D7D7D7D7D7D7D7D7D7D7D7D7D7D7D7D7D7D7D7D7D7D7D7D7D7D7
310
D7D7D7D7D7D7D7D7D7D7D7D7D7D7D7D7D7D7D7D7D7D7D7D7D7D7D7D7D7D7D7D7D7D7D7D7D7D7D7D7D7D7D7D7D7D7D7D7D7D7D7D7D7D7D7D7D7D7D7D7D7D700D7D7D7D7D7D7D700D7D7D7D7D7D7D7D700D7D7D7D7D7D7D7D7D70000D7D7D7D7D7D7D7D7D700D7D7D7D7D7D7D7D7D7D7D7D7D7D7D7D7D7D7D7D7D7D7D7D7D7D7
310
D7D7D7D7D700D7D7D7D7D7D7D7D7D7D7D7D7D7D7D7D7D7D7D7D7D7D7D7D7D7D7D7D7D7D7D7D7D7D7D7D7D7D7D7D7D7D7D7D7D7D7D7D7D7D7D7D7D7D7D7D7D7D7D7D7D7D7D7D7D7D7D7D7D7D7D7D7D7D7D7D7D7D7D7D7D7D7D7D7D7D7D7D7D7D7D7D7D7D7D7D7D7D7D7D7D7D7D7D7D7D7D7D7D7D7D7D7D7D7D7D7D7D7D7D7D7
310
D7D7D7D7D7D7D7D7D7D7D7D7D7D7D7D7D7D7D7D700D7D7D7D7D7D7D700D7D7D7D7D7D7D7D700D7D7D7D7D7D7D7D7D70000D7D7D7D7D7D7D7D7D700D7D7D7D7D7D7D7D7D7D7D7D7D7D7D7D7D7D7D7D7D7D7D7D7D7D7D7D7D7D7D700D7D7D7D7D7D7D7D7D7D7D7D7D7D7D7D7D7D7D7D7D7D7D7D7D7D7D7D7D7D7D7D7D7D7D7D7
310
D7D7D7D7D7D7D7D7D7D7D700D7D7D7D7D7D7D7D7D7D7D7D7D7D7D7D7D7D7D7D7D7D7D7D7D7D7D7D7D7D7D7D7D7D7D7D7D7D7D7D7D7D7D700D7D700D7D7D7D7D7D7D7D7D7D7D7D7D7D7D7D7D7D7D7D7D7D7D7D7D7D7D7D7D7D7D7D7D7D7D7D7D7D7D7D7D7D7D7D7D7D700D7D7D7D7D7D7D700D7D7D7D7D7D7D7D700D7D7D7D7
310
D7D7D7D7D70000D7D7D7D7D7D7D7D7D700D7D7D7D7D7D7D7D7D7D7D7D7D7D7D7D7D7D7D7D7D7D7D7D7D7D7D7D7D7D70000D7D7D7D7D7D7D7D7D7D7D7D7D7D7D7D7D7D7D7D7D7D7D7D7D7D7D7D7D7D7D7D7D7D7D7D7D7D7D7D7D7D7D7D7D700D700D7D7D7D7D7D7D7D7D7D7D7D7D7D7D7D7D7D7D7D7D7D7D7D7D7D7D7D7D7D7
310
D7D7D7D7D7D7D7D7D7D7D7D7D7D7D7D700D7D7D7D7D7D7D7D7D7D7D7D7D7D7D7D7D7D7D7D7D7D7D7D7D7D7D7D7D7D7D7D7D7D7D7D7D7D7D7D7D7D7D7D7D7D700D7D7D7D7D7D7D700D7D7D7D7D7D7D7D700D7D7D7D7D7D7D7D7D70000D7D7D7D7D7D7D7D7D700D7D7D7D7D7D7D7D7D7D7D7D7D7D7D7D7D7D7D7D7D7D7D7D7D7
310
D7D7D7D7D7D700D7D7D7D7D7D7D7D7D7D7D7D7D7D7D7D7D7D7D7D7D7D7D7D7D7D7D7D7D7D7D7D7D7D7D7D7D7D7D7D7D7D7D7D7D7D7D700D7D7D7D7D7D7D7D7D7D7D7D7D7D7D7D7D7D7D7D7D7D7D7D7D7D7D7D7D7D7D7D7D7D7D7D7D7D7D7D7D7D7D7D7D70000D7D7D7D7D7D7D7D7D7D7D7D7D7D7D7D7D7D7D7D7D7D7D7D7D7
310
D7D7D7D7D7D7D7D7D7D7D7D7D7D7D7D7D7D7D7D70000D7D7D7D7D7D7D700D7D7D7D7D7D7D7D700D7D7D7D7D7D7D7D7D70000D7D7D7D7D7D7D7D7D700D7D7D7D7D7D7D7D7D7D7D7D7D7D7D7D7D7D7D7D7D7D7D7D7D7D7D7D7D70000000000000000000000000000000000000000000000000000000000000000000000000000
310
00000000000000000000000000000000000000000000000000000000000000000000000000000000000000000000000000000000000000000000000000000000000000000000000000000000000000000000000000000000000000000000000000000000000000000000000000D7D7D7D7D700D7D7D7D7D7D7D7D700D7D7D7
310
D7D7D7D7D7D70000D7D7D7D7D7D7D7D7D700D7D7D7D7D7D7D7D7D7D7D7D7D7D7D7D7D7D7D7D7D7D7D7D7D7D7D7D7D7D7D700D700D7D7D7D7D7D7D7D7D7D7D7D7D7D7D7D7D7D7D7D7D7D7D7D7D7D7D7D7D7D7D7D7D7D7D7D7D7D7D7D7D7D7D7D7D70000D7D7D7D7D7D7D7D7D700D70000D7000000D7D7000000D7D7D7000000
310
00D7D70000D7D7D700D7D7D7D7D7D7D7D70000D7D7D7D7D7D7D7D7D7D7D7D7D7D7D7D7D7D7D7D7D7D7D7D7D7D7D7D7D7D7D7D7D7D7D7D7D7D7D7D7D7D7D7D7D70000D7D7D7D7D7D700D7D7D7D7D7D7D7D700D7D7D7D7D7D7D7D7D70000D7D7D7D7D7D7D7D7D700D7D7D7D7D7D7D7D7D7D7D7D7D7D7D7D7D7D7D7D7D7D7D7D7
310
D7D7D7D7D7D7D700D7D7D7D7D7D7D7D7D7D7D7D7D7D7D7D7D7D7D7D7D7D7D7D7D7D7D7D7D7D7D7D7D7D7D7D7D7D7D7D7D7D7D7D7D7D7D700D7D7D7D7D7D7D7D700D700D70000D7D70000D7D7D70000D7D7D700000000D7D70000D7D7D700D7D7D7D7D7D7D7D700D700D7D7D7D7D7D7D7D7D7D7D7D7D7D7D7D7D7D7D7D7D7D7
310
D7D7D7D7D7D7D7D7D7D7D7D7D7D7D7D7D7D7D7D7D7D700D700D7D7D7D7D700D7D7D7D7D7D7D7D700D7D7D7D7D7D7D7D7D70000D7D7D7D7D7D7D7D7D700D7D7D7D7D7D7D7D7D7D7D7D7D7D7D7D7D7D7D7D7D7D7D7D7D7D7D7D7D7D7D700D7D7D7D7D7D7D7D7D7D7D7D7D7D7D7D7D7D7D7D7D7D7D7D7D7D7D7D7D7D7D7D7D7D7
310
D7D7D7D7D7D7D7D7D7D7D7D7D700D7D7D7D7D7D7D7D700D700D70000D7D7D7D7D7D7D7D7D7D7D7D700D7D7D7D7D7D7D7D7D7D7D7D7D7D7D7D7D7D7D700D7D7D7D7D7D7D7D7D7D7D7D7D7D7D7D7D7D7D7D7D7D7D7D7D7D7D7D7D7D7D7D7D7D7D7D7D7D7D7D7D7D7D7D7D7D700D7D7D7D7D7D7D700D7D7D7D7D7D7D7D700D7D7
310
D7D7D7D7D7D7D70000D7D7D7D7D7D7D7D7D700D7D7D7D7D7D7D7D7D7D7D7D7D7D7D7D7D7D7D7D7D7D7D7D7D7D7D7D7D7D7D700D7D7D7D7D7D7D7D7D7D7D7D7D7D7D7D7D7D7D7D7D7D7D7D7D7D7D7D7D7D7D7D7D7D7D7D7D7D7D7D7D7D7D7D7D7D7D700D7D7D7D7D7D7D7D7D7D7D7D7D7D7D7D7D7D7D7D7D7D7D7D7D7D7D7D7
310
D7D7D7D7D7D7D7D7D7D7D7D7D7D7D7D7D7D700D7D7D7D7D7D7D7D7D7D7D7D7D7D7D7D7D7D7D7D7D7D7D7D7D7D7D7D7D7D7D7D7D7D7D7D7D7D7D7D7D7D7D7D7D7D700D7D7D7D7D7D7D700D7D7D7D7D7D7D7D700D7D7D7D7D7D7D7D7D70000D7D7D7D7D7D7D7D7D700D7D7D7D7D7D7D7D7D7D7D7D7D7D7D7D7D7D7D7D7D7D7D7
310
D7D700D7D7D7000000D7D7D7D7D7D7D7D7D7D7D7D7D7D7D7D7D7D7D7D7D7D7D7D7D7D7D7D7D7D7D7D7D7D7D7D7D7D7D7D7D7D7D7D7D7D7D700D7D7D7D7D7D7D7D7D7D7D7D7D7D7D7D7D7D7D7D7D7D7D7D7D7D7D7D7D7D7D7D7D7D7D7D7D7D7D7D7D7D7D7D7D7D700D7D7D7D7D7D7D7D7D7D7D7D7D7D7D7D7D7D7D7D7D7D7D7
310
D7D7D7D7D7D7D7D7D7D7D7D7D7D7D7D7D7D7D7D7D7D7D7000000D7D7D7000000D7D7D7D7D7D7D7D700D7D7D7D7D7D7D7D7D70000D7D7D7D7D7D7D7D7D700D7D7D7D7D7D7D7D7D7D7D7D7D7D7D7D7D7D7D7D7D7D7D7D7D7D700D700D7D700D7D7D7D7D7D7D7D7D7D7D7D7D7D7D7D7D7D7D7D7D7D7D7D7D7D7D7D7D7D7D7D7D7
310
D7D7D7D7D7D7D7D7D7D7D7D7D7D700D7D7D7D7D7D7D7D7D7D7D7D7D7D7D7D7D7D7D7D7D7D7D7D7D7D7D7D7D7D7D7D7D7D7D7D7D7D7D7D7D7D7D7D7D7D700D7D7D7D7D7D7D7D7D7D7D7D7D7D7D7D7D7D7D7D7D7D7D7D7D7D7D7D7D7D7D7D7D7D7D7D7D7D7D7D7D7D7D7D7D7D700D7D7000000D7D700D7D7D7D7D7D7D7D700D7
310
D7D7D7D7D7D7D7D70000D7D7D7D7D7D7D7D7D700D7D7D7D7D7D7D7D7D7D7D7D7D7D7D7D7D7D7D7D7D7D7D7D7D700D7D7D7000000D7D7D7D7D7D7D7D7D7D7D7D7D7D7D7D7D7D7D7D7D7D7D7D7D7D7D7D7D7D7D7D7D7D7D7D7D7D7D7D7D7D7D7D7D7D7D700D7D7D7D7D7D7D7D7D7D7D7D7D7D7D7D7D7D7D7D7D7D7D7D7D7D7D7
310
D7D7D7D7D7D7D7D7D7D7D7D7D7D7D7D7D7D7D700D7D7D7D7D7D7D7D7D7D7D7D7D7D7D7D7D7D7D7D7D7D7D7D7D7D7D7D7D7D7D7D7D7D7D7D7D7D7D7D7D7D7D7D7D7D7000000D7D7D7000000D7D7D7D7D7D7D7D700D7D7D7D7D7D7D7D7D70000D7D7D7D7D7D7D7D7D700D7D7D7D7D7D7D7D7D7D7D7D7D7D7D7D7D7D7D7D7D7D7
310
D7D7D700D7D7D7000000D7D7D7D7D7D7D7D7D7D7D7D7D7D7D7D7D7D7D7D7D7D7D7D7D7D7D7D7D7D7D7D7D7D7D7D7D7D7D7D7D7D7D7D7D7D7D700D7D7D7D7D7D7D7D7D7D7D7D7D7D7D7D7D7D7D7D7D7D7D7D7D7D7D7D7D7D7D7D7D7D7D7D7D7D7D7D7D7D7D7D7D7D700D7D7D7D7D7D7D7D7D7D7D7D7D7D7D7D7D7D7D7D7D7D7
310
D7D7D7D7D7D7D7D7D7D7D7D7D7D7D7D7D7D7D7D7D7D7D7D7000000D7D7D7000000D7D7D7D7D7D7D7D700D7D7D7D7D7D7D7D7D70000D7D7D7D7D7D7D7D7D700D7D7D7D7D7D7D7D7D7D7D7D7D7D7D7D7D7D7D7D7D7D7D7D7D7D7000000D7D700D7D7D7D7D7D7D7D7D7D7D7D7D7D7D7D7D7D7D7D7D7D7D7D7D7D7D7D7D7D7D7D7
310
D7D7D7D7D7D7D7D7D7D7D7D7D7D7D700D7D7D7D7D7D7D7D7D7D7D7D7D7D7D7D7D7D7D7D7D7D7D7D7D7D7D7D7D7D7D7D7D7D7D7D7D7D7D7D7D7D7D7D7D7D700D7D7D7D7D7D7D7D7D7D7D7D7D7D7D7D7D7D7D7D7D7D7D7D7D7D7D7D7D7D7D7D7D7D7D7D7D7D7D7D7D7D7D7D7D7D700D7D7000000D7D700D7D7D7D7D7D7D7D700
310
D7D7D7D7D7D7D7D7D70000D7D7D7D7D7D7D7D7D700D7D7D7D7D7D7D7D7D7D7D7D7D7D7D7D7D7D7D7D7D7D7D7D7D700D7D7D7000000D7D7D7D7D7D7D7D7D7D7D7D7D7D7D7D7D7D7D7D7D7D7D7D7D7D7D7D7D7D7D7D7D7D7D7D7D7D7D7D7D7D7D7D7D7D7D7D7D7D7D7D7D7D7D7D7D7D7D7D7D7D7D7D7D7D7D7D7D7D7D7D7D7D7
310
D7D7D7D7D7D7D7D7D7D7D7D7D7D7D7D7D7D7D7D7D7D7D7D7D7D7D7D7D7D7D7D7D7D7D7D7D7D7D7D7D7D7D7D7D7D7D7D7D7D7D7D7D7D7D7D7D7D7D7D7D7D7D7D7D7D7D7000000D7D7D7000000D7D7D7D7D7D7D7D700D7D7D7D7D7D7D7D7D70000D7D7D7D7D7D7D7D7D700D7D7D7D7D7D7D7D7D7D7D7D7D7D7D7D7D7D7D7D7D7
310
D7D7D700000000000000000000000000000000000000000000000000000000000000000000000000000000000000000000000000000000000000000000000000000000000000000000000000000000000000000000000000000000000000000000000000000000000000000000000000000000000000000000000000000000
310
00000000000000000000000000000000000000000000000000000000000000000000D7D7D7D7D7D7D7D700D7D7D7D7D7D7D7D7D70000D7D7D7D7D7D7D7D7D700D7D7D7D7D7D7D7D7D7D7D7D7D7D7D7D7D7D7D7D7D7D7D7D7D7D7D7D7D7D7D7D7D7D7D7D7D7D7D7D7D7D7D7D7D7D7D7D7D7D7D7D7D7D7D7D7D7D7D7D7D7D7D7
310
D7D7D7D7D7D7D7D7D7D7D7D7D7D7D7D7D7D7D7D7D7D7D7D7D7D7D7D7D7D7D7D7D7D7D7D7D7D7D7D7D7D7D7D7D7D7D7D7D7D7D7D7D7D7D7D7D7D7D7D7D7D7D7D7D7D7D7D7D7D7D7D7D7D7D7D7D7D7D7D7D7D7D7D7D7D7D7D7D7D7D7D7D7D7D7D7D7D7D7D7D7D7D7D7D7D7D7D7D7D7D7D7D7D7D7D7D7D700D7D7D7D7D7D7D7D7
310
00D7D7D7D7D7D7D7D7D70000D7D7D7D7D7D7D7D7D700D7D7D7D7D7D7D7D7D7D7D7D7D7D7D7D7D7D7D7D7D7D7D7D7D7D7D7D7D7D7D7D7D7D7D7D7D7D7D7D7D7D7D7D7D7D7D7D7D7D7D7D7D7D7D7D7D7D7D7D7D7D7D7D7D7D7D7D7D7D7D7D7D7D7D7D7D7D7D7D7D7D7D7D7D7D7D7D7D7D7D7D7D7D7D7D7D7D7D7D7D7D7D7D7D7
310
D7D7D7D7D7D7D7D7D7D7D7D7D7D7D7D7D7D7D7D7D7D7D7D7D7D7D7D7D7D7D7D7D7D7D7D7D7D7D7D7D7D7D7D7D7D7D7D7D7D7D7D7D7D7D7D7D7D7D7D7D7D7D7D7D7D7D7D7D7D7D7D7D7D7D7D700D7D7D7D7D7D7D7D700D7D7D7D7D7D7D7D7D70000D7D7D7D7D7D7D7D7D700D7D7D7D7D7D7D7D7D7D7D7D7D7D7D7D7D7D7D7D7
310
D7D7D7D7D7D7D7D7D7D7D7D7D7D7D7D7D7D7D7D7D7D7D7D7D7D7D7D7D7D7D7D7D7D7D7D7D7D7D7D7D7D7D7D7D7D7D7D7D7D7D7D7D7D7D7D7D7D7D7D7D7D7D7D7D7D7D7D7D7D7D7D7D7D7D7D7D7D7D7D7D7D7D7D7D7D7D7D7D7D7D7D7D7D7D7D7D7D7D7D7D7D7D7D7D7D7D7D7D7D7D7D7D7D7D7D7D7D7D7D7D7D7D7D7D7D7D7
310
D7D7D7D7D7D7D7D7D7D7D7D7D7D7D7D7D7D7D7D7D7D7D7D7D7D7D7D7D7D7D7D7D7D700D7D7D7D7D7D7D7D700D7D7D7D7D7D7D7D7D70000D7D7D7D7D7D7D7D7D700D7D7D7D7D7D7D7D7D7D7D7D7D7D7D7D7D7D7D7D7D7D7D7D7D7D7D7D7D7D7D7D7D7D7D7D7D7D7D7D7D7D7D7D7D7D7D7D7D7D7D7D7D7D7D7D7D7D7D7D7D7D7
310
D7D7D7D7D7D7D7D7D7D7D7D7D7D7D7D7D7D7D7D7D7D7D7D7D7D7D7D7D7D7D7D7D7D7D7D7D7D7D7D7D7D7D7D7D7D7D7D7D7D7D7D7D7D7D7D7D7D7D7D7D7D7D7D7D7D7D7D7D7D7D7D7D7D7D7D7D7D7D7D7D7D7D7D7D7D7D7D7D7D7D7D7D7D7D7D7D7D7D7D7D7D7D7D7D7D7D7D7D7D7D7D7D7D7D7D7D7D7D700D7D7D7D7D7D7D7
310
D700D7D7D7D7D7D7D7D7D70000D7D7D7D7D7D7D7D7D700D7D7D7D7D7D7D7D7D7D7D7D7D7D7D7D7D700D7D7D7D7D7D7D7D7D7D7D7D7D7D7D7D7D7D7D7D7D7D7D7D7D7D7D7D7D7D7D7D7D7D7D7D7D7D7D7D7D7D7D7D7D7D7D7D7D7D7D7D7D7D7D7D7D7D7D7D7D7D7D7D7D7D7D7D7D7D7D7D7D7D7D7D7D7D7D7D7D7D7D7D7D7D7
310
D7D7D7D7D7D7D7D7D7D7D7D7D7D7D7D7D7D7D7D7D7D7D7D7D7D7D7D7D7D7D7D7D7D7D7D7D7D7D7D7D7D7D7D7D7D7D7D7D7D7D7D7D7D7D7D7D7D7D7D7D7D7D7D7D7D7D7D7D7D7D7D7D7D7D7D7D700D7D7D7D7D7D7D7D700D7D7D7D7D7D7D7D7D70000D7D7D7D7D7D7D7D7D700D7D700000000D70000D7D7D700D7D7D7D70000
310
D7D7D7D7D7D7D7D7D7D7D7D7D7D7D7D7D7D7D7D7D7D7D7D7D7D7D7D7D7D7D7D7D7D7D7D7D7D7D7D7D7D7D7D7D7D7D7D7D7D7D7D7D7D7D7D7D7D7D7D7D7D7D7D7D7D7D7D7D7D7D7D7D7D7D7D7D7D7D7D7D7D7D7D7D7D7D7D7D7D7D7D7D7D7D7D7D7D7D7D7D7D7D7D7D7D7D7D7D7D7D7D7D7D7D7D7D7D7D7D7D7D7D7D7D7D7D7
310
D7D7D7D7D7D7D7D7D7D7D7D7D7D7D7D7D7D7D7D7D7D7D7D7D7D7D7D7D7D7D7D7D7D7D700D7D7D7D7D7D7D7D700D7D7D7D7D7D7D7D7D70000D7D7D7D7D7D7D7D7D700D7D700000000D70000D7D7D700D7D7D7D700D7D7D7D7D7D7D7D7D7D7D7D7D7D7D7D7D7D7D7D7D7D7D7D7D7D7D7D7D7D7D7D7D7D7D7D7D7D7D7D7D7D7D7
310
D7D7D7D7D7D7D7D7D7D7D7D7D7D7D7D7D7D7D7D7D7D7D7D7D7D7D7D7D7D7D7D7D7D7D7D7D7D7D7D7D7D7D7D7D7D7D7D7D7D7D7D7D7D7D7D7D7D7D7D7D7D7D7D7D7D7D7D7D7D7D7D7D7D7D7D7D7D7D7D7D7D7D7D7D7D7D7D7D7D7D7D7D7D7D7D7D7D7D7D7D7D7D7D7D7D7D7D7D7D7D7D7D7D7D7D7D7D7D7D700D7D7D7D7D7D7
310
D7D700D7D7D7D7D7D7D7D7D70000D7D7D7D7D7D7D7D7D700D7D7D700D7D7D7D7D7D7D7D7D7D7D7D7D700D7D7D7D7D7D7D7D7D7D7D7D7D7D7D7D7D7D7D7D7D7D7D7D7D7D7D7D7D700D7D7D7D7D7D7D7D7D7D7D7D7D7D7D7D7D7D7D7D7D7D7D7D7D7D7D7D7D7D7D700D7D716D7D7D71600D7D7D7D7D7D7D7D7D7D7D7D7D7D7D7
310
D715D7D7D715D7D7D715D7D7D7D7D7D715D7D7D7D7D7D700D7D7D7D7D7D7D7D7D7D7D7D7D7D7D7D7D7D7D7D7D7D7D7D7D7D7D7D7D7D700D7D7D7D7D7D7D7D7D7D7D7D7D7D7D7D7D7D7D7D7D7D7D700D7D7D7D7D7D7D7D700D7D7D7D7D7D7D7D7D70000D7D7D7D7D7D7D7D7D700D7D7D7D7D7D7D7D7D7D7D7D7D7D7D700D700
310
D7D7D7D7D7D7D7D7D7D7D7D7D7D7D7D7D7D7D7D7D7D7D7D7D7D7D7D7D700D7D7D7D7D7D7D7D7D7D7D7D7D7D7D7D7D7D7D7D7D7D7D7D7D7D7D7D7D7D7D700D7D7D7D7D7D7D7D700D7D7D716D7D716D7D7D716D7D7D716D7D7D716D7D7D7D7D7D7D7D7D7D7D7D7D7D7D7D7D7D700D7D7D7D7D7D7D7D7D7D7D7D7D7D7D7D7D7D7
310
D7D7D7D7D7D7D7D7D7D7D7D700D7D7D7D7D7D7D7D7D7D7D7D7D7D7D7D7D7D7D7D7D7D7D700D7D7D7D7D7D7D7D700D7D7D7D7D7D7D7D7D70000D7D7D7D7D7D7D7D7D700D7D7D7D7D7D7D7D7D7D7D7D7D7D7D7D7D700D7D7D7D7D7D7D7D7D7D7D7D7D7D7D7D7D7D7D7D7D7D7D7D7D7D7D7D7D7000FD7D7160F16D7D70F16D7D7
310
D71616D7D71616D70F16D7D70F1616D7D7161600D7D716160FD71600001616D7D7161616D7D71616D7D716160FD716160F161616D7D716160FD7D7160F16D7D70F1600D70F1616160FD7D7160F16D7D70F16D7D7D71616D7D7161616D71616D70F00D7D7D7D7D7D7D7D7D7D7D7D7D7D7D7D7D7D7D7D7D7D7D700D7D7D7D7D7
310
D7D7D700D7D7D7D7D7D7D7D7D70000D7D7D7D7D7D7D7D7D700D7D700000000D7D700D7D7D700D7D7D7D700D7D7D7D7D7D7D7D7D7D7D7D7D7D7D7D7D7D7D7D7D7D7D7D7D7D7D7D7D70016D7D7161615D7D7160000D7D70000D700000F000000D7D716150FD7D7150F00D7D70F16D7D70F00D7150FD7D7150F16D7000F00D700
310
D7160015D71600150F16D700001616D7D71616D7D7D7161500D716150F1616D7D7160015D7D70000D700D715000000150F16D7150FD71600D7D7D7D7D7D7D7D7D7D7D7D7D7D7D7D7D7D7D7D7D7D7D700D7D7D7D7D7D7D7D700D7D7D7D7D7D7D7D7D70000D7D7D7D7D7D7D7D7D700D7D700000000D70000D7000000D7D7D7D7
310
00D7D7D7D7D7D7D7D7D7D7D7D7D7D7D7D7D7D7D7D7D7D7D7D7D7D7D7D7D700D7D7D7D7D7D7D7D7D70000D7D70000D70000D700D7D7D7D7D7D7D7D7D7D7D700D7D7D7D7D7D71600D7D7D7D7D7D7D7D7D700D700D700D7000016D7D700D7D7D7000000D7D7D7D7D7D7D7D715D7D700D7D7D7D7D7D7D7D7D700D7D7D70000D700
310
D7D700D7D7D7D7D7D7D7D7D7D700D7D7D7D7D7D7D7D7D7D7D7D7D7D7D7D7D7D7D7D7D7D7D700D7D7D7D7D7D7D7D700D7D7D7D7D7D7D7D7D70000D7D7D7D7D7D7D7D7D700D7D7D7D7D7D7D7D7D7D7D7D7D7D7D7D7D700D7D7D7D7D7D7D7D7D7D7D7D7D7D7D7D7D7D7D7D7D7D7D7D7D7D7D7D7D700D7D7D7D7D7D7D7D7D7D7D7
310
D7D7D7D7D7D7D7D7D7D7D7D7D7D7D7D7D7D7D7D700D715D7D7D7D7D7D716D7D7D716D7D7D716D7D7D716D7D7D7D7D7D716D7D7D70000D7D700D7D715D7D7D70FD7D71500D7D7D7D7D7D7D7D7D7D7D7D7D7D7D7D7D7D7D7D7D7D7D7D7D7D7D7D7D7D700D7D7D7D7D7D7D7D7D7D7D7D7D7D7D7D7D7D7D7D7D7D7D700D7D7D7D7
310
D7D7D7D700D7D7D7D7D7D7D7D7D70000D7D7D7D7D7D7D7D7D700D7D7D7D7D7D7D7000000D7D7D7D7D7D7D70000D7D7D7D7D7D7D7D7D7D7D7D7D7D7D7D7D7D7D7D7D7D7D7D7D7D7D7D700D7D7D7D7D7D7D7D7D7D7D7D7D7D7D7D7D7D7D7D7D7D7D7D7D7D7D7D7D7D7D7000FD7D716D7D7D700D7D7D716D7D7D7D7D7D7D7D7D7
310
D716D7D7D7D7D7D716D7D700D7D700D716D7D7D716D7D7D7D700D7D7D7D7D7D7D7D7D7D7D7D7D7D7D7D7D7D7D7D7D7D7D7D7D7D7D7D7D7D700D7D7D7D7D7D7D7D7D7D7D7D7D7D7D7D7D7D7D7D7D7D7D700D7D7D7D7D7D7D7D700D7D7D7D7D7D7D7D7D70000D7D7D7D7D7D7D7D7D700D7D7D7D7D700D700D700D7D7D7D7D7D7
310
D700D7D7D7D7D7D7D7D7D7D7D7D7D7D7D7D7D7D7D7D7D7D7D7D7D7D7D7D7D700D7D7D7D7D7D7D7D7D7D7D7D7D7D7D7D7D7D7D7D7D7D7D7D7D7D7D7D7D7D7D700D7D7D7D7D7D7D700D7D70FD7D7D70FD7D7D70FD7D7D7D7D7D716D7D7D7D7D7D7D70000D716D7D7D716D7D7D716D700D7D7D7D7D7D7D7D7D7D7D7D7D7D7D7D7
310
D7D7D7D7D7D7D7D7D7D7D7D7D7D700D7D7D7D7D7D7D7D7D7D7D7D7D7D7D7D7D7D7D7D7D7D7D700D7D7D7D7D7D7D7D700D7D7D7D7D7D7D7D7D70000D7D7D7D7D7D7D7D7D700D7D7D7D7D700D7000000D7D7D7D7D7D7D700D7D7D7D7D7D7D7D7D7D7D7D7D7D7D7D7D7D7D7D7D7D7D7D7D7D7D7D7D7D7D7D7D7D7D7D7D7D7D7D7
310
D7D7D7D7D7D7D7D7D7D7D7D7D7D7D7D7D7D7D7D7D7D7D7D7D7D7D7D7D700D7D7D7D7D7D7D7D7D7D7D7D7D7D7D7D7D7D7D7D7D7D7D7D7D700D7D7D7D7D7D7D7D7D7D7D7D7D7D7D7D7D7D7D7D7D7D7D7D7D7D7D7D7D7D7D7D7D7D7D7D7D7D7D7D7D7D7D7D7D7D7D7D7D7D7D7D7D7D7D7D7D7D7D7D7D7D7D7D7D7D7D700D7D7D7
310
D7D7D7D7D700D7D7D7D7D7D7D7D7D70000D7D7D7D7D7D7D7D7D700D7D7D7D7D7D7D7D7D7D7D7D7D7D7D7D70000D7D7D7D7D7D7D7D7D7D7D7D7D7D7D7D7D7D7D7D7D7D7D7D7D7D7D7D7D7D7D7D7D7D7D7D7D7D7D7D7D7D7D7D7D7D7D7D7D7D7D7D7D7D7D7D7D7D7D7D7D7D7D7D7D7D7D7D7D700D7D7D7D7D7D7D7D7D7D7D7D7
310
D7D7D7D7D7D7D7D7D7D7D7D7D700D7D7D7D7D7D7D7D7D7D7D7D7D7D7D7D7D7D7D7D7D7D7D7D7D7D7D7D7D7D7D7D7D7D7D7D7D7D7D7D7D7D7D7D7D7D7D7D7D7D7D7D7D7D7D7D7D7D7D7D7D7D7D7D7D7D7D700D7D7D7D7D7D7D7D700D7D7D7D7D7D7D7D7D70000D7D7D7D7D7D7D7D7D700D7D7D7D7D7D7D7D7D7D7D7D7D7D7D7
310
D7D700D7D7D7D7D7D7D7D7D7D7D7D7D7D7D7D7D7D7D7D7D7D7D7D7D7D7D7D7D7D7D7D7D7D7D7D7D7D7D7D7D7D7D7D7D7D7D7D7D7D7D7D7D7D7D7D7D7D7D7D7D7D7D7D7D7D7D7D7D7D7D7D7D7D7D7D7D7D7D7D7D7D7D7D7D7D7D7D7D7D7D7D7D7D7D7D7D7D7D7D7D7D7D7D7D7D7D7D7D7D7D7D7D7D7D7D7D7D7D7D7D7D7D7D7
310
D7D7D7D7D7D7D7D7D7D7D7D7D7D7D7D7D7D7D7D7D7D7D7D7D7D7D7D7D7D7D7D7D7D7D7D7D7D7D700D7D7D7D7D7D7D7D700D7D7D7D7D7D7D7D7D70000D7D7D7D7D7D7D7D7D700D7D7D7D7D7D7D7D7D7D7D7D7D7D7D7D7D7D7D7D7D7D7D7D7D7D7D7D7D7D7D7D7D7D7D7D7D7D7D7D7D7D7D7D7D7D7D7D7D7D7D7D7D7D7D7D7D7
310
D7D7D7D7D7D7D7D7D7D7D7D7D7D7D7D7D7D7D7D7D7D7D7D7D7D7D7D7D7D7D7D7D7D7D7D7D7D7D7D7D7D7D7D7D7D7D7D7D7D7D7D7D7D7D7D7D7D7D7D7D7D7D7D7D7D7D7D7D7D7D7D7D7D7D7D7D7D7D7D7D7D7D7D7D7D7D7D7D7D7D7D7D7D7D7D7D7D7D7D7D7D7D7D7D7D7D7D7D7D7D7D7D7D7D7D7D7D7D7D7D7D7D7D700D7D7
310
D7D7D7D7D7D700D7D7D7D7D7D7D7D7D70000D7D7D7D7D7D7D7D7D700D7D7D7D7D7D7D7D7D7D7D7D7D7D7D7D7D7D7D7D7D7D7D7D7D7D7D7D7D7D7D7D7D7D7D7D7D7D7D7D7D7D7D7D7D7D7D7D7D7D7D7D7D7D7D7D7D7D7D7D7D7D7D7D7D7D7D7D7D7D7D7D7D7D7D7D7D7D7D7D7D7D7D7D7D7D7D7D7D7D7D7D7D7D7D7D7D7D7D7
310
D7D7D7D7D7D7D7D7D7D7D7D7D7D7D7D7D7D7D7D7D7D7D7D7D7D7D7D7D7D7D7D7D7D7D7D7D7D7D7D7D7D7D7D7D7D7D7D7D7D7D7D7D7D7D7D7D7D7D7D7D7D7D7D7D7D7D7D7D7D7D7D7D7D7D7D7D7D7D7D7D7D700D7D7D7D7D7D7D7D700D7D7D7D7D7D7D7D7D70000D7D7D7D7D7D7D7D7D700D7D7D7D7D7D7D7D7D7D7D7D7D7D7
310
D7D7D7D7D7D7D7D7D7D7D7D7D7D7D7D7D7D7D7D7D7D7D7D7D7D7D7D7D7D7D7D7D7D7D7D7D7D7D7D7D7D7D7D7D7D7D7D7D7D7D7D7D7D7D7D7D7D7D7D7D7D7D7D7D7D7D7D7D7D7D7D7D700D7D7D7D7D7D7D7D7D7D7D7D7D7D7D7D7D7D7D7D7D7D7D7D7D700D7D7D7D7D7D7D7D7D7D7D7D7D7D7D7D7D7D7D7D7D7D7D7D7D7D7D7
310
D7D7D7D7D7D7D7D7D7D7D7D7D7D7D7D7D7D7D7D7D7D7D7D7D7D7D7D7D7D7D7D7D7D7D7D7D7D7D7D700D7D7D7D7D7D7D7D700D7D7D7D7D7D7D7D7D70000D7D7D7D7D7D7D7D7D700D7D7D7D7D7D7D7D7D7D7D7D7D7D7D7D7D7D7D7D7D7D7D7D7D7D7D7D7D7D7D7D7D7D7D7D7D7D7D7D7D7D7D7D7D7D7D7D7D7D7D7D7D7D7D7D7
310
D7D7D7D7D7D7D7D7D7D7D7D7D7D7D7D7D7D7D7D7D7D7D7D7D7D7D7D7D7D7D700D7D7D7D7D7D7D7D7D7D7D7D7D7D7D7D7D7D7D7D7D7D7D7D7D700D7D7D7D7D7D7D7D7D7D7D7D7D7D7D7D7D7D7D7D7D7D7D7D7D7D7D7D7D7D7D7D7D7D7D7D7D7D7D7D7D7D7D7D7D7D7D7D7D7D7D7D7D7D7D7D7D7D7D7D7D7D7D7D7D7D7D700D7
310
D7D7D7D7D7D7D700D7D7D7D7D7D7D7D7D70000D7D7D7D7D7D7D7D7D700D7D7D7D7D7D7D7D7D7D7D7D7D7D7D7D7D7D7D7D7D7D7D7D70000000000000000000000000000000000000000000000000000000000000000000000000000000000000000000000000000000000000000000000000000000000000000000000000000
310
000000000000000000000000000000000000000000000000000000000000000000000000000000000000000000000000000000000000000000000000000000000000000000000000000000000000000000000000D7D7D7D7D7D7D7D700D7D7D7D7D7D7D7D7D70000D7D7D7D7D7D7D7D7D700D7D7D7D7D7D7D7D7D7D7D7D7D7
310
D7D7D7D7D7D7D7D7D7D7D7D7D7D7D7D7D7D7D7D7D7D7D7D7D7D7D7D7D7D7D7D7D7D7D7D7D7D7D7D7D7D7D7D7D7D7D7D7D7D7D7D7D7D7D7D7D7D7D7D7D7D7D7D7D7D7D7D7D7D7D7D7D7D700D7D7D7D7D7D7D7D7D7D7D7D7D7D7D7D7D7D7D7D7D7D7D7D7D700D7D7D7D7D7D7D7D7D7D7D7D7D7D7D7D7D7D7D7D7D7D7D7D7D7D7
310
D7D7D7D7D7D7D7D7D7D7D7D7D7D7D7D7D7D7D7D7D7D7D7D7D7D7D7D7D7D7D7D7D7D7D7D7D7D7D7D7D7D7D7D7D7D7D7D7D7D700D7D7D7D7D7D7D7D7D70000D7D7D7D7D7D7D7D7D700D7D7D7D7D7D7D7D7D7D7D7D7D7D7D7D7D7D7D7D7D7D7D7D7D7D7D7D7D7D7D700D7D7D7D7D7D7D7D7D7D7D7D7D7D7D700D7D7D7D7D7D7D7
310
D7D7D7D7D7D7D7D7D7D7D7D7D7D7D7D7D7D7D7D7D7D7D7D7D7D7D7D7D7D7D7D700D7D7D7D7D7D7D7D7D7D7D7D7D7D7D7D7D7D7D7D7D7D7D7D7D700D7D7D7D7D7D7D7D7D7D7D7D7D7D7D7D7D7D7D7D7D7D7D7D7D7D7D7D7D7D7D7D7D7D7D7D7D7D7D7D7D7D7D700D7D7D7D7D7D7D7D7D7D7D7D7D7D7D700D7D7D7D7D7D7D7D7
310
D7D7D7D7D7D7D7D700D7D7D7D7D7D7D7D7D70000D7D7D7D7D7D7D7D7D700D7D7D7D7D7D7D7D7D7D7D7D7D7D7D7D7D7D7D7D7D7D7D7D7D7D7D7D7D7D7D700D7D7D7D7D7D7D7D7D7D7D7D7D7D7D700D7D7D7D7D7D7D7D7D7D7D7D7D7D7D7D7D7D7D7D7D7D7D7D7D7D7D7D7D7D7D7D7D7D7D7D7D7D7D700D7D7D7D7D7D7D7D7D7
310
D7D7D7D7D7D7D7D7D7D7D7D7D7D7D7D700D7D7D7D7D7D7D7D7D7D7D7D7D7D7D7D7D7D7D7D7D7D7D7D7D7D7D7D7D7D7D7D7D7D7D7D7D7D7D7D7D7D7D700D7D7D7D7D7D7D7D7D7D7D7D7D7D7D700D7D7D7D7D7D7D7D7D7D7D7D7D7D7D7D700D7D7D7D7D7D7D7D7D70000D7D7D7D7D7D7D7D7D700D7D7D7D7D7D7D7D7D7D7D7D7
310
D7D7D7D7D7D7D7D7D7D7D7D7D7D7D7D7D7D7D700D7D7D7D7D7D7D7D7D7D7D7D7D7D7D700D7D7D7D7D7D7D7D7D7D7D7D7D7D7D7D7D7D7D7D7D7D7D7D7D7D7D7D7D7D7D7D7D7D7D7D7D7D7D7D7D7D7D7D7D7D7D7D7D7D7D7D7D7D7D7D7D7D7D7D7D7D7D7D7D7D7D7D7D7D7D7D7D7D7D7D7D7D7D7D7D7D7D7D7D7D7D7D7D7D7D7
310
D7D7D7D7D7D7D7D7D7D7D7D7D7D7D7D7D7D700D7D7D7D7D7D7D7D7D7D7D7D7D7D7D700D7D7D7D7D7D7D7D7D7D7D7D7D7D7D7D700D7D7D7D7D7D7D7D7D70000D7D7D7D7D7D7D7D7D700D7D7D7D7D7D7D7D7D7D7D7D7D7D7D7D7D7D7D7D7D7D7D7D7D7D7D7D7D7D7D700D7D7D7D7D7D7D7D7D7D7D7D7D7D7D700D7D7D7D7D7D7
310
D7D7D7D7D7D7D7D7D7D7D7D7D7D7D7D7D7D7D7D7D7D7D7D7D7D7D7D7D7D7D7D7D7D7D7D7D7D7D7D7D7D7D7D7D7D7D7D7D7D7D7D7D7D7D7D7D7D7D7D7D7D7D7D7D7D7D7D7D7D7D7D7D7D7D7D7D7D7D7D7D7D7D7D7D7D7D7D7D7D7D7D7D7D7D7D7D7D7D7D7D7D7D700D7D7D7D7D7D7D7D7D7D7D7D7D7D7D700D7D7D7D7D7D7D7
310
D7D7D7D7D7D7D7D7D700D7D7D7D7D7D7D7D7D70000D7D7D7D7D7D7D7D7D700D7D7D7D7D7D7D7D7D7D7D7D7D7D7D7D7D7D7D7D7D7D7D7D7D7D7D7D7D7D7D700D7D7D7D7D7D7D7D7D7D7D7D7D7D7D700D7D7D7D7D7D7D7D7D7D7D7D7D7D7D7D7D7D7D7D7D7D7D7D7D7D7D7D7D7D7D7D7D7D7D7D7D7D7D7D7D7D7D7D7D7D7D7D7
310
D7D7D7D7D7D7D7D7D7D7D7D7D7D7D7D7D7D7D7D7D7D7D7D7D7D7D7D7D7D7D7D7D7D7D7D7D7D7D7D7D7D7D7D7D7D7D7D7D7D7D7D7D7D7D7D7D7D7D7D7D700D7D7D7D7D7D7D7D7D7D7D7D7D7D7D700D7D7D7D7D7D7D7D7D7D7D7D7D7D7D7D700D7D7D7D7D7D7D7D7D70000D7D7D7D7D7D7D7D7D700D7D7D7D7D7D7D7D7D7D7D7
310
D7D7D7D7D7D7D7D7D7D7D7D7D7D7D7D7D7D700D700D7D7D7D7D7D7D7D7D7D7D7D7D700D700D7D7D7D7D7D7D7D7D7D7D7D7D7D7D7D7D7D7D7D7D7D7D7D7D7D7D7D7D7D7D7D7D7D7D7D7D700D700D7D7D7D7D7D7D7D7D7D7D7D7D7D7D7D7D7D7D7D7D7D7D700D700D7D7D7D7D7D7D7D7D7D7D7D7D7D7D7D7D7D7D7D7D7D7D7D7
310
D7D7D7D7D7D7D7D7D7D7D7D7D7D7D7D7D700D700D7D7D7D7D7D7D7D7D7D7D7D7D700D700D7D7D7D7D7D7D7D7D7D7D7D7D7D7D7D700D7D7D7D7D7D7D7D7D70000D7D7D7D7D7D7D7D7D700D7D7D7D7D7D7D7D7D7D7D7D7D7D7D7D7D7D7D7D7D7D7D7D7D7D7D7D7D7D70000D7D7D7D7D7D7D7D7D7D7D7D7D7D7D700D7D7D7D7D7
310
D7D7D7D7D7D7D7D7D7D7D7D7D7D7D7D7D7D7D7D7D7D7D7D7D7D7D7D7D7D7D7D7D70000D7D7D7D7D7D7D7D7D7D7D7D7D7D7D7D7D7D7D7D7D7D7D7D70000D7D7D7D7D7D7D7D7D7D7D7D7D7D7D7D7D7D7D7D7D7D7D7D7D7D7D7D7D7D7D7D7D7D7D7D7D7D7D7D7D7D70000D7D7D7D7D7D7D7D7D7D7D7D7D7D7D700D7D7D7D7D7D7
310
D7D7D7D7D7D7D7D7D7D700D7D7D7D7D7D7D7D7D70000D7D7D7D7D7D7D7D7D700D7D7D7D7D7D7D7D7D7D7D7D7D7D7D7D7D7D7D7D7D7D7D7D7D7D7D7D7D7000000000000000000000000000000000000000000D7D7D7D7D7D7D7D7D7D7D7D7D7D7D7D7D7D7D7D7D7D7D7D7D7D7D7D7D7D7D7D7D7D7D700000000000000000000
310
000000000000000000000000000000000000000000D7D7D7D7D7D7D7D7D7D7D7D7D7D7D7D7D7D7D7D7D7D7D7D7D7D7D7D7D7D7D7D7D7D7D7D7D7D7D7000000000000000000000000000000000000000000D7D7D7D7D7D7D7D7D7D7D7D7D7D700D7D7D7D7D7D7D7D7D70000D7D7D7D7D7D7D7D7D700D7D7D7D7D7D7D7D7D7D7
310
D7D7D7D7D7D7D7D7D7D7D7D7D7D7D7D7D7D7D7D7D700D700D7D7D7D7D7D7D7D7D7D7D7D7D70000D7D7D7D7D7D7D7D7D7D7D7D7D7D7D7D7D7D7D7D7D7D7D7D7D7D7D7D7D7D7D7D7D7D7D7D7D7D7D700D7D7D7D7D7D7D7D7D7D7D7D7D7D7D7D7D7D7D7D7D7D7D7D7D7D7D7D7D7D7D7D7D7D7D7D7D7D7D7D7D7D7D7D7D7D7D7D7
310
D7D7D7D7D7D7D7D7D7D7D7D7D7D7D7D7D7D7D7D70000D7D7D7D7D7D7D7D7D7D7D7D7D7D70000D7D7D7D7D7D7D7D7D7D7D7D7D7D7D700D7D7D7D7D7D7D7D7D70000D7D7D7D7D7D7D7D7D700D7D7D7D7D7D7D7D7D7D7D7D7D7D7D7D7D7D7D7D7D7D7D7D7D7D7D7D7D7D7D700D7D7D7D7D7D7D7D7D7D7D7D7D7D7D700D700D7D7
310
D7D7D7D7D7D7D7D7D7D7D7D7D7D7D7D7D7D7D7D7D7D7D7D7D7D7D7D7D7D7D7D7D7D7D700D700D7D7D7D7D7D7D7D7D7D7D7D7D7D7D7D7D7D7D7D7D7D7D700D700D7D7D7D7D7D7D7D7D7D7D7D7D7D7D7D7D7D7D7D7D7D7D7D7D7D7D7D7D7D7D7D7D7D7D7D7D7D7D7D7D700D700D7D7D7D7D7D7D7D7D7D7D7D7D700D700D7D7D7
310
D7D7D7D7D7D7D7D7D7D7D700D7D7D7D7D7D7D7D7D70000D7D7D7D7D7D7D7D7D700D7D7D7D7D7D7D7D7D7D7D7D7D7D7D7D7D7D7D7D7D7D7D7D7D7D7D7D7D7D7D7D7D7D7D7D7D7D7D7D7D7D7D7D7D7D7D7D7D7D7D7D7D7D7D7D7D7D7D7D7D7D7D7D7D7D7D7D7D7D7D7D7D7D7D7D7D7D7D7D7D7D7D7D7D7D7D7D7D7D7D7D7D7D7
310
D7D7D7D7D7D7D7D7D7D7D7D7D7D7D7D7D7D7D7D7D7D7D7D7D7D70000D7D7D7D7D7D7D7D7D7D7D7D7D7D7D7D7D7D7D7D7D7D7D7D7D7D7D7D7D7D7D7D7D7D7D7D7D7D7D7D7D7D7D7D7D7D7D7D7D7D7D7D7D7D7D7D7D7D7D7D7D7D7D7D7D7D7D7D700D7D7D7D7D7D7D7D7D70000D7D7D7D7D7D7D7D7D700D7D7D7D7D7D7D7D7D7
310
D7D7D7D7D7D7D7D7D7D7D7D7D7D7D7D7D7D7D7D7D7D7D7D7D7D7D7D7D7D7D7D7D7D7D7D7D7D7D7D7D7D7D7D7D7D7D7D7D7D7D7D7D7D7D7D7D70000D7D700D7000000D7D7000000D7D70000D7D70000D700D7D7000000000000D7D7000000D7D70000D7D7D70000D7D7D7000000D70000D7D7000000D7D700000000D7000000
310
D7D7D7D7D7D7D7D7D7D7D7D7D7D7D7D7D7D7D7D7D7D7D7D7D7D7D7D7D7D7D7D7D7D7D7D7D7D7D7D7D7D7D7D7D7D7D7D7D7D7D7D7D7D700D7D7D7D7D7D7D7D7D70000D7D7D7D7D7D7D7D7D700D7D7D7D7D7D7D7D7D7D7D7D7D7D7D7D7D7D7D7D7D7D7D7D7D7D7D7D7D7D7D7D7D7D7D7D7D7D7D7D7D7D7D7D7D7D7D7D7D7D7D7
310
D7D7D7D7D7D7D7D7D7D7D7D7D7D7D700D700D7000000000000000000D7D7000000D7D7D70000D7D7D70000000000000000000000D7D70000D7D7D70000D7D7D7000000D7000000D7000000D7D700000000D7000000D7D7D7D7D7D7D7D7D7D7D7D7D7D7D7D7D7D7D7D7D7D7D7D7D7D7D7D7D7D7D7D7D7D7D7D7D7D7D7D7D7D7
310
D7D7D7D7D7D7D7D7D7D7D7D700D7D7D7D7D7D7D7D7D70000D7D7D7D7D7D7D7D7D700D7D7D7D7D7D7D7D7D7D7D7D7D7D7D7D7D7D7D7D7D7D7D7D7D7D7D7D7D7D7D7D7D7D7D7D7D7D7D7D7D7D7D7D7D7D7D7D7D7D7D7D7D7D7D7D7D7D7D7D7D7D7D7D7D7D700D7D7D7D7D7D7D7D7D7D7D7D7D7D7D7D7D7D7D70000D7D7D7D7D7
310
00D7D7D7D7D7D7D7D7D7D7D7D7D7D7D7D7D7D7D7D7D700D7D7D7D7D7D7D7D7D7D7D7D700D7D7D7D700D7D7D7D7D7D7D7D7D7D7D7D7D7D7D7D7D7D7D7D7D7D7D7D7D7D7D7D7D7D7D7D7D7D7D7D7D7D7D7D7D7D7D7D7D7D7D7D7D7D7D7D7D7D7D7D700D7D7D7D7D7D7D7D7D70000D7D7D7D7D7D7D7D7D700D7D7D7D7D7D7D7D7
310
D7D7D7D7D7D7D7D7D7D7D7D7D7D7D7D7D7D7D7D7D7D7D7D7D7D7D7D7D7D7D7D7D7D7D7D7D7D7D7D7D7D7D7D7D7D7D7D7D7D7D7D7D7D7D7D7D7D7D7D7D7D7D7D7D7D7D7D7D7D7D7D7D7D7D7D7D7D7D7D7D7D7D7D7D7D7D7D7D7D7D7D7D7D7D7D7D7D7D7D7D7D7D7D7D7D7D7D7D7D7D7D7D7D7D7D7D7D7D7D7D7D7D7D7D7D7D7
310
D7D7D7D7D7D7D7D7D7D7D7D7D7D7D7D7D7D7D7D7D7D7D7D7D7D7D7D7D7D7D7D7D7D7D7D7D7D7D7D7D7D7D7D7D7D7D7D7D7D7D7D7D7D7D700D7D7D7D7D7D7D7D7D70000D7D7D7D7D7D7D7D7D700D7D7D7D7D7D7D7D7D7D7D7D7D7D7D7D7D7D7D7D7D7D7D7D7D7D7D7D7D7D7D7D7D7D7D7D7D7D7D7D7D7D7D7D7D7D7D7D7D7D7
310
D7D7D7D7D7D7D7D7D7D7D7D7D7D7D7D7D7D7D7D7D7D7D7D7D7D7D7D7D7D7D7D7D7D7D7D7D7D7D7D7D7D7D7D7D7D7D7D7D7D7D7D7D7D7D7D7D7D7D7D7D7D7D7D7D7D7D7D7D7D7D7D7D7D7D7D7D7D7D7D7D7D7D7D7D7D7D7D7D7D7D7D7D7D7D7D7D7D7D7D7D7D7D7D7D7D7D7D7D7D7D7D7D7D7D7D7D7D7D7D7D7D7D7D7D7D7D7
310
D7D7D7D7D7D7D7D7D7D7D7D7D700D7D7D7D7D7D7D7D7D70000D7D7D7D7D7D7D7D7D700D7D7D7D7D7D7D7D7D7D7D7D7D7D7D7D7D7D7D7D7D7D7D7D7D7D7D7D7D7D7D7D7D7D7D7D7D7D7D7D7D7D7D7D7D7D7D7D7D7D7D7D7D7D7D7D7D7D7D7D7D7D7D7D7D7D7D7D7D7D7D7D7D7D7D7D7D7D7D7D7D7D7D7D7D7D7D7D7D7D7D7D7
310
D7D7D7D7D7D7D7D7D7D7D7D7D7D7D7D7D7D7D7D7D7D7D7D7D7D7D7D7D7D7D7D7D7D7D7D7D7D7D7D7D7D7D7D7D7D7D7D7D7D7D7D7D7D7D7D7D7D7D7D7D7D7D7D7D7D7D7D7D7D7D7D7D7D7D7D7D7D7D7D7D7D7D7D7D7D7D7D7D7D7D7D7D7D7D7D7D7D700D7D7D7D7D7D7D7D7D70000D7D7D7D7D7D7D7D7D700D7D7D7D7D7D7D7
310
D7D7D7D7D7D7D7D7D7D7D7D7D7D7D7D7D7D7D7D7D7D7D7D7D7D7D7D7D7D7D7D7D7D7D7D7D7D7D7D7D7D7D7D7D7D7D7D7D7D7D7D7D7D7D7D7D7D7D7D7D7D7D7D7D7D7D7D7D7D7D7D7D7D7D7D7D7D7D7D7D7D7D7D7D7D7D7D7D7D7D7D7D7D7D7D7D7D7D7D7D7D7D7D7D7D7D7D7D7D7D7D7D7D7D7D7D7D7D7D7D7D7D7D7D7D7D7
310
D7D7D7D7D7D7D7D7D7D7D7D7D7D7D7D7D7D7D7D7D7D7D7D7D7D7D7D7D7D7D7D7D7D7D7D7D7D7D7D7D7D7D7D7D7D7D7D7D7D7D7D7D7D7D7D700D7D7D7D7D7D7D7D7D70000D7D7D7D7D7D7D7D7D700D7D7D7D7D7D7D7D7D7D7D7D7D7D7D7D7D7D7D7D7D7D7D7D7D7D7D7D7D7D7D7D7D7D7D7D7D7D7D7D7D7D7D7D7D7D7D7D7D7
310
D7D7D7D7D7D7D7D7D7D7D7D7D7D7D7D7D7D7D7D7D7D7D7D7D7D7D7D7D7D7D7D7D7D7D7D7D7D7D7D7D7D7D7D7D7D7D7D7D7D7D7D7D7D7D7D7D7D7D7D7D7D7D7D7D7D7D7D7D7D7D7D7D7D7D7D7D7D7D7D7D7D7D7D7D7D7D7D7D7D7D7D7D7D7D7D7D7D7D7D7D7D7D7D7D7D7D7D7D7D7D7D7D7D7D7D7D7D7D7D7D7D7D7D7D7D7D7
310
D7D7D7D7D7D7D7D7D7D7D7D7D7D700D7D7D7D7D7D7D7D7D70000D7D7D7D7D7D7D7D7D700D7D7D7D7D7D7D7D7D7D7D7D7D7D7D7D7D7D7D7D7D7D7D7D7D7D7D7D7D7D7D7D7D7D7D7D7D7D7D7D7D7D7D7D7D7D7D7D7D7D7D7D7D7D7D7D7D7D7D7D7D7D7D7D7D7D7D7D7D7D7D7D7D7D7D7D7D7D7D7D7D7D7D7D7D7D7D7D7D7D7D7
310
D7D7D7D7D7D7D7D7D7D7D7D7D7D7D7D7D7D7D7D7D7D7D7D7D7D7D7D7D7D7D7D7D7D7D7D7D7D7D7D7D7D7D7D7D7D7D7D7D7D7D7D7D7D7D7D7D7D7D7D7D7D7D7D7D7D7D7D7D7D7D7D7D7D7D7D7D7D7D7D7D7D7D7D7D7D7D7D7D7D7D7D7D7D7D7D7D7D7D700D7D7D7D7D7D7D7D7D70000D7D7D7D7D7D7D7D7D700D7D7D7D7D7D7
310
D7D7D7D7D7D7D7D7D7D7D7D7D7D7D7D7D7D7D7D7D7D7D7D7D7D7D7D7D7D7D7D7D7D7D7D7D7D7D7D7D7D7D7D7D70000D7D7D7D7000000D7D700D7D7D700D7D7D7D7D7D7D7D7D7D7D7D700D700D7D7D7D70000D7D7D7D7000000D7D700000000D7D7D7D7D70000D7D7D7D7000000D7D7D7D7D7D7D7D7D7D7D7D7D7D7D7D7D700
310
000000D70000D7D7D7D7D7D7D7D7D7D7D7D7D7D7D7D7D7D7D7D7D7D7D7D7D7D7D7D7D7D7D7D7D7D7D7D7D7D7D7D7D7D7D7D7D7D7D7D7D7D7D700D7D7D7D7D7D7D7D7D70000D7D7D7D7D7D7D7D7D700D7D7D7D7D7D7D7D7D7D7D7D7D7D7D7D7D7D7D7D7D7D7D7D7D7D7D7D7D7D7D7D7D7D7D7D7D7D7D7D7D7D7D7D7D7D7D7D7
310
D7D7D700D700D7D7D7D7D7D7D7D7D7000000D7D7D7D70000D7D7D7D7D7D7D700D700D7D7D700D7D700D7D7D700D7D7D7D700D7D7D7D7D7D7D7D7D7D700D7D7D700D7D7D7D7D7D7D7D7D7D700000000D7D7D7D7D700D7D7D7D7D7D700D7D7D7D7D7D7D7D7D7D7D7D7D7D7D7D7D7D7D7D7D7D7D7D7D7D7D7D7D7D7D7D7D7D7D7
310
D7D7D7D7D7D7D7D7D7D7D7D7D7D7D700D7D7D7D7D7D7D7D7D70000D7D7D7D7D7D7D7D7D700D7D7D7D7D7D7D7D7D7D700D7D7D7D7D7D7D7D7D7D7D7D7D7D7D7D7D7D7D7D7D7D7D7D7D7D7D7D7D7D7D7D7D7D7D7D7D7D7D7D700D700D7D7D7D7D7D7D7D7D7D7D700D7D7D700D7D700D7D7D7D7D7D700D700D7D7D700D7D700D7
310
D7D700D7D7D7D700D7D7D7D7D7D7D7D7D7D700D7D7D700D7D7D7D7D7D7D7D7D7D7D70000D7D7D7D7D7D700D7D7D7D7D7D7D7D7D7D7D7D7D7D7D7D7D7D7D7D7D7D7D7D7D7D7D7D7D7D7D7D7D7D7D7D7D7D7D7D7D7D7D7D7D7D7D7D7D7D7D7D7D7D7D7D7D700D7D7D7D7D7D7D7D7D70000D7D7D7D7D7D7D7D7D700D7D7D7D7D7
310
D7D7D7D7D700D7D7D7D7D7D7D7D7D7D7D7D7D7D7D7D7D7D7D7D7D7D7D7D7D7D7D7D7D7D7D7D7D7D7D7D7D7D7D7D700D700D7D7D7D7D7D7D7D7D7D7D700D7D7D700D7D700D7D7D7D7D7D700D700D7D7D700D7D700D7D7D700D7D7D7D700D7D7D7D7D7D7D7D7D7D7D7D7D7D700D7D7D7D7D7D7D7D7D7D7D70000D7D7D7D7D7D7
310
00D7D7D7D7D7D700D7D7D7D7D7D7D7D7D7D7D7D7D7D7D7D7D7D7D7D7D7D7D7D7D7D7D7D7D7D7D7D7D7D7D7D7D7D7D7D7D7D7D7D7D7D7D7D7D7D700D7D7D7D7D7D7D7D7D70000D7D7D7D7D7D7D7D7D700D7D7D7D7D7D7D7D7D7D7D7D7D7D7D7D7D7D7D7D7D7D7D7D7D7D7D7D7D7D7D7D7D7D7D7D7D7D7D7D7D7D7D7D7D7D7D7
310
D7D7D7D7D7D7D7D7D7D7D7D7D7D7D7D7D7D7D7D7D7D7D7D7D7D7D7D7D7D7D7D7D7D7D7D7D7D7D7D7D7D7D7D7D7D7D7D7D7D7D7D7D7D7D7D7D7D7D7D7D7D7D7D7D7D7D7D7D7D7D7D7D7D7D7D7D7D7D7D7D7D7D7D7D7D7D7D7D7D7D7D7D7D7D7D7D7D7D7D7D7D7D7D7D7D7D7D7D7D7D7D7D7D7D7D7D7D7D7D7D7D7D7D7D7D7D7
310
D7D7D7D7D7D7D7D7D7D7D7D7D7D7D7D700D7D7D7D7D7D7D7D7D70000D7D7D7D7D7D7D7D7D700D7D7D7D7D7D7D7D7D7D7D7D7D7D7D7D7D7D7D7D7D7D7D7D7D7D7D7D7D7D7D7D7D7D7D7D7D7D7D7D7D7D7D7D7D7D7D7D7D7D7D7D7D7D7D7D7D7D7D7D7D7D7D7D7D7D7D7D7D7D7D7D7D7D7D7D7D7D7D7D7D7D7D7D7D7D7D7D7D7
310
D7D7D7D7D7D7D7D7D7D7D7D7D7D7D7D7D7D7D7D7D7D7D7D7D7D7D7D7D7D7D7D7D7D7D7D7D7D7D7D7D7D7D7D7D7D7D7D7D7D7D7D7D7D7D7D7D7D7D7D7D7D7D7D7D7D7D7D7D7D7D7D7D7D7D7D7D7D7D7D7D7D7D7D7D7D7D7D7D7D7D7D7D7D7D7D7D7D7D7D7D700D7D7D7D7D7D7D7D7D70000D7D7D7D7D7D7D7D7D700D7D7D7D7
310
D7D7D7D7D7D7D7D7D7D7D7D7D7D7D7D7D7D7D7D7D7D7D7D7D7D7D7D7D7D7D7D7D7D7D7D7D7D7D7D7D7D7D7D7D7D7D7D7D7D7D7D7D7D7D7D7D7D7D7D7D7D7D7D7D7D7D7D7D7D7D7D7D7D7D7D7D7D7D7D7D7D7D7D7D7D7D7D7D7D7D7D7D7D7D7D7D7D7D7D7D7D7D7D7D7D7D7D7D7D7D7D7D7D7D7D7D7D7D7D7D7D7D7D7D7D7D7
310
D7D7D7D7D7D7D7D7D7D7D7D7D7D7D7D7D7D7D7D7D7D7D7D7D7D7D7D7D7D7D7D7D7D7D7D7D7D7D7D7D7D7D7D7D7D7D7D7D7D7D7D7D7D7D7D7D7D7D700D7D7D7D7D7D7D7D7D70000D7D7D7D7D7D7D7D7D700D7D7D7D7D7D7D7D7D7D7D7D7D7D7D7D7D7D7D7D7D7D7D7D7D7D7D7D7D7D7D7D7D7D7D7D7D7D7D7D7D7D7D7D7D7D7
310
D7D7D7D7D7D7D7D7D7D7D7D7D7D7D7D7D7D7D7D7D7D7D7D7D7D7D7D7D7D7D7D7D7D7D7D7D7D7D7D7D7D7D7D7D7D7D7D7D7D7D7D7D7D7D7D7D7D7D7D7D7D7D7D7D7D7D7D7D7D7D7D7D7D7D7D7D7D7D7D7D7D7D7D7D7D7D7D7D7D7D7D7D7D7D7D7D7D7D7D7D7D7D7D7D7D7D7D7D7D7D7D7D7D7D7D7D7D7D7D7D7D7D7D7D7D7D7
310
D7D7D7D7D7D7D7D7D7D7D7D7D7D7D7D7D700D7D7D7D7D7D7D7D7D70000D7D7D7D7D7D7D7D7D700D7D7D7D7D7D7D7D7D7D7D7D7D7D7D7D7D7D7D7D7D7D7D7D7D7D7D7D7D7D7D7D7D7D7D7D7D7D7D7D7D7D7D7D7D7D7D7D7D7D7D7D7D7D7D7D7D7D7D7D7D7D7D7D7D7D7D7D7D7D7D7D7D7D7D7D7D7D7D7D7D7D7D7D7D7D7D7D7
310
D7D7D7D7D7D7D7D7D7D7D7D7D7D7D7D7D7D7D7D7D7D7D7D7D7D7D7D7D7D7D7D7D7D7D7D7D7D7D7D7D7D7D7D7D7D7D7D7D7D7D7D7D7D7D7D7D7D7D7D7D7D7D7D7D7D7D7D7D7D7D7D7D7D7D7D7D7D7D7D7D7D7D7D7D7D7D7D7D7D7D7D7D7D7D7D7D7D7D7D7D7D700D7D7D7D7D7D7D7D7D70000D7D7D7D7D7D7D7D7D700D7D7D7
310
D7D7D7D7D7D7D7D7D7D7D7D7D7D7D7D7D7D7D7D7D7D7D7D7D7D7D7D7D7D7D7D7D7D7D7D7D7D7D7D7D7D7D7D7D7D7D7D7D7D7D7D7D7D7D7D7D7D7D7D7D7D7D7D7D7D7D7D7D7D7D7D7D7D7D7D7D7D7D7D7D7D7D7D7D7D7D7D7D7D7D7D7D7D7D7D7D7D7D7D7D7D7D7D7D7D7D7D7D7D7D7D7D7D7D7D7D7D7D7D7D7D7D7D7D7D7D7
310
D7D7D7D7D7D7D7D7D7D7D7D7D7D7D7D7D7D7D7D7D7D7D7D7D7D7D7D7D7D7D7D7D7D7D7D7D7D7D7D7D7D7D7D7D7D7D7D7D7D7D7D7D7D7D7D7D7D7D7D700D7D7D7D7D7D7D7D7D70000D7D7D7D7D7D7D7D7D700000000000000000000000000000000000000000000000000000000000000000000000000000000000000000000
310
00000000000000000000000000000000000000000000000000000000000000000000000000000000000000000000000000000000000000000000000000000000000000000000000000000000000000000000000000000000000000000000000000000000000000000000000000000000000000000000000000000000000000
310
00000000000000000000000000000000000000D7D7D7D7D7D7D7D7D70000D7D7D7D7D7D7D7D7D7D7D7D7D7D7D7D7D7D7D7D7D7D7D7D7D7D7D7D7D7D7D7D7D7D7D7D7D7D7D7D7D7D7D7D7D7D7D7D7D7D7D7D7D7D7D7D7D7D7D7D7D7D7D7D7D7D7D7D7D7D7D7D7D7D7D7D7D7D7D7D7D7D7D7D7D7D7D7D7D7D7D7D7D7D7D7D7D7
310
D7D7D7D7D7D7D7D7D7D7D7D7D7D7D7D7D7D7D7D7D7D7D7D7D7D7D7D7D7D7D7D7D7D7D7D7D7D7D7D7D7D7D7D7D7D7D7D7D7D7D7D7D7D7D7D7D7D7D7D7D7D7D7D7D7D7D7D7D7D7D7D7D7D7D7D7D7D7D7D7D7D7D7D7D7D7D7D7D7D7D7D7D7D7D7D7D7D7D7D7D7D7D7D7D7D7D7D7D7D7D7D7D70000D7D7D7D7D7D7D7D7D7D7D7D7
310
D7D7D7D7D7D7D7D7D7D7D7D7D7D7D7D7D7D7D7D7D7D7D7D7D7D7D7D7D7D7D7D7D7D7D7D7D7D7D7D7D7D7D7D7D7D7D7D7D7D7D7D7D7D7D7D7D7D7D7D7D7D7D7D7D7D7D7D7D7D7D7D7D7D7D7D7D7D7D7D7D7D7D7D7D7D7D7D7D7D7D7D7D7D7D7D7D7D7D7D7D7D7D7D7D7D7D7D7D7D7D7D7D7D7D7D7D7D7D7D7D7D7D7D7D7D7D7
310
D7D7D7D7D7D7D7D7D7D7D7D7D7D7D7D7D7D7D7D7D7D7D7D7D7D7D7D7D7D7D7D7D7D7D7D7D7D7D7D7D7D7D7D7D7D7D7D7D7D7D7D7D7D7D7D7D7D7D7D7D7D7D7D7D7D7D7D7D7D7D70000D7D7D7D7D7D7D7D7D7D7D7D7D7D7D7D7D7D7D7D7D7D7D7D7D7D7D7D7D7D7D7D7D7D7D7D7D7D7D7D7D7D7D7D7D7D7D7D7D7D7D7D7D7D7
310
D7D7D7D7D7D7D7D7D7D7D7D7D7D7D7D7D7D7D7D7D7D7D7D7D7D7D7D7D7D7D7D7D7D7D7D7D7D7D7D7D7D7D7D7D7D7D7D7D7D7D7D7D7D7D7D7D7D7D7D7D7D7D7D7D7D7D7D7D7D7D7D7D7D7D7D7D7D7D7D7D7D7D7D7D7D7D7D7D7D7D7D7D7D7D7D7D7D7D7D7D7D7D7D7D7D7D7D7D7D7D7D7D7D7D7D7D7D7D7D7D7D7D7D7D7D7D7
310
D7D7D7D7D7D7D7D7D7D7D7D7D7D7D7D7D7D7D7D7D7D7D7D7D7D7D7D7D70000D7D7D7D7D7D7D7D7D7D7D7D7D7D7D7D7D7D7D7D7D7D7D7D7D7D7D7D7D7D7D7D7D7D7D7D7D7D7D7D7D7D7D7D7D7D7D7D7D7D7D7D7D7D7D7D7D7D7D7D7D7D7D7D7D7D7D7D7D7D7D7D7D7D7D7D7D7D7D7D7D7D7D7D7D7D7D7D7D7D7D7D7D7D7D7D7
310
D7D7D7D7D7D7D7D7D7D7D7D7D7D7D7D7D7D7D7D7D7D7D7D7D7D7D7D7D7D7D7D7D7D7D7D7D7D7D7D7D7D7D7D7D7D7D7D7D7D7D7D7D7D7D7D7D7D7D7D7D7D7D7D7D7D7D7D7D7D7D7D7D7D7D7D7D7D7D7D7D7D7D7D7D7D7D7D7D7D7D7D7D7D7D7D7D7D7D7D7D7D7D7D7D7D7D7D7D7D7D7D7D7D70000D7D7D7D7D7D7D7D7D7D7D7
310
D7D7D7D7D7D7D7D7D7D7D7D7D7D7D7D7D7D7D7D7D7D7D7D7D7D7D7D7D7D7D7D7D7D7D7D7D7D7D7D7D7D7D7D7D7D7D7D7D7D7D7D7D7D7D7D7D7D7D7D7D7D7D7D7D7D7D7D7D7D7D7D7D7D7D7D7D7D7D7D7D7D7D7D7D7D7D7D7D7D7D7D7D7D7D7D7D7D7D7D7D7D7D7D7D7D7D7D7D7D7D7D7D7D7D7D7D7D7D7D7D7D7D7D7D7D7D7
310
D7D7D7D7D7D7D7D7D7D7D7D7D7D7D7D7D7D7D7D7D7D7D7D7D7D7D7D7D7D7D7D7D7D7D7D7D7D7D7D7D7D7D7D7D7D7D7D7D7D7D7D7D7D7D7D7D7D7D7D7D7D7D7D7D7D7D7D7D7D7D7D70000D7D7D7D7D7D7D7D7D7D7D7D7D7D7D7D7D7D7D7D7D7D7D7D7D7D7D7D7D7D7D7D7D7D7D7D7D7D7D7D7D7D7D7D7D7D7D7D7D7D7D7D7D7
310
D7D7D7D7D7D7D7D7D7D7D7D7D7D7D7D7D7D7D7D7D7D7D7D7D7D7D7D7D7D7D7D7D7D7D7D7D7D7D7D7D7D7D7D7D7D7D7D7D7D7D7D7D7D7D7D7D7D7D7D7D7D7D7D7D7D7D7D7D7D7D7D7D7D7D7D7D7D7D7D7D7D7D7D7D7D7D7D7D7D7D7D7D7D7D7D7D7D7D7D7D7D7D7D7D7D7D7D7D7D7D7D7D7D7D7D7D7D7D7D7D7D7D7D7D7D7D7
310
D7D7D7D7D7D7D7D7D7D7D7D7D7D7D7D7D7D7D7D7D7D7D7D7D7D7D7D7D7D70000D7D7D7D7D7D7D7D7D7D7D7D7D7D7D7D7D7D7D7D7D7D7D7D7D7D7D7D7D7D7D7D7D7D7D7D7D7D7D7D7D7D7D7D7D7D7D7D7D7D7D7D7D7D7D7D7D7D7D7D7D7D7D7D7D7D7D7D7D7D7D7D7D7D7D7D7D7D7D7D7D7D7D7D7D7D7D7D7D7D7D7D7D7D7D7
310
D7D7D7D7D7D7D7D7D7D7D7D7D7D7D7D7D7D7D7D7D7D7D7D7D7D7D7D7D7D7D7D7D7D7D7D7D7D7D7D7D7D7D7D7D7D7D7D7D7D7D7D7D7D7D7D7D7D7D7D7D7D7D7D7D7D7D7D7D7D7D7D7D7D7D7D7D7D7D7D7D7D7D7D7D7D7D7D7D7D7D7D7D7D7D7D7D7D7D7D7D7D7D7D7D7D7D7D7D7D7D7D7D7D7D70000D7D7D7D7D7D7D7D7D7D7
310
D7D7D7D7D7D7D7D7D7D7D7D7D7D7D7D7D7D7D7D7D7D7D7D7D7D7D7D7D7D7D7D7D7D7D7D7D7D7D7D7D7D7D7D7D7D7D7D7D7D7D7D7D7D7D7D7D7D7D7D7D7D7D7D7D7D7D7D7D7D7D7D7D7D7D7D7D7D7D7D7D7D7D7D7D7D7D7D7D7D7D7D7D7D7D7D7D7D7D7D7D7D7D7D7D7D7D7D7D7D7D7D7D7D7D7D7D7D7D7D7D7D7D7D7D7D7D7
310
D7D7D7D7D7D7D7D7D7D7D7D7D7D7D7D7D7D7D7D7D7D7D7D7D7D7D7D7D7D7D7D7D7D7D7D7D7D7D7D7D7D7D7D7D7D7D7D7D7D7D7D7D7D7D7D7D7D7D7D7D7D7D7D7D7D7D7D7D7D7D7D7D70000D7D7D7D7D7D7D7D7D7D7D7D7D7D7D7D7D7D7D7D7D7D7D7D7D7D7D7D7D7D7D7D7D7D7D7D7D7D7D7D7D7D7D7D7D7D7D7D7D7D7D7D7
310
D7D7D7D7D7D7D7D7D7D7D7D7D7D7D7D7D7D7D7D7D7D7D7D7D7D7D7D7D7D7D7D7D7D7D7D7D7D7D7D7D7D7D7D7D7D7D7D7D7D7D7D7D7D7D7D7D7D7D7D7D7D7D7D7D7D7D7D7D7D7D7D7D7D7D7D7D7D7D7D7D7D7D7D7D7D7D7D7D7D7D7D7D7D7D7D7D7D7D7D7D7D7D7D7D7D7D7D7D7D7D7D7D7D7D7D7D7D7D7D7D7D7D7D7D7D7D7
310
D7D7D7D7D7D7D7D7D7D7D7D7D7D7D7D7D7D7D7D7D7D7D7D7D7D7D7D7D7D7D700000000000000000000000000000000
  0
ENDSEC
  0
EOF
