  0
SECTION
  2
HEADER
  9
$ACADVER
  1
AC1014
  9
$ACADMAINTVER
 70
     9
  9
$DWGCODEPAGE
  3
ANSI_1252
  9
$INSBASE
 10
0.0
 20
0.0
 30
0.0
  9
$EXTMIN
 10
-7.260660000000001
 20
-7.254899999999999
 30
0.0
  9
$EXTMAX
 10
152.47386
 20
152.3529
 30
0.0
  9
$LIMMIN
 10
-7.260660000000001
 20
-7.254899999999999
  9
$LIMMAX
 10
152.47386
 20
152.3529
  9
$ORTHOMODE
 70
     0
  9
$REGENMODE
 70
     1
  9
$FILLMODE
 70
     1
  9
$QTEXTMODE
 70
     0
  9
$MIRRTEXT
 70
     1
  9
$DRAGMODE
 70
     2
  9
$LTSCALE
 40
1.0
  9
$OSMODE
 70
    37
  9
$ATTMODE
 70
     1
  9
$TEXTSIZE
 40
0.2
  9
$TRACEWID
 40
0.05
  9
$TEXTSTYLE
  7
STANDARD
  9
$CLAYER
  8
0
  9
$CELTYPE
  6
BYLAYER
  9
$CECOLOR
 62
   256
  9
$CELTSCALE
 40
1.0
  9
$DELOBJ
 70
     1
  9
$DISPSILH
 70
     0
  9
$DIMSCALE
 40
1.0
  9
$DIMASZ
 40
0.18
  9
$DIMEXO
 40
0.0625
  9
$DIMDLI
 40
0.38
  9
$DIMRND
 40
0.0
  9
$DIMDLE
 40
0.0
  9
$DIMEXE
 40
0.18
  9
$DIMTP
 40
0.0
  9
$DIMTM
 40
0.0
  9
$DIMTXT
 40
0.18
  9
$DIMCEN
 40
0.09
  9
$DIMTSZ
 40
0.0
  9
$DIMTOL
 70
     0
  9
$DIMLIM
 70
     0
  9
$DIMTIH
 70
     1
  9
$DIMTOH
 70
     1
  9
$DIMSE1
 70
     0
  9
$DIMSE2
 70
     0
  9
$DIMTAD
 70
     0
  9
$DIMZIN
 70
     0
  9
$DIMBLK
  1

  9
$DIMASO
 70
     1
  9
$DIMSHO
 70
     1
  9
$DIMPOST
  1

  9
$DIMAPOST
  1

  9
$DIMALT
 70
     0
  9
$DIMALTD
 70
     2
  9
$DIMALTF
 40
25.4
  9
$DIMLFAC
 40
1.0
  9
$DIMTOFL
 70
     0
  9
$DIMTVP
 40
0.0
  9
$DIMTIX
 70
     0
  9
$DIMSOXD
 70
     0
  9
$DIMSAH
 70
     0
  9
$DIMBLK1
  1

  9
$DIMBLK2
  1

  9
$DIMSTYLE
  2
STANDARD
  9
$DIMCLRD
 70
     0
  9
$DIMCLRE
 70
     0
  9
$DIMCLRT
 70
     0
  9
$DIMTFAC
 40
1.0
  9
$DIMGAP
 40
0.09
  9
$DIMJUST
 70
     0
  9
$DIMSD1
 70
     0
  9
$DIMSD2
 70
     0
  9
$DIMTOLJ
 70
     1
  9
$DIMTZIN
 70
     0
  9
$DIMALTZ
 70
     0
  9
$DIMALTTZ
 70
     0
  9
$DIMFIT
 70
     3
  9
$DIMUPT
 70
     0
  9
$DIMUNIT
 70
     2
  9
$DIMDEC
 70
     4
  9
$DIMTDEC
 70
     4
  9
$DIMALTU
 70
     2
  9
$DIMALTTD
 70
     2
  9
$DIMTXSTY
  7
STANDARD
  9
$DIMAUNIT
 70
     0
  9
$LUNITS
 70
     2
  9
$LUPREC
 70
     4
  9
$SKETCHINC
 40
0.1
  9
$FILLETRAD
 40
0.5
  9
$AUNITS
 70
     0
  9
$AUPREC
 70
     0
  9
$MENU
  1
.
  9
$ELEVATION
 40
0.0
  9
$PELEVATION
 40
0.0
  9
$THICKNESS
 40
0.0
  9
$LIMCHECK
 70
     0
  9
$CHAMFERA
 40
0.5
  9
$CHAMFERB
 40
0.5
  9
$CHAMFERC
 40
1.0
  9
$CHAMFERD
 40
0.0
  9
$SKPOLY
 70
     0
  9
$TDCREATE
 40
2456098.432040023
  9
$TDUPDATE
 40
2456098.432040035
  9
$TDINDWG
 40
0.0000000116
  9
$TDUSRTIMER
 40
0.0000000116
  9
$USRTIMER
 70
     1
  9
$ANGBASE
 50
0.0
  9
$ANGDIR
 70
     0
  9
$PDMODE
 70
     0
  9
$PDSIZE
 40
0.0
  9
$PLINEWID
 40
0.0
  9
$COORDS
 70
     1
  9
$SPLFRAME
 70
     0
  9
$SPLINETYPE
 70
     6
  9
$SPLINESEGS
 70
     8
  9
$ATTDIA
 70
     0
  9
$ATTREQ
 70
     1
  9
$HANDLING
 70
     1
  9
$HANDSEED
  5
1E7
  9
$SURFTAB1
 70
     6
  9
$SURFTAB2
 70
     6
  9
$SURFTYPE
 70
     6
  9
$SURFU
 70
     6
  9
$SURFV
 70
     6
  9
$UCSNAME
  2

  9
$UCSORG
 10
0.0
 20
0.0
 30
0.0
  9
$UCSXDIR
 10
1.0
 20
0.0
 30
0.0
  9
$UCSYDIR
 10
0.0
 20
1.0
 30
0.0
  9
$PUCSNAME
  2

  9
$PUCSORG
 10
0.0
 20
0.0
 30
0.0
  9
$PUCSXDIR
 10
1.0
 20
0.0
 30
0.0
  9
$PUCSYDIR
 10
0.0
 20
1.0
 30
0.0
  9
$USERI1
 70
     0
  9
$USERI2
 70
     0
  9
$USERI3
 70
     0
  9
$USERI4
 70
     0
  9
$USERI5
 70
     0
  9
$USERR1
 40
0.0
  9
$USERR2
 40
0.0
  9
$USERR3
 40
0.0
  9
$USERR4
 40
0.0
  9
$USERR5
 40
0.0
  9
$WORLDVIEW
 70
     1
  9
$SHADEDGE
 70
     3
  9
$SHADEDIF
 70
    70
  9
$TILEMODE
 70
     1
  9
$MAXACTVP
 70
    64
  9
$PINSBASE
 10
0.0
 20
0.0
 30
0.0
  9
$PLIMCHECK
 70
     0
  9
$PEXTMIN
 10
1.000000000000000E+20
 20
1.000000000000000E+20
 30
1.000000000000000E+20
  9
$PEXTMAX
 10
-1.000000000000000E+20
 20
-1.000000000000000E+20
 30
-1.000000000000000E+20
  9
$PLIMMIN
 10
0.0
 20
0.0
  9
$PLIMMAX
 10
12.0
 20
9.0
  9
$UNITMODE
 70
     0
  9
$VISRETAIN
 70
     1
  9
$PLINEGEN
 70
     0
  9
$PSLTSCALE
 70
     1
  9
$TREEDEPTH
 70
  3020
  9
$PICKSTYLE
 70
     1
  9
$CMLSTYLE
  2
STANDARD
  9
$CMLJUST
 70
     0
  9
$CMLSCALE
 40
1.0
  9
$PROXYGRAPHICS
 70
     1
  9
$MEASUREMENT
 70
     0
  0
ENDSEC
  0
SECTION
  2
CLASSES
  0
CLASS
  1
ACDBDICTIONARYWDFLT
  2
AcDbDictionaryWithDefault
  3
ObjectDBX Classes
 90
        0
280
     0
281
     0
  0
CLASS
  1
VISUALSTYLE
  2
AcDbVisualStyle
  3
ObjectDBX Classes
 90
     4095
280
     0
281
     0
  0
CLASS
  1
MATERIAL
  2
AcDbMaterial
  3
ObjectDBX Classes
 90
     1153
280
     0
281
     0
  0
CLASS
  1
DICTIONARYVAR
  2
AcDbDictionaryVar
  3
ObjectDBX Classes
 90
        0
280
     0
281
     0
  0
CLASS
  1
XRECORD
  2
AcDbXrecord
  3
AutoCAD 2000
 90
        0
280
     0
281
     0
  0
CLASS
  1
LWPOLYLINE
  2
AcDbPolyline
  3
AutoCAD 2000
 90
        0
280
     0
281
     1
  0
CLASS
  1
HATCH
  2
AcDbHatch
  3
AutoCAD 2000
 90
        0
280
     0
281
     1
  0
CLASS
  1
ACDBPLACEHOLDER
  2
AcDbPlaceHolder
  3
ObjectDBX Classes
 90
        0
280
     0
281
     0
  0
CLASS
  1
LAYOUT
  2
AcDbLayout
  3
ObjectDBX Classes
 90
        0
280
     0
281
     0
  0
ENDSEC
  0
SECTION
  2
TABLES
  0
TABLE
  2
VPORT
  5
8
330
0
100
AcDbSymbolTable
 70
     1
  0
VPORT
  5
29
330
8
100
AcDbSymbolTableRecord
100
AcDbViewportTableRecord
  2
*ACTIVE
 70
     0
 10
0.0
 20
0.0
 11
1.0
 21
1.0
 12
-7.260660000000001
 22
72.54899999999999
 13
0.0
 23
0.0
 14
0.5
 24
0.5
 15
0.5
 25
0.5
 16
0.0
 26
0.0
 36
1.0
 17
0.0
 27
0.0
 37
0.0
 40
159.6078
 41
0.1112524372596638
 42
50.0
 43
0.0
 44
0.0
 50
0.0
 51
0.0
 71
     0
 72
   100
 73
     1
 74
     3
 75
     0
 76
     0
 77
     0
 78
     0
  0
ENDTAB
  0
TABLE
  2
LTYPE
  5
5
330
0
100
AcDbSymbolTable
 70
    11
  0
LTYPE
  5
14
330
5
100
AcDbSymbolTableRecord
100
AcDbLinetypeTableRecord
  2
BYBLOCK
 70
     0
  3

 72
    65
 73
     0
 40
0.0
  0
LTYPE
  5
15
330
5
100
AcDbSymbolTableRecord
100
AcDbLinetypeTableRecord
  2
BYLAYER
 70
     0
  3

 72
    65
 73
     0
 40
0.0
  0
LTYPE
  5
16
330
5
100
AcDbSymbolTableRecord
100
AcDbLinetypeTableRecord
  2
CONTINUOUS
 70
     0
  3
Solid line
 72
    65
 73
     0
 40
0.0
  0
LTYPE
  5
53
330
5
100
AcDbSymbolTableRecord
100
AcDbLinetypeTableRecord
  2
HIDDEN
 70
     0
  3
Hidden __ __ __ __ __ __ __ __ __ __ __ __ __ _
 72
    65
 73
     2
 40
0.375
 49
0.25
 74
     0
 49
-0.125
 74
     0
  0
LTYPE
  5
54
330
5
100
AcDbSymbolTableRecord
100
AcDbLinetypeTableRecord
  2
DIVIDE
 70
     0
  3
Divide ____ . . ____ . . ____ . . ____ . . ____
 72
    65
 73
     6
 40
1.25
 49
0.5
 74
     0
 49
-0.25
 74
     0
 49
0.0
 74
     0
 49
-0.25
 74
     0
 49
0.0
 74
     0
 49
-0.25
 74
     0
  0
LTYPE
  5
56
330
5
100
AcDbSymbolTableRecord
100
AcDbLinetypeTableRecord
  2
ZIGZAG
 70
     0
  3
/\/\/\/\/\/\/\/\
 72
    65
 73
     4
 40
20.32254
 49
0.00254
 74
     0
 49
-5.08
 74
     4
 75
   131
340
55
 46
5.08
 50
0.0
 44
-5.08
 45
0.0
 49
-10.16
 74
     4
 75
   131
340
55
 46
5.08
 50
180.0
 44
5.08
 45
0.0
 49
-5.08
 74
     0
  0
LTYPE
  5
57
330
5
100
AcDbSymbolTableRecord
100
AcDbLinetypeTableRecord
  2
BATTING
 70
     0
  3
 SSSSSSSSSSSSSSSSSSSSSS
 72
    65
 73
     4
 40
10.16254
 49
0.00254
 74
     0
 49
-2.54
 74
     4
 75
   134
340
55
 46
2.54
 50
0.0
 44
-2.54
 45
0.0
 49
-5.08
 74
     4
 75
   134
340
55
 46
2.54
 50
180.0
 44
2.54
 45
0.0
 49
-2.54
 74
     0
  0
LTYPE
  5
58
330
5
100
AcDbSymbolTableRecord
100
AcDbLinetypeTableRecord
  2
DASHDOT
 70
     0
  3
DASHDOT
 72
    65
 73
     4
 40
1.0
 49
0.5
 74
     0
 49
-0.25
 74
     0
 49
0.0001
 74
     0
 49
-0.25
 74
     0
  0
LTYPE
  5
59
330
5
100
AcDbSymbolTableRecord
100
AcDbLinetypeTableRecord
  2
DASHDOTX2
 70
     0
  3
DASHDOTX2
 72
    65
 73
     4
 40
1.0
 49
1.0
 74
     0
 49
-0.5
 74
     0
 49
0.0002
 74
     0
 49
-0.5
 74
     0
  0
LTYPE
  5
5A
330
5
100
AcDbSymbolTableRecord
100
AcDbLinetypeTableRecord
  2
DASHED
 70
     0
  3
DASHED
 72
    65
 73
     2
 40
0.75
 49
0.5
 74
     0
 49
-0.25
 74
     0
  0
LTYPE
  5
5B
330
5
100
AcDbSymbolTableRecord
100
AcDbLinetypeTableRecord
  2
TRACKS
 70
     0
  3
TRACKS
 72
    65
 73
     2
 40
7.62
 49
3.81
 74
     0
 49
3.81
 74
     0
  0
LTYPE
  5
5C
330
5
100
AcDbSymbolTableRecord
100
AcDbLinetypeTableRecord
  2
DOT
 70
     0
  3
DOT
 72
    65
 73
     2
 40
0.25
 49
0.0001
 74
     0
 49
-0.25
 74
     0
  0
LTYPE
  5
5D
330
5
100
AcDbSymbolTableRecord
100
AcDbLinetypeTableRecord
  2
PHANTOM
 70
     0
  3
PHANTOM
 72
    65
 73
     6
 40
2.5
 49
1.25
 74
     0
 49
-0.25
 74
     0
 49
0.25
 74
     0
 49
-0.25
 74
     0
 49
0.25
 74
     0
 49
-0.25
 74
     0
  0
ENDTAB
  0
TABLE
  2
LAYER
  5
2
330
0
100
AcDbSymbolTable
 70
     2
  0
LAYER
  5
10
330
2
100
AcDbSymbolTableRecord
100
AcDbLayerTableRecord
  2
0
 70
     0
 62
     1
  6
CONTINUOUS
  0
LAYER
  5
5E
330
2
100
AcDbSymbolTableRecord
100
AcDbLayerTableRecord
  2
TEXT
 70
     0
 62
     7
  6
CONTINUOUS
  0
ENDTAB
  0
TABLE
  2
STYLE
  5
3
330
0
100
AcDbSymbolTable
 70
    12
  0
STYLE
  5
11
330
3
100
AcDbSymbolTableRecord
100
AcDbTextStyleTableRecord
  2
STANDARD
 70
     0
 40
0.0
 41
1.0
 50
0.0
 71
     0
 42
0.2
  3
txt
  4

  0
STYLE
  5
40
330
3
100
AcDbSymbolTableRecord
100
AcDbTextStyleTableRecord
  2
LPDETAILTEXT
 70
     0
 40
0.0
 41
1.0
 50
0.0
 71
     0
 42
0.0
  3
COMIC.TTF
  4

1001
ACAD
1000
Comic Sans MS
1071
       34
  0
STYLE
  5
41
330
3
100
AcDbSymbolTableRecord
100
AcDbTextStyleTableRecord
  2
ARIAL
 70
     0
 40
0.0
 41
1.0
 50
0.0
 71
     0
 42
0.2
  3
ARIAL.TTF
  4

1001
ACAD
1000
Arial
1071
       34
  0
STYLE
  5
42
330
3
100
AcDbSymbolTableRecord
100
AcDbTextStyleTableRecord
  2
COURIER_NEW
 70
     0
 40
0.0
 41
1.0
 50
0.0
 71
     0
 42
0.2
  3
COUR.TTF
  4

1001
ACAD
1000
Courier New
1071
       34
  0
STYLE
  5
43
330
3
100
AcDbSymbolTableRecord
100
AcDbTextStyleTableRecord
  2
ARIAL_NARROW
 70
     0
 40
0.0
 41
1.0
 50
0.0
 71
     0
 42
0.2
  3
ARIALN.TTF
  4

1001
ACAD
1000
Arial Narrow
1071
       34
  0
STYLE
  5
44
330
3
100
AcDbSymbolTableRecord
100
AcDbTextStyleTableRecord
  2
TIMES_NEW_ROMAN
 70
     0
 40
0.0
 41
1.0
 50
0.0
 71
     0
 42
0.2
  3
TIMES.TTF
  4

1001
ACAD
1000
Times New Roman
1071
       34
  0
STYLE
  5
45
330
3
100
AcDbSymbolTableRecord
100
AcDbTextStyleTableRecord
  2
IMPACT
 70
     0
 40
0.0
 41
1.0
 50
0.0
 71
     0
 42
0.2
  3
IMPACT.TTF
  4

1001
ACAD
1000
Impact
1071
       34
  0
STYLE
  5
46
330
3
100
AcDbSymbolTableRecord
100
AcDbTextStyleTableRecord
  2
ARIAL_BLACK
 70
     0
 40
0.0
 41
1.0
 50
0.0
 71
     0
 42
0.2
  3
ARIBLK.TTF
  4

1001
ACAD
1000
Arial Black
1071
       34
  0
STYLE
  5
47
330
3
100
AcDbSymbolTableRecord
100
AcDbTextStyleTableRecord
  2
SYMBOL
 70
     0
 40
0.0
 41
1.0
 50
0.0
 71
     0
 42
0.2
  3
SYMBOL.TTF
  4

1001
ACAD
1000
Symbol
1071
       34
  0
STYLE
  5
48
330
3
100
AcDbSymbolTableRecord
100
AcDbTextStyleTableRecord
  2
COMIC_SANS_MS
 70
     0
 40
0.0
 41
1.0
 50
0.0
 71
     0
 42
0.2
  3
COMIC.TTF
  4

1001
ACAD
1000
Comic Sans MS
1071
       34
  0
STYLE
  5
49
330
3
100
AcDbSymbolTableRecord
100
AcDbTextStyleTableRecord
  2
TREBUCHET_MS
 70
     0
 40
0.0
 41
1.0
 50
0.0
 71
     0
 42
0.2
  3
TREBUC.TTF
  4

1001
ACAD
1000
Trebuchet MS
1071
       34
  0
STYLE
  5
55
330
3
100
AcDbSymbolTableRecord
100
AcDbTextStyleTableRecord
  2

 70
     1
 40
0.0
 41
1.0
 50
0.0
 71
     0
 42
22.45
  3
ltypeshp.shx
  4

  0
ENDTAB
  0
TABLE
  2
VIEW
  5
6
330
0
100
AcDbSymbolTable
 70
     0
  0
ENDTAB
  0
TABLE
  2
UCS
  5
7
330
0
100
AcDbSymbolTable
 70
     0
  0
ENDTAB
  0
TABLE
  2
APPID
  5
9
330
0
100
AcDbSymbolTable
 70
     2
  0
APPID
  5
12
330
9
100
AcDbSymbolTableRecord
100
AcDbRegAppTableRecord
  2
ACAD
 70
     0
  0
APPID
  5
3F
330
9
100
AcDbSymbolTableRecord
100
AcDbRegAppTableRecord
  2
VERTEX
 70
     0
  0
ENDTAB
  0
TABLE
  2
DIMSTYLE
  5
A
330
0
100
AcDbSymbolTable
 70
     3
  0
DIMSTYLE
105
27
330
A
100
AcDbSymbolTableRecord
100
AcDbDimStyleTableRecord
  2
STANDARD
 70
     0
  3

  4

  5

  6

  7

 40
1.0
 41
0.18
 42
0.0625
 43
0.38
 44
0.18
 45
0.0
 46
0.0
 47
0.0
 48
0.0
140
0.18
141
0.09
142
0.0
143
25.4
144
1.0
145
0.0
146
1.0
147
0.09
 71
     0
 72
     0
 73
     1
 74
     1
 75
     0
 76
     0
 77
     0
 78
     0
170
     0
171
     2
172
     0
173
     0
174
     0
175
     0
176
     0
177
     0
178
     0
270
     2
271
     4
272
     4
273
     2
274
     2
340
11
275
     0
280
     0
281
     0
282
     0
283
     1
284
     0
285
     0
286
     0
287
     3
288
     0
  0
DIMSTYLE
105
4A
330
A
100
AcDbSymbolTableRecord
100
AcDbDimStyleTableRecord
  2
VERTEX_STYLE
 70
     0
  3

  4

  5

  6
CLOSED
  7
CLOSED
 40
1.0
 41
0.078740157480315
 42
0.0625
 43
0.38
 44
0.0393700787401575
 45
0.0
 46
0.0393700787401575
 47
0.0
 48
0.0
140
0.18
141
0.09
142
0.0
143
25.4
144
25.4
145
0.0
146
0.65
147
0.0669291338582677
 71
     0
 72
     0
 73
     0
 74
     0
 75
     0
 76
     0
 77
     1
 78
     8
170
     0
171
     2
172
     1
173
     1
174
     0
175
     0
176
   256
177
   256
178
     0
179
     1
270
     2
271
     1
272
     4
273
     2
274
     2
340
40
275
     0
280
     0
281
     0
282
     0
283
     1
284
     0
285
     0
286
     0
287
     3
288
     0
  0
DIMSTYLE
105
52
330
A
100
AcDbSymbolTableRecord
100
AcDbDimStyleTableRecord
  2
VERTEX_STYLE__INCHES_
 70
     0
  3

  4

  5

  6
CLOSED
  7
CLOSED
 40
1.0
 41
0.078740157480315
 42
0.0625
 43
0.38
 44
0.0393700787401575
 45
0.0
 46
0.0393700787401575
 47
0.0
 48
0.0
140
0.18
141
0.09
142
0.0
143
25.4
144
1.0
145
0.0
146
0.65
147
0.0669291338582677
 71
     0
 72
     0
 73
     0
 74
     0
 75
     0
 76
     0
 77
     1
 78
     0
170
     0
171
     2
172
     1
173
     1
174
     0
175
     0
176
   256
177
   256
178
     0
179
     1
270
     4
271
     4
272
     4
273
     2
274
     2
340
40
275
     0
280
     0
281
     0
282
     0
283
     1
284
     0
285
     0
286
     0
287
     3
288
     0
  0
ENDTAB
  0
TABLE
  2
BLOCK_RECORD
  5
1
330
0
100
AcDbSymbolTable
 70
     4
  0
BLOCK_RECORD
  5
1F
330
1
100
AcDbSymbolTableRecord
100
AcDbBlockTableRecord
  2
*MODEL_SPACE
  0
BLOCK_RECORD
  5
1B
330
1
100
AcDbSymbolTableRecord
100
AcDbBlockTableRecord
  2
*PAPER_SPACE
  0
BLOCK_RECORD
  5
4B
330
1
100
AcDbSymbolTableRecord
100
AcDbBlockTableRecord
  2
_CLOSED
  0
BLOCK_RECORD
  5
5F
330
1
100
AcDbSymbolTableRecord
100
AcDbBlockTableRecord
  2
GROUP_0_B00AF4AA-BCA9-421F
  0
BLOCK_RECORD
  5
62
330
1
100
AcDbSymbolTableRecord
100
AcDbBlockTableRecord
  2
HATCH_1_BCC97550-5639-4D74
  0
ENDTAB
  0
ENDSEC
  0
SECTION
  2
BLOCKS
  0
BLOCK
  5
20
330
1F
100
AcDbEntity
  8
0
100
AcDbBlockBegin
  2
*MODEL_SPACE
 70
     0
 10
0.0
 20
0.0
 30
0.0
  3
*MODEL_SPACE
  1

  0
ENDBLK
  5
21
330
1F
100
AcDbEntity
  8
0
100
AcDbBlockEnd
  0
BLOCK
  5
1C
330
1B
100
AcDbEntity
 67
     1
  8
0
100
AcDbBlockBegin
  2
*PAPER_SPACE
 70
     0
 10
0.0
 20
0.0
 30
0.0
  3
*PAPER_SPACE
  1

  0
ENDBLK
  5
1D
330
1B
100
AcDbEntity
 67
     1
  8
0
100
AcDbBlockEnd
  0
BLOCK
  5
4C
330
4B
100
AcDbEntity
  8
0
100
AcDbBlockBegin
  2
_CLOSED
 70
     0
 10
0.0
 20
0.0
 30
0.0
  3
_CLOSED
  1

  0
LINE
  5
4E
330
4B
100
AcDbEntity
  8
0
  6
BYBLOCK
 62
     0
100
AcDbLine
 10
-1.0
 20
0.166667
 30
0.0
 11
0.0
 21
0.0
 31
0.0
  0
LINE
  5
4F
330
4B
100
AcDbEntity
  8
0
  6
BYBLOCK
 62
     0
100
AcDbLine
 10
0.0
 20
0.0
 30
0.0
 11
-1.0
 21
-0.166667
 31
0.0
  0
LINE
  5
50
330
4B
100
AcDbEntity
  8
0
  6
BYBLOCK
 62
     0
100
AcDbLine
 10
-1.0
 20
0.166667
 30
0.0
 11
-1.0
 21
-0.166667
 31
0.0
  0
LINE
  5
51
330
4B
100
AcDbEntity
  8
0
  6
BYBLOCK
 62
     0
100
AcDbLine
 10
0.0
 20
0.0
 30
0.0
 11
-1.0
 21
0.0
 31
0.0
  0
ENDBLK
  5
4D
330
4B
100
AcDbEntity
  8
0
100
AcDbBlockEnd
  0
BLOCK
  5
60
330
5F
100
AcDbEntity
  8
0
100
AcDbBlockBegin
  2
GROUP_0_B00AF4AA-BCA9-421F
 70
     0
 10
0.0
 20
0.0
 30
0.0
  3
GROUP_0_B00AF4AA-BCA9-421F
  1

  0
CIRCLE
  5
14C
330
5F
100
AcDbEntity
  8
TEXT
  6
CONTINUOUS
 62
     1
 48
12.0
100
AcDbCircle
 10
70.33150595084426
 20
74.80326364076839
 30
0.0
 40
51.60996
  0
ARC
  5
14D
330
5F
100
AcDbEntity
  8
TEXT
  6
CONTINUOUS
 62
     1
 48
12.0
100
AcDbCircle
 10
68.89032550133801
 20
76.24695458413862
 30
0.0
 40
42.13944000000001
100
AcDbArc
 50
231.7806
 51
38.17420000000004
  0
LINE
  5
14E
330
5F
100
AcDbEntity
  8
TEXT
  6
CONTINUOUS
 62
     1
 48
12.0
100
AcDbLine
 10
96.40270595084426
 20
107.9106636407684
 30
0.0
 11
37.20466595084424
 21
48.75906364076839
 31
0.0
  0
LWPOLYLINE
  5
14F
330
5F
100
AcDbEntity
  8
TEXT
  6
CONTINUOUS
 62
     1
 48
12.0
100
AcDbPolyline
 90
        3
 70
     0
 43
0.0
 10
102.0176259508443
 20
102.2914236407684
 10
42.81986638693832
 20
43.14010385686444
 10
42.81958595084424
 20
43.13982364076838
  0
ARC
  5
150
330
5F
100
AcDbEntity
  8
TEXT
  6
CONTINUOUS
 62
     1
 48
12.0
100
AcDbCircle
 10
70.33150595084426
 20
74.80326364076839
 30
0.0
 40
42.13944
100
AcDbArc
 50
51.7806
 51
218.1742
  0
INSERT
  5
1BA
330
5F
100
AcDbEntity
  8
0
  6
BYBLOCK
100
AcDbBlockReference
  2
HATCH_1_BCC97550-5639-4D74
 10
0.0
 20
0.0
 30
0.0
  0
ENDBLK
  5
61
330
5F
100
AcDbEntity
  8
0
100
AcDbBlockEnd
  0
BLOCK
  5
63
330
62
100
AcDbEntity
  8
0
100
AcDbBlockBegin
  2
HATCH_1_BCC97550-5639-4D74
 70
     0
 10
0.0
 20
0.0
 30
0.0
  3
HATCH_1_BCC97550-5639-4D74
  1

  0
LINE
  5
65
330
62
100
AcDbEntity
  8
0
 62
     0
100
AcDbLine
 10
59.77197349391996
 20
25.04697955127786
 30
0.0
 11
59.57200395488867
 21
25.0434890699904
 31
0.0
  0
LINE
  5
66
330
62
100
AcDbEntity
  8
0
 62
     0
100
AcDbLine
 10
47.70399152629412
 20
28.83694145465602
 30
0.0
 11
47.50402198726285
 21
28.83345097336856
 31
0.0
  0
LINE
  5
67
330
62
100
AcDbEntity
  8
0
 62
     0
100
AcDbLine
 10
43.63479111991943
 20
32.76652260953245
 30
0.0
 11
43.43482158088815
 21
32.76303212824499
 31
0.0
  0
LINE
  5
68
330
62
100
AcDbEntity
  8
0
 62
     0
100
AcDbLine
 10
39.56559071354472
 20
36.69610376440888
 30
0.0
 11
39.36562117451344
 21
36.69261328312142
 31
0.0
  0
LINE
  5
69
330
62
100
AcDbEntity
  8
0
 62
     0
100
AcDbLine
 10
35.49639030717002
 20
40.62568491928531
 30
0.0
 11
35.29642076813874
 21
40.62219443799785
 31
0.0
  0
LINE
  5
6A
330
62
100
AcDbEntity
  8
0
 62
     0
100
AcDbLine
 10
31.42718990079533
 20
44.55526607416174
 30
0.0
 11
31.22722036176405
 21
44.55177559287428
 31
0.0
  0
LINE
  5
6B
330
62
100
AcDbEntity
  8
0
 62
     0
100
AcDbLine
 10
27.35798949442063
 20
48.48484722903817
 30
0.0
 11
27.15801995538935
 21
48.48135674775072
 31
0.0
  0
LINE
  5
6C
330
62
100
AcDbEntity
  8
0
 62
     0
100
AcDbLine
 10
27.28817986867149
 20
52.48423800966373
 30
0.0
 11
27.08821032964021
 21
52.48074752837628
 31
0.0
  0
LINE
  5
6D
330
62
100
AcDbEntity
  8
0
 62
     0
100
AcDbLine
 10
23.21897946229679
 20
56.41381916454016
 30
0.0
 11
23.01900992326551
 21
56.41032868325271
 31
0.0
  0
LINE
  5
6E
330
62
100
AcDbEntity
  8
0
 62
     0
100
AcDbLine
 10
23.14916983654766
 20
60.41320994516573
 30
0.0
 11
22.94920029751638
 21
60.40971946387827
 31
0.0
  0
LINE
  5
6F
330
62
100
AcDbEntity
  8
0
 62
     0
100
AcDbLine
 10
23.07936021079852
 20
64.4126007257913
 30
0.0
 11
22.87939067176725
 21
64.40911024450384
 31
0.0
  0
LINE
  5
70
330
62
100
AcDbEntity
  8
0
 62
     0
100
AcDbLine
 10
23.00955058504939
 20
68.41199150641685
 30
0.0
 11
22.80958104601811
 21
68.4085010251294
 31
0.0
  0
LINE
  5
71
330
62
100
AcDbEntity
  8
0
 62
     0
100
AcDbLine
 10
18.94035017867469
 20
72.34157266129328
 30
0.0
 11
18.78107021080258
 21
72.33879241911232
 31
0.0
  0
LINE
  5
72
330
62
100
AcDbEntity
  8
0
 62
     0
100
AcDbLine
 10
62.02612363081717
 20
125.1015586926661
 30
0.0
 11
61.82615409178589
 21
125.0980682113786
 31
0.0
  0
LINE
  5
73
330
62
100
AcDbEntity
  8
0
 62
     0
100
AcDbLine
 10
50.0977609146896
 20
120.8927390347931
 30
0.0
 11
49.89779137565832
 21
120.8892485535057
 31
0.0
  0
LINE
  5
74
330
62
100
AcDbEntity
  8
0
 62
     0
100
AcDbLine
 10
42.16878897918761
 20
116.7537290026693
 30
0.0
 11
41.96881944015633
 21
116.7502385213818
 31
0.0
  0
LINE
  5
75
330
62
100
AcDbEntity
  8
0
 62
     0
100
AcDbLine
 10
38.23920782431117
 20
112.6845285962946
 30
0.0
 11
38.03923828527989
 21
112.6810381150072
 31
0.0
  0
LINE
  5
76
330
62
100
AcDbEntity
  8
0
 62
     0
100
AcDbLine
 10
34.30962666943475
 20
108.6153281899199
 30
0.0
 11
34.10965713040347
 21
108.6118377086325
 31
0.0
  0
LINE
  5
77
330
62
100
AcDbEntity
  8
0
 62
     0
100
AcDbLine
 10
30.38004551455832
 20
104.5461277835452
 30
0.0
 11
30.18007597552704
 21
104.5426373022577
 31
0.0
  0
LINE
  5
78
330
62
100
AcDbEntity
  8
0
 62
     0
100
AcDbLine
 10
26.45046435968188
 20
100.4769273771705
 30
0.0
 11
26.25049482065061
 21
100.4734368958831
 31
0.0
  0
LINE
  5
79
330
62
100
AcDbEntity
  8
0
 62
     0
100
AcDbLine
 10
26.52027398543101
 20
96.47753659654495
 30
0.0
 11
26.32030444639974
 21
96.4740461152575
 31
0.0
  0
LINE
  5
7A
330
62
100
AcDbEntity
  8
0
 62
     0
100
AcDbLine
 10
22.59069283055458
 20
92.40833619017025
 30
0.0
 11
22.39072329152331
 21
92.40484570888279
 31
0.0
  0
LINE
  5
7B
330
62
100
AcDbEntity
  8
0
 62
     0
100
AcDbLine
 10
22.66050245630372
 20
88.40894540954469
 30
0.0
 11
22.46053291727245
 21
88.40545492825723
 31
0.0
  0
LINE
  5
7C
330
62
100
AcDbEntity
  8
0
 62
     0
100
AcDbLine
 10
22.73031208205285
 20
84.40955462891912
 30
0.0
 11
22.53034254302158
 21
84.40606414763167
 31
0.0
  0
LINE
  5
7D
330
62
100
AcDbEntity
  8
0
 62
     0
100
AcDbLine
 10
22.80012170780199
 20
80.41016384829355
 30
0.0
 11
22.60015216877071
 21
80.40667336700609
 31
0.0
  0
LINE
  5
7E
330
62
100
AcDbEntity
  8
0
 62
     0
100
AcDbLine
 10
18.87054055292556
 20
76.34096344191884
 30
0.0
 11
18.74534170360916
 21
76.3387780878751
 31
0.0
  0
LINE
  5
7F
330
62
100
AcDbEntity
  8
0
 62
     0
100
AcDbLine
 10
42.23859860493674
 20
112.7543382220437
 30
0.0
 11
42.03862906590546
 21
112.7508477407563
 31
0.0
  0
LINE
  5
80
330
62
100
AcDbEntity
  8
0
 62
     0
100
AcDbLine
 10
38.30901745006031
 20
108.685137815669
 30
0.0
 11
38.10904791102903
 21
108.6816473343816
 31
0.0
  0
LINE
  5
81
330
62
100
AcDbEntity
  8
0
 62
     0
100
AcDbLine
 10
34.37943629518388
 20
104.6159374092943
 30
0.0
 11
34.17946675615261
 21
104.6124469280069
 31
0.0
  0
LINE
  5
82
330
62
100
AcDbEntity
  8
0
 62
     0
100
AcDbLine
 10
30.44985514030745
 20
100.5467370029196
 30
0.0
 11
30.24988560127617
 21
100.5432465216322
 31
0.0
  0
LINE
  5
83
330
62
100
AcDbEntity
  8
0
 62
     0
100
AcDbLine
 10
30.51966476605658
 20
96.54734622229408
 30
0.0
 11
30.3196952270253
 21
96.54385574100662
 31
0.0
  0
LINE
  5
84
330
62
100
AcDbEntity
  8
0
 62
     0
100
AcDbLine
 10
26.59008361118015
 20
92.47814581591938
 30
0.0
 11
26.39011407214887
 21
92.47465533463192
 31
0.0
  0
LINE
  5
85
330
62
100
AcDbEntity
  8
0
 62
     0
100
AcDbLine
 10
26.65989323692929
 20
88.47875503529382
 30
0.0
 11
26.45992369789801
 21
88.47526455400636
 31
0.0
  0
LINE
  5
86
330
62
100
AcDbEntity
  8
0
 62
     0
100
AcDbLine
 10
26.72970286267842
 20
84.47936425466825
 30
0.0
 11
26.52973332364714
 21
84.4758737733808
 31
0.0
  0
LINE
  5
87
330
62
100
AcDbEntity
  8
0
 62
     0
100
AcDbLine
 10
26.79951248842755
 20
80.47997347404268
 30
0.0
 11
26.59954294939628
 21
80.47648299275522
 31
0.0
  0
LINE
  5
88
330
62
100
AcDbEntity
  8
0
 62
     0
100
AcDbLine
 10
22.86993133355112
 20
76.41077306766799
 30
0.0
 11
22.66996179451985
 21
76.40728258638053
 31
0.0
  0
LINE
  5
89
330
62
100
AcDbEntity
  8
0
 62
     0
100
AcDbLine
 10
22.93974095930026
 20
72.41138228704243
 30
0.0
 11
22.73977142026898
 21
72.40789180575497
 31
0.0
  0
LINE
  5
8A
330
62
100
AcDbEntity
  8
0
 62
     0
100
AcDbLine
 10
27.00894136567495
 20
68.48180113216598
 30
0.0
 11
26.80897182664368
 21
68.47831065087853
 31
0.0
  0
LINE
  5
8B
330
62
100
AcDbEntity
  8
0
 62
     0
100
AcDbLine
 10
27.07875099142409
 20
64.48241035154042
 30
0.0
 11
26.87878145239281
 21
64.47891987025297
 31
0.0
  0
LINE
  5
8C
330
62
100
AcDbEntity
  8
0
 62
     0
100
AcDbLine
 10
27.14856061717322
 20
60.48301957091486
 30
0.0
 11
26.94859107814194
 21
60.47952908962741
 31
0.0
  0
LINE
  5
8D
330
62
100
AcDbEntity
  8
0
 62
     0
100
AcDbLine
 10
27.21837024292235
 20
56.4836287902893
 30
0.0
 11
27.01840070389108
 21
56.48013830900184
 31
0.0
  0
LINE
  5
8E
330
62
100
AcDbEntity
  8
0
 62
     0
100
AcDbLine
 10
31.28757064929706
 20
52.55404763541286
 30
0.0
 11
31.08760111026578
 21
52.55055715412541
 31
0.0
  0
LINE
  5
8F
330
62
100
AcDbEntity
  8
0
 62
     0
100
AcDbLine
 10
38.37882707580944
 20
104.6857470350435
 30
0.0
 11
38.17885753677817
 21
104.682256553756
 31
0.0
  0
LINE
  5
90
330
62
100
AcDbEntity
  8
0
 62
     0
100
AcDbLine
 10
34.44924592093302
 20
100.6165466286688
 30
0.0
 11
34.24927638190174
 21
100.6130561473813
 31
0.0
  0
LINE
  5
91
330
62
100
AcDbEntity
  8
0
 62
     0
100
AcDbLine
 10
86.51113569481448
 20
97.52468098278196
 30
0.0
 11
86.31116615578321
 21
97.5211905014945
 31
0.0
  0
LINE
  5
92
330
62
100
AcDbEntity
  8
0
 62
     0
100
AcDbLine
 10
30.58947439180572
 20
92.5479554416685
 30
0.0
 11
30.38950485277444
 21
92.54446496038105
 31
0.0
  0
LINE
  5
93
330
62
100
AcDbEntity
  8
0
 62
     0
100
AcDbLine
 10
30.49674545106856
 20
88.5457275398116
 30
0.0
 11
30.45931447852357
 21
88.54507417975549
 31
0.0
  0
LINE
  5
94
330
62
100
AcDbEntity
  8
0
 62
     0
100
AcDbLine
 10
74.7223922301852
 20
85.31707976365786
 30
0.0
 11
74.52242269115392
 21
85.3135892823704
 31
0.0
  0
LINE
  5
95
330
62
100
AcDbEntity
  8
0
 62
     0
100
AcDbLine
 10
70.79281107530876
 20
81.24787935728315
 30
0.0
 11
70.59284153627749
 21
81.2443888759957
 31
0.0
  0
LINE
  5
96
330
62
100
AcDbEntity
  8
0
 62
     0
100
AcDbLine
 10
26.86932211417669
 20
76.48058269341712
 30
0.0
 11
26.66935257514541
 21
76.47709221212966
 31
0.0
  0
LINE
  5
97
330
62
100
AcDbEntity
  8
0
 62
     0
100
AcDbLine
 10
26.93913173992582
 20
72.48119191279156
 30
0.0
 11
26.73916220089454
 21
72.4777014315041
 31
0.0
  0
LINE
  5
98
330
62
100
AcDbEntity
  8
0
 62
     0
100
AcDbLine
 10
59.00406761067948
 20
69.04027813815905
 30
0.0
 11
58.8040980716482
 21
69.0367876568716
 31
0.0
  0
LINE
  5
99
330
62
100
AcDbEntity
  8
0
 62
     0
100
AcDbLine
 10
55.07448645580305
 20
64.97107773178436
 30
0.0
 11
54.87451691677177
 21
64.9675872504969
 31
0.0
  0
LINE
  5
9A
330
62
100
AcDbEntity
  8
0
 62
     0
100
AcDbLine
 10
51.14490530092662
 20
60.90187732540966
 30
0.0
 11
50.94493576189534
 21
60.89838684412221
 31
0.0
  0
LINE
  5
9B
330
62
100
AcDbEntity
  8
0
 62
     0
100
AcDbLine
 10
31.21776102354792
 20
56.55343841603843
 30
0.0
 11
31.01779148451664
 21
56.54994793475097
 31
0.0
  0
LINE
  5
9C
330
62
100
AcDbEntity
  8
0
 62
     0
100
AcDbLine
 10
43.28574299117376
 20
52.76347651266027
 30
0.0
 11
43.08577345214248
 21
52.75998603137281
 31
0.0
  0
LINE
  5
9D
330
62
100
AcDbEntity
  8
0
 62
     0
100
AcDbLine
 10
43.56498149417029
 20
36.76591339015801
 30
0.0
 11
43.36501195513901
 21
36.76242290887055
 31
0.0
  0
LINE
  5
9E
330
62
100
AcDbEntity
  8
0
 62
     0
100
AcDbLine
 10
39.49578108779559
 20
40.69549454503444
 30
0.0
 11
39.29581154876431
 21
40.69200406374699
 31
0.0
  0
LINE
  5
9F
330
62
100
AcDbEntity
  8
0
 62
     0
100
AcDbLine
 10
35.42658068142089
 20
44.62507569991087
 30
0.0
 11
35.22661114238961
 21
44.62158521862342
 31
0.0
  0
LINE
  5
A0
330
62
100
AcDbEntity
  8
0
 62
     0
100
AcDbLine
 10
31.35738027504619
 20
48.5546568547873
 30
0.0
 11
31.15741073601491
 21
48.55116637349985
 31
0.0
  0
LINE
  5
A1
330
62
100
AcDbEntity
  8
0
 62
     0
100
AcDbLine
 10
47.28513377179932
 20
52.83328613840941
 30
0.0
 11
47.08516423276804
 21
52.82979565712195
 31
0.0
  0
LINE
  5
A2
330
62
100
AcDbEntity
  8
0
 62
     0
100
AcDbLine
 10
47.21532414605019
 20
56.83267691903497
 30
0.0
 11
47.01535460701891
 21
56.82918643774752
 31
0.0
  0
LINE
  5
A3
330
62
100
AcDbEntity
  8
0
 62
     0
100
AcDbLine
 10
55.14429608155218
 20
60.9716869511588
 30
0.0
 11
54.9443265425209
 21
60.96819646987134
 31
0.0
  0
LINE
  5
A4
330
62
100
AcDbEntity
  8
0
 62
     0
100
AcDbLine
 10
59.07387723642861
 20
65.0408873575335
 30
0.0
 11
58.87390769739733
 21
65.03739687624605
 31
0.0
  0
LINE
  5
A5
330
62
100
AcDbEntity
  8
0
 62
     0
100
AcDbLine
 10
63.00345839130505
 20
69.11008776390818
 30
0.0
 11
62.80348885227377
 21
69.10659728262073
 31
0.0
  0
LINE
  5
A6
330
62
100
AcDbEntity
  8
0
 62
     0
100
AcDbLine
 10
62.93364876555592
 20
73.10947854453376
 30
0.0
 11
62.73367922652463
 21
73.1059880632463
 31
0.0
  0
LINE
  5
A7
330
62
100
AcDbEntity
  8
0
 62
     0
100
AcDbLine
 10
66.86322992043235
 20
77.17867895090846
 30
0.0
 11
66.66326038140106
 21
77.175188469621
 31
0.0
  0
LINE
  5
A8
330
62
100
AcDbEntity
  8
0
 62
     0
100
AcDbLine
 10
74.79220185593434
 20
81.31768898303228
 30
0.0
 11
74.59223231690305
 21
81.31419850174483
 31
0.0
  0
LINE
  5
A9
330
62
100
AcDbEntity
  8
0
 62
     0
100
AcDbLine
 10
78.72178301081077
 20
85.386889389407
 30
0.0
 11
78.52181347177948
 21
85.38339890811955
 31
0.0
  0
LINE
  5
AA
330
62
100
AcDbEntity
  8
0
 62
     0
100
AcDbLine
 10
78.65197338506164
 20
89.38628017003256
 30
0.0
 11
78.45200384603035
 21
89.3827896887451
 31
0.0
  0
LINE
  5
AB
330
62
100
AcDbEntity
  8
0
 62
     0
100
AcDbLine
 10
82.58155453993807
 20
93.45548057640725
 30
0.0
 11
82.3815850009068
 21
93.4519900951198
 31
0.0
  0
LINE
  5
AC
330
62
100
AcDbEntity
  8
0
 62
     0
100
AcDbLine
 10
90.51052647544006
 20
97.59449060853109
 30
0.0
 11
90.31055693640877
 21
97.59100012724363
 31
0.0
  0
LINE
  5
AD
330
62
100
AcDbEntity
  8
0
 62
     0
100
AcDbLine
 10
90.44071684969093
 20
101.5938813891566
 30
0.0
 11
90.24074731065964
 21
101.5903909078692
 31
0.0
  0
LINE
  5
AE
330
62
100
AcDbEntity
  8
0
 62
     0
100
AcDbLine
 10
63.77136427454553
 20
25.11678917702699
 30
0.0
 11
63.57139473551424
 21
25.11329869573953
 31
0.0
  0
LINE
  5
AF
330
62
100
AcDbEntity
  8
0
 62
     0
100
AcDbLine
 10
67.77075505517108
 20
25.18659880277612
 30
0.0
 11
67.5707855161398
 21
25.18310832148867
 31
0.0
  0
LINE
  5
B0
330
62
100
AcDbEntity
  8
0
 62
     0
100
AcDbLine
 10
71.77014583579664
 20
25.25640842852526
 30
0.0
 11
71.57017629676537
 21
25.2529179472378
 31
0.0
  0
LINE
  5
B1
330
62
100
AcDbEntity
  8
0
 62
     0
100
AcDbLine
 10
75.76953661642222
 20
25.32621805427439
 30
0.0
 11
75.56956707739093
 21
25.32272757298693
 31
0.0
  0
LINE
  5
B2
330
62
100
AcDbEntity
  8
0
 62
     0
100
AcDbLine
 10
79.76892739704778
 20
25.39602768002353
 30
0.0
 11
79.56895785801649
 21
25.39253719873607
 31
0.0
  0
LINE
  5
B3
330
62
100
AcDbEntity
  8
0
 62
     0
100
AcDbLine
 10
83.76831817767334
 20
25.46583730577266
 30
0.0
 11
83.56834863864206
 21
25.4623468244852
 31
0.0
  0
LINE
  5
B4
330
62
100
AcDbEntity
  8
0
 62
     0
100
AcDbLine
 10
51.70338230691969
 20
28.90675108040515
 30
0.0
 11
51.50341276788841
 21
28.9032605991177
 31
0.0
  0
LINE
  5
B5
330
62
100
AcDbEntity
  8
0
 62
     0
100
AcDbLine
 10
55.70277308754525
 20
28.97656070615429
 30
0.0
 11
55.50280354851397
 21
28.97307022486683
 31
0.0
  0
LINE
  5
B6
330
62
100
AcDbEntity
  8
0
 62
     0
100
AcDbLine
 10
59.70216386817082
 20
29.04637033190342
 30
0.0
 11
59.50219432913953
 21
29.04287985061596
 31
0.0
  0
LINE
  5
B7
330
62
100
AcDbEntity
  8
0
 62
     0
100
AcDbLine
 10
63.70155464879639
 20
29.11617995765256
 30
0.0
 11
63.5015851097651
 21
29.1126894763651
 31
0.0
  0
LINE
  5
B8
330
62
100
AcDbEntity
  8
0
 62
     0
100
AcDbLine
 10
67.70094542942195
 20
29.18598958340169
 30
0.0
 11
67.50097589039066
 21
29.18249910211423
 31
0.0
  0
LINE
  5
B9
330
62
100
AcDbEntity
  8
0
 62
     0
100
AcDbLine
 10
71.70033621004751
 20
29.25579920915082
 30
0.0
 11
71.50036667101624
 21
29.25230872786337
 31
0.0
  0
LINE
  5
BA
330
62
100
AcDbEntity
  8
0
 62
     0
100
AcDbLine
 10
75.69972699067308
 20
29.32560883489996
 30
0.0
 11
75.4997574516418
 21
29.3221183536125
 31
0.0
  0
LINE
  5
BB
330
62
100
AcDbEntity
  8
0
 62
     0
100
AcDbLine
 10
79.69911777129865
 20
29.39541846064909
 30
0.0
 11
79.49914823226736
 21
29.39192797936163
 31
0.0
  0
LINE
  5
BC
330
62
100
AcDbEntity
  8
0
 62
     0
100
AcDbLine
 10
83.6985085519242
 20
29.46522808639822
 30
0.0
 11
83.49853901289293
 21
29.46173760511077
 31
0.0
  0
LINE
  5
BD
330
62
100
AcDbEntity
  8
0
 62
     0
100
AcDbLine
 10
87.69789933254977
 20
29.53503771214736
 30
0.0
 11
87.4979297935185
 21
29.5315472308599
 31
0.0
  0
LINE
  5
BE
330
62
100
AcDbEntity
  8
0
 62
     0
100
AcDbLine
 10
91.69729011317534
 20
29.60484733789649
 30
0.0
 11
91.49732057414406
 21
29.60135685660904
 31
0.0
  0
LINE
  5
BF
330
62
100
AcDbEntity
  8
0
 62
     0
100
AcDbLine
 10
47.63418190054499
 20
32.83633223528158
 30
0.0
 11
47.43421236151372
 21
32.83284175399412
 31
0.0
  0
LINE
  5
C0
330
62
100
AcDbEntity
  8
0
 62
     0
100
AcDbLine
 10
51.63357268117056
 20
32.90614186103072
 30
0.0
 11
51.43360314213928
 21
32.90265137974326
 31
0.0
  0
LINE
  5
C1
330
62
100
AcDbEntity
  8
0
 62
     0
100
AcDbLine
 10
55.63296346179612
 20
32.97595148677985
 30
0.0
 11
55.43299392276484
 21
32.97246100549239
 31
0.0
  0
LINE
  5
C2
330
62
100
AcDbEntity
  8
0
 62
     0
100
AcDbLine
 10
59.63235424242169
 20
33.04576111252899
 30
0.0
 11
59.4323847033904
 21
33.04227063124153
 31
0.0
  0
LINE
  5
C3
330
62
100
AcDbEntity
  8
0
 62
     0
100
AcDbLine
 10
63.63174502304726
 20
33.11557073827812
 30
0.0
 11
63.43177548401597
 21
33.11208025699066
 31
0.0
  0
LINE
  5
C4
330
62
100
AcDbEntity
  8
0
 62
     0
100
AcDbLine
 10
67.63113580367282
 20
33.18538036402725
 30
0.0
 11
67.43116626464153
 21
33.1818898827398
 31
0.0
  0
LINE
  5
C5
330
62
100
AcDbEntity
  8
0
 62
     0
100
AcDbLine
 10
71.63052658429838
 20
33.25518998977638
 30
0.0
 11
71.43055704526711
 21
33.25169950848893
 31
0.0
  0
LINE
  5
C6
330
62
100
AcDbEntity
  8
0
 62
     0
100
AcDbLine
 10
75.62991736492395
 20
33.32499961552552
 30
0.0
 11
75.42994782589267
 21
33.32150913423806
 31
0.0
  0
LINE
  5
C7
330
62
100
AcDbEntity
  8
0
 62
     0
100
AcDbLine
 10
79.62930814554952
 20
33.39480924127466
 30
0.0
 11
79.42933860651823
 21
33.3913187599872
 31
0.0
  0
LINE
  5
C8
330
62
100
AcDbEntity
  8
0
 62
     0
100
AcDbLine
 10
83.62869892617508
 20
33.46461886702379
 30
0.0
 11
83.4287293871438
 21
33.46112838573633
 31
0.0
  0
LINE
  5
C9
330
62
100
AcDbEntity
  8
0
 62
     0
100
AcDbLine
 10
87.62808970680064
 20
33.53442849277292
 30
0.0
 11
87.42812016776936
 21
33.53093801148547
 31
0.0
  0
LINE
  5
CA
330
62
100
AcDbEntity
  8
0
 62
     0
100
AcDbLine
 10
91.62748048742621
 20
33.60423811852205
 30
0.0
 11
91.42751094839493
 21
33.6007476372346
 31
0.0
  0
LINE
  5
CB
330
62
100
AcDbEntity
  8
0
 62
     0
100
AcDbLine
 10
95.62687126805177
 20
33.67404774427119
 30
0.0
 11
95.4269017290205
 21
33.67055726298373
 31
0.0
  0
LINE
  5
CC
330
62
100
AcDbEntity
  8
0
 62
     0
100
AcDbLine
 10
99.62626204867733
 20
33.74385737002032
 30
0.0
 11
99.42629250964606
 21
33.74036688873286
 31
0.0
  0
LINE
  5
CD
330
62
100
AcDbEntity
  8
0
 62
     0
100
AcDbLine
 10
47.56437227479586
 20
36.83572301590715
 30
0.0
 11
47.36440273576458
 21
36.83223253461969
 31
0.0
  0
LINE
  5
CE
330
62
100
AcDbEntity
  8
0
 62
     0
100
AcDbLine
 10
51.56376305542142
 20
36.90553264165628
 30
0.0
 11
51.36379351639014
 21
36.90204216036882
 31
0.0
  0
LINE
  5
CF
330
62
100
AcDbEntity
  8
0
 62
     0
100
AcDbLine
 10
87.55828008105149
 20
37.53381927339849
 30
0.0
 11
87.35831054202022
 21
37.53032879211103
 31
0.0
  0
LINE
  5
D0
330
62
100
AcDbEntity
  8
0
 62
     0
100
AcDbLine
 10
91.55767086167707
 20
37.60362889914762
 30
0.0
 11
91.35770132264578
 21
37.60013841786017
 31
0.0
  0
LINE
  5
D1
330
62
100
AcDbEntity
  8
0
 62
     0
100
AcDbLine
 10
95.55706164230263
 20
37.67343852489675
 30
0.0
 11
95.35709210327136
 21
37.6699480436093
 31
0.0
  0
LINE
  5
D2
330
62
100
AcDbEntity
  8
0
 62
     0
100
AcDbLine
 10
99.55645242292819
 20
37.74324815064589
 30
0.0
 11
99.35648288389692
 21
37.73975766935843
 31
0.0
  0
LINE
  5
D3
330
62
100
AcDbEntity
  8
0
 62
     0
100
AcDbLine
 10
103.5558432035538
 20
37.81305777639502
 30
0.0
 11
103.3558736645225
 21
37.80956729510757
 31
0.0
  0
LINE
  5
D4
330
62
100
AcDbEntity
  8
0
 62
     0
100
AcDbLine
 10
43.49517186842115
 20
40.76530417078357
 30
0.0
 11
43.29520232938987
 21
40.76181368949612
 31
0.0
  0
LINE
  5
D5
330
62
100
AcDbEntity
  8
0
 62
     0
100
AcDbLine
 10
95.4872520165535
 20
41.67282930552231
 30
0.0
 11
95.28728247752223
 21
41.66933882423486
 31
0.0
  0
LINE
  5
D6
330
62
100
AcDbEntity
  8
0
 62
     0
100
AcDbLine
 10
99.48664279717906
 20
41.74263893127145
 30
0.0
 11
99.28667325814779
 21
41.73914844998399
 31
0.0
  0
LINE
  5
D7
330
62
100
AcDbEntity
  8
0
 62
     0
100
AcDbLine
 10
103.4860335778046
 20
41.81244855702058
 30
0.0
 11
103.2860640387733
 21
41.80895807573313
 31
0.0
  0
LINE
  5
D8
330
62
100
AcDbEntity
  8
0
 62
     0
100
AcDbLine
 10
107.4854243584302
 20
41.88225818276972
 30
0.0
 11
107.2854548193989
 21
41.87876770148226
 31
0.0
  0
LINE
  5
D9
330
62
100
AcDbEntity
  8
0
 62
     0
100
AcDbLine
 10
39.42597146204645
 20
44.69488532566001
 30
0.0
 11
39.22600192301518
 21
44.69139484437255
 31
0.0
  0
LINE
  5
DA
330
62
100
AcDbEntity
  8
0
 62
     0
100
AcDbLine
 10
43.42536224267202
 20
44.76469495140914
 30
0.0
 11
43.22539270364074
 21
44.76120447012168
 31
0.0
  0
LINE
  5
DB
330
62
100
AcDbEntity
  8
0
 62
     0
100
AcDbLine
 10
99.41683317142993
 20
45.74202971189702
 30
0.0
 11
99.21686363239866
 21
45.73853923060956
 31
0.0
  0
LINE
  5
DC
330
62
100
AcDbEntity
  8
0
 62
     0
100
AcDbLine
 10
103.4162239520555
 20
45.81183933764615
 30
0.0
 11
103.2162544130242
 21
45.8083488563587
 31
0.0
  0
LINE
  5
DD
330
62
100
AcDbEntity
  8
0
 62
     0
100
AcDbLine
 10
107.4156147326811
 20
45.88164896339529
 30
0.0
 11
107.2156451936498
 21
45.87815848210783
 31
0.0
  0
LINE
  5
DE
330
62
100
AcDbEntity
  8
0
 62
     0
100
AcDbLine
 10
111.4150055133066
 20
45.95145858914442
 30
0.0
 11
111.2150359742754
 21
45.94796810785697
 31
0.0
  0
LINE
  5
DF
330
62
100
AcDbEntity
  8
0
 62
     0
100
AcDbLine
 10
35.35677105567176
 20
48.62446648053644
 30
0.0
 11
35.15680151664048
 21
48.62097599924898
 31
0.0
  0
LINE
  5
E0
330
62
100
AcDbEntity
  8
0
 62
     0
100
AcDbLine
 10
39.35616183629732
 20
48.69427610628558
 30
0.0
 11
39.15619229726604
 21
48.69078562499812
 31
0.0
  0
LINE
  5
E1
330
62
100
AcDbEntity
  8
0
 62
     0
100
AcDbLine
 10
43.35555261692289
 20
48.76408573203471
 30
0.0
 11
43.15558307789161
 21
48.76059525074725
 31
0.0
  0
LINE
  5
E2
330
62
100
AcDbEntity
  8
0
 62
     0
100
AcDbLine
 10
47.35494339754845
 20
48.83389535778385
 30
0.0
 11
47.15497385851717
 21
48.83040487649639
 31
0.0
  0
LINE
  5
E3
330
62
100
AcDbEntity
  8
0
 62
     0
100
AcDbLine
 10
103.3464143263064
 20
49.81123011827172
 30
0.0
 11
103.1464447872751
 21
49.80773963698427
 31
0.0
  0
LINE
  5
E4
330
62
100
AcDbEntity
  8
0
 62
     0
100
AcDbLine
 10
107.3458051069319
 20
49.88103974402085
 30
0.0
 11
107.1458355679006
 21
49.8775492627334
 31
0.0
  0
LINE
  5
E5
330
62
100
AcDbEntity
  8
0
 62
     0
100
AcDbLine
 10
111.3451958875575
 20
49.95084936976999
 30
0.0
 11
111.1452263485262
 21
49.94735888848253
 31
0.0
  0
LINE
  5
E6
330
62
100
AcDbEntity
  8
0
 62
     0
100
AcDbLine
 10
115.3445866681831
 20
50.02065899551912
 30
0.0
 11
115.1446171291518
 21
50.01716851423166
 31
0.0
  0
LINE
  5
E7
330
62
100
AcDbEntity
  8
0
 62
     0
100
AcDbLine
 10
51.28452455242488
 20
52.90309576415854
 30
0.0
 11
51.0845550133936
 21
52.89960528287108
 31
0.0
  0
LINE
  5
E8
330
62
100
AcDbEntity
  8
0
 62
     0
100
AcDbLine
 10
107.2759954811828
 20
53.88043052464641
 30
0.0
 11
107.0760259421515
 21
53.87694004335896
 31
0.0
  0
LINE
  5
E9
330
62
100
AcDbEntity
  8
0
 62
     0
100
AcDbLine
 10
111.2753862618084
 20
53.95024015039555
 30
0.0
 11
111.0754167227771
 21
53.94674966910809
 31
0.0
  0
LINE
  5
EA
330
62
100
AcDbEntity
  8
0
 62
     0
100
AcDbLine
 10
115.2747770424339
 20
54.02004977614468
 30
0.0
 11
115.0748075034026
 21
54.01655929485722
 31
0.0
  0
LINE
  5
EB
330
62
100
AcDbEntity
  8
0
 62
     0
100
AcDbLine
 10
51.21471492667575
 20
56.9024865447841
 30
0.0
 11
51.01474538764447
 21
56.89899606349665
 31
0.0
  0
LINE
  5
EC
330
62
100
AcDbEntity
  8
0
 62
     0
100
AcDbLine
 10
55.21410570730131
 20
56.97229617053324
 30
0.0
 11
55.01413616827003
 21
56.96880568924578
 31
0.0
  0
LINE
  5
ED
330
62
100
AcDbEntity
  8
0
 62
     0
100
AcDbLine
 10
107.2061858554337
 20
57.87982130527198
 30
0.0
 11
107.0062163164024
 21
57.87633082398452
 31
0.0
  0
LINE
  5
EE
330
62
100
AcDbEntity
  8
0
 62
     0
100
AcDbLine
 10
111.2055766360592
 20
57.94963093102112
 30
0.0
 11
111.0056070970279
 21
57.94614044973366
 31
0.0
  0
LINE
  5
EF
330
62
100
AcDbEntity
  8
0
 62
     0
100
AcDbLine
 10
115.2049674166848
 20
58.01944055677025
 30
0.0
 11
115.0049978776535
 21
58.01595007548279
 31
0.0
  0
LINE
  5
F0
330
62
100
AcDbEntity
  8
0
 62
     0
100
AcDbLine
 10
119.1590104859061
 20
58.08845863527247
 30
0.0
 11
119.0043886582791
 21
58.08575970123193
 31
0.0
  0
LINE
  5
F1
330
62
100
AcDbEntity
  8
0
 62
     0
100
AcDbLine
 10
59.14368686217775
 20
61.04149657690793
 30
0.0
 11
58.94371732314647
 21
61.03800609562047
 31
0.0
  0
LINE
  5
F2
330
62
100
AcDbEntity
  8
0
 62
     0
100
AcDbLine
 10
111.1357670103101
 20
61.94902171164668
 30
0.0
 11
110.9357974712788
 21
61.94553123035922
 31
0.0
  0
LINE
  5
F3
330
62
100
AcDbEntity
  8
0
 62
     0
100
AcDbLine
 10
115.1351577909357
 20
62.01883133739581
 30
0.0
 11
114.9351882519044
 21
62.01534085610835
 31
0.0
  0
LINE
  5
F4
330
62
100
AcDbEntity
  8
0
 62
     0
100
AcDbLine
 10
119.1345485715612
 20
62.08864096314495
 30
0.0
 11
118.9345790325299
 21
62.08515048185749
 31
0.0
  0
LINE
  5
F5
330
62
100
AcDbEntity
  8
0
 62
     0
100
AcDbLine
 10
63.07326801705418
 20
65.11069698328264
 30
0.0
 11
62.8732984780229
 21
65.10720650199518
 31
0.0
  0
LINE
  5
F6
330
62
100
AcDbEntity
  8
0
 62
     0
100
AcDbLine
 10
111.065957384561
 20
65.94841249227224
 30
0.0
 11
110.8659878455297
 21
65.94492201098478
 31
0.0
  0
LINE
  5
F7
330
62
100
AcDbEntity
  8
0
 62
     0
100
AcDbLine
 10
115.0653481651865
 20
66.01822211802138
 30
0.0
 11
114.8653786261552
 21
66.01473163673393
 31
0.0
  0
LINE
  5
F8
330
62
100
AcDbEntity
  8
0
 62
     0
100
AcDbLine
 10
119.0647389458121
 20
66.08803174377051
 30
0.0
 11
118.8647694067808
 21
66.08454126248306
 31
0.0
  0
LINE
  5
F9
330
62
100
AcDbEntity
  8
0
 62
     0
100
AcDbLine
 10
67.0028491719306
 20
69.17989738965733
 30
0.0
 11
66.80287963289932
 21
69.17640690836987
 31
0.0
  0
LINE
  5
FA
330
62
100
AcDbEntity
  8
0
 62
     0
100
AcDbLine
 10
110.9961477588118
 20
69.9478032728978
 30
0.0
 11
110.7961782197805
 21
69.94431279161034
 31
0.0
  0
LINE
  5
FB
330
62
100
AcDbEntity
  8
0
 62
     0
100
AcDbLine
 10
114.9955385394374
 20
70.01761289864693
 30
0.0
 11
114.7955690004061
 21
70.01412241735947
 31
0.0
  0
LINE
  5
FC
330
62
100
AcDbEntity
  8
0
 62
     0
100
AcDbLine
 10
118.994929320063
 20
70.08742252439606
 30
0.0
 11
118.7949597810317
 21
70.0839320431086
 31
0.0
  0
LINE
  5
FD
330
62
100
AcDbEntity
  8
0
 62
     0
100
AcDbLine
 10
66.93303954618148
 20
73.1792881702829
 30
0.0
 11
66.73307000715019
 21
73.17579768899544
 31
0.0
  0
LINE
  5
FE
330
62
100
AcDbEntity
  8
0
 62
     0
100
AcDbLine
 10
70.93243032680704
 20
73.24909779603203
 30
0.0
 11
70.73246078777576
 21
73.24560731474457
 31
0.0
  0
LINE
  5
FF
330
62
100
AcDbEntity
  8
0
 62
     0
100
AcDbLine
 10
114.9257289136883
 20
74.0170036792725
 30
0.0
 11
114.725759374657
 21
74.01351319798505
 31
0.0
  0
LINE
  5
100
330
62
100
AcDbEntity
  8
0
 62
     0
100
AcDbLine
 10
118.9251196943138
 20
74.08681330502164
 30
0.0
 11
118.7251501552825
 21
74.08332282373418
 31
0.0
  0
LINE
  5
101
330
62
100
AcDbEntity
  8
0
 62
     0
100
AcDbLine
 10
70.8626207010579
 20
77.24848857665759
 30
0.0
 11
70.66265116202663
 21
77.24499809537014
 31
0.0
  0
LINE
  5
102
330
62
100
AcDbEntity
  8
0
 62
     0
100
AcDbLine
 10
74.86201148168348
 20
77.31829820240672
 30
0.0
 11
74.6620419426522
 21
77.31480772111927
 31
0.0
  0
LINE
  5
103
330
62
100
AcDbEntity
  8
0
 62
     0
100
AcDbLine
 10
114.8559192879391
 20
78.01639445989807
 30
0.0
 11
114.6559497489078
 21
78.01290397861061
 31
0.0
  0
LINE
  5
104
330
62
100
AcDbEntity
  8
0
 62
     0
100
AcDbLine
 10
118.8553100685647
 20
78.0862040856472
 30
0.0
 11
118.6553405295334
 21
78.08271360435974
 31
0.0
  0
LINE
  5
105
330
62
100
AcDbEntity
  8
0
 62
     0
100
AcDbLine
 10
78.7915926365599
 20
81.38749860878143
 30
0.0
 11
78.59162309752861
 21
81.38400812749397
 31
0.0
  0
LINE
  5
106
330
62
100
AcDbEntity
  8
0
 62
     0
100
AcDbLine
 10
110.7867188815644
 20
81.9459756147745
 30
0.0
 11
110.6424015235992
 21
81.94345654592094
 31
0.0
  0
LINE
  5
107
330
62
100
AcDbEntity
  8
0
 62
     0
100
AcDbLine
 10
114.78610966219
 20
82.01578524052363
 30
0.0
 11
114.5861401231587
 21
82.01229475923617
 31
0.0
  0
LINE
  5
108
330
62
100
AcDbEntity
  8
0
 62
     0
100
AcDbLine
 10
118.7855004428155
 20
82.08559486627276
 30
0.0
 11
118.5855309037843
 21
82.0821043849853
 31
0.0
  0
LINE
  5
109
330
62
100
AcDbEntity
  8
0
 62
     0
100
AcDbLine
 10
82.72117379143633
 20
85.45669901515613
 30
0.0
 11
82.52120425240506
 21
85.45320853386868
 31
0.0
  0
LINE
  5
10A
330
62
100
AcDbEntity
  8
0
 62
     0
100
AcDbLine
 10
110.7169092558153
 20
85.94536639540007
 30
0.0
 11
110.516939716784
 21
85.94187591411261
 31
0.0
  0
LINE
  5
10B
330
62
100
AcDbEntity
  8
0
 62
     0
100
AcDbLine
 10
114.7163000364409
 20
86.0151760211492
 30
0.0
 11
114.5163304974096
 21
86.01168553986174
 31
0.0
  0
LINE
  5
10C
330
62
100
AcDbEntity
  8
0
 62
     0
100
AcDbLine
 10
118.7156908170664
 20
86.08498564689833
 30
0.0
 11
118.5157212780351
 21
86.08149516561087
 31
0.0
  0
LINE
  5
10D
330
62
100
AcDbEntity
  8
0
 62
     0
100
AcDbLine
 10
82.6513641656872
 20
89.4560897957817
 30
0.0
 11
82.45139462665593
 21
89.45259931449424
 31
0.0
  0
LINE
  5
10E
330
62
100
AcDbEntity
  8
0
 62
     0
100
AcDbLine
 10
86.65075494631276
 20
89.52589942153082
 30
0.0
 11
86.45078540728149
 21
89.52240894024337
 31
0.0
  0
LINE
  5
10F
330
62
100
AcDbEntity
  8
0
 62
     0
100
AcDbLine
 10
110.6470996300662
 20
89.94475717602563
 30
0.0
 11
110.4471300910349
 21
89.94126669473818
 31
0.0
  0
LINE
  5
110
330
62
100
AcDbEntity
  8
0
 62
     0
100
AcDbLine
 10
114.6464904106917
 20
90.01456680177476
 30
0.0
 11
114.4465208716604
 21
90.0110763204873
 31
0.0
  0
LINE
  5
111
330
62
100
AcDbEntity
  8
0
 62
     0
100
AcDbLine
 10
118.6458811913173
 20
90.08437642752389
 30
0.0
 11
118.445911652286
 21
90.08088594623644
 31
0.0
  0
LINE
  5
112
330
62
100
AcDbEntity
  8
0
 62
     0
100
AcDbLine
 10
86.58094532056363
 20
93.52529020215638
 30
0.0
 11
86.38097578153236
 21
93.52179972086893
 31
0.0
  0
LINE
  5
113
330
62
100
AcDbEntity
  8
0
 62
     0
100
AcDbLine
 10
90.5803361011892
 20
93.59509982790551
 30
0.0
 11
90.38036656215792
 21
93.59160934661806
 31
0.0
  0
LINE
  5
114
330
62
100
AcDbEntity
  8
0
 62
     0
100
AcDbLine
 10
110.577290004317
 20
93.9441479566512
 30
0.0
 11
110.3773204652857
 21
93.94065747536374
 31
0.0
  0
LINE
  5
115
330
62
100
AcDbEntity
  8
0
 62
     0
100
AcDbLine
 10
114.5766807849426
 20
94.01395758240032
 30
0.0
 11
114.3767112459113
 21
94.01046710111287
 31
0.0
  0
LINE
  5
116
330
62
100
AcDbEntity
  8
0
 62
     0
100
AcDbLine
 10
94.50991725606562
 20
97.66430023428023
 30
0.0
 11
94.30994771703435
 21
97.66080975299278
 31
0.0
  0
LINE
  5
117
330
62
100
AcDbEntity
  8
0
 62
     0
100
AcDbLine
 10
106.5080895979423
 20
97.87372911152764
 30
0.0
 11
106.308120058911
 21
97.87023863024018
 31
0.0
  0
LINE
  5
118
330
62
100
AcDbEntity
  8
0
 62
     0
100
AcDbLine
 10
110.5074803785679
 20
97.94353873727677
 30
0.0
 11
110.3075108395366
 21
97.94004825598931
 31
0.0
  0
LINE
  5
119
330
62
100
AcDbEntity
  8
0
 62
     0
100
AcDbLine
 10
114.5068711591935
 20
98.0133483630259
 30
0.0
 11
114.3069016201622
 21
98.00985788173844
 31
0.0
  0
LINE
  5
11A
330
62
100
AcDbEntity
  8
0
 62
     0
100
AcDbLine
 10
94.44010763031649
 20
101.6636910149058
 30
0.0
 11
94.24013809128522
 21
101.6602005336183
 31
0.0
  0
LINE
  5
11B
330
62
100
AcDbEntity
  8
0
 62
     0
100
AcDbLine
 10
98.43949841094205
 20
101.7335006406549
 30
0.0
 11
98.23952887191078
 21
101.7300101593675
 31
0.0
  0
LINE
  5
11C
330
62
100
AcDbEntity
  8
0
 62
     0
100
AcDbLine
 10
102.4388891915676
 20
101.8033102664041
 30
0.0
 11
102.3956745715016
 21
101.802555952405
 31
0.0
  0
LINE
  5
11D
330
62
100
AcDbEntity
  8
0
 62
     0
100
AcDbLine
 10
106.4382799721932
 20
101.8731198921532
 30
0.0
 11
106.2383104331619
 21
101.8696294108657
 31
0.0
  0
LINE
  5
11E
330
62
100
AcDbEntity
  8
0
 62
     0
100
AcDbLine
 10
110.4376707528187
 20
101.9429295179023
 30
0.0
 11
110.2377012137875
 21
101.9394390366149
 31
0.0
  0
LINE
  5
11F
330
62
100
AcDbEntity
  8
0
 62
     0
100
AcDbLine
 10
94.37029800456736
 20
105.6630817955314
 30
0.0
 11
94.17032846553609
 21
105.6595913142439
 31
0.0
  0
LINE
  5
120
330
62
100
AcDbEntity
  8
0
 62
     0
100
AcDbLine
 10
98.36968878519292
 20
105.7328914212805
 30
0.0
 11
98.16971924616165
 21
105.729400939993
 31
0.0
  0
LINE
  5
121
330
62
100
AcDbEntity
  8
0
 62
     0
100
AcDbLine
 10
102.3690795658185
 20
105.8027010470296
 30
0.0
 11
102.1691100267872
 21
105.7992105657422
 31
0.0
  0
LINE
  5
122
330
62
100
AcDbEntity
  8
0
 62
     0
100
AcDbLine
 10
106.3684703464441
 20
105.8725106727788
 30
0.0
 11
106.1685008074128
 21
105.8690201914913
 31
0.0
  0
LINE
  5
123
330
62
100
AcDbEntity
  8
0
 62
     0
100
AcDbLine
 10
110.3678611270696
 20
105.9423202985279
 30
0.0
 11
110.1678915880383
 21
105.9388298172404
 31
0.0
  0
LINE
  5
124
330
62
100
AcDbEntity
  8
0
 62
     0
100
AcDbLine
 10
42.30840823068588
 20
108.7549474414182
 30
0.0
 11
42.1084386916546
 21
108.7514569601307
 31
0.0
  0
LINE
  5
125
330
62
100
AcDbEntity
  8
0
 62
     0
100
AcDbLine
 10
94.30048837881822
 20
109.6624725761569
 30
0.0
 11
94.10051883978694
 21
109.6589820948695
 31
0.0
  0
LINE
  5
126
330
62
100
AcDbEntity
  8
0
 62
     0
100
AcDbLine
 10
98.29987915944378
 20
109.732282201906
 30
0.0
 11
98.0999096204125
 21
109.7287917206186
 31
0.0
  0
LINE
  5
127
330
62
100
AcDbEntity
  8
0
 62
     0
100
AcDbLine
 10
102.2992699400694
 20
109.8020918276552
 30
0.0
 11
102.0993004010381
 21
109.7986013463677
 31
0.0
  0
LINE
  5
128
330
62
100
AcDbEntity
  8
0
 62
     0
100
AcDbLine
 10
106.2986607206949
 20
109.8719014534043
 30
0.0
 11
106.0986911816636
 21
109.8684109721169
 31
0.0
  0
LINE
  5
129
330
62
100
AcDbEntity
  8
0
 62
     0
100
AcDbLine
 10
46.23798938556231
 20
112.8241478477929
 30
0.0
 11
46.03801984653103
 21
112.8206573665054
 31
0.0
  0
LINE
  5
12A
330
62
100
AcDbEntity
  8
0
 62
     0
100
AcDbLine
 10
50.23738016618787
 20
112.893957473542
 30
0.0
 11
50.03741062715659
 21
112.8904669922546
 31
0.0
  0
LINE
  5
12B
330
62
100
AcDbEntity
  8
0
 62
     0
100
AcDbLine
 10
90.23128797244352
 20
113.5920537310333
 30
0.0
 11
90.03131843341224
 21
113.5885632497459
 31
0.0
  0
LINE
  5
12C
330
62
100
AcDbEntity
  8
0
 62
     0
100
AcDbLine
 10
94.23067875306909
 20
113.6618633567825
 30
0.0
 11
94.03070921403781
 21
113.658372875495
 31
0.0
  0
LINE
  5
12D
330
62
100
AcDbEntity
  8
0
 62
     0
100
AcDbLine
 10
98.23006953369465
 20
113.7316729825316
 30
0.0
 11
98.03009999466337
 21
113.7281825012442
 31
0.0
  0
LINE
  5
12E
330
62
100
AcDbEntity
  8
0
 62
     0
100
AcDbLine
 10
102.2294603143202
 20
113.8014826082808
 30
0.0
 11
102.0294907752889
 21
113.7979921269933
 31
0.0
  0
LINE
  5
12F
330
62
100
AcDbEntity
  8
0
 62
     0
100
AcDbLine
 10
46.16817975981318
 20
116.8235386284184
 30
0.0
 11
45.9682102207819
 21
116.820048147131
 31
0.0
  0
LINE
  5
130
330
62
100
AcDbEntity
  8
0
 62
     0
100
AcDbLine
 10
50.16757054043874
 20
116.8933482541676
 30
0.0
 11
49.96760100140746
 21
116.8898577728801
 31
0.0
  0
LINE
  5
131
330
62
100
AcDbEntity
  8
0
 62
     0
100
AcDbLine
 10
54.16696132106431
 20
116.9631578799167
 30
0.0
 11
53.96699178203303
 21
116.9596673986293
 31
0.0
  0
LINE
  5
132
330
62
100
AcDbEntity
  8
0
 62
     0
100
AcDbLine
 10
58.16635210168987
 20
117.0329675056658
 30
0.0
 11
57.96638256265859
 21
117.0294770243784
 31
0.0
  0
LINE
  5
133
330
62
100
AcDbEntity
  8
0
 62
     0
100
AcDbLine
 10
62.16574288231544
 20
117.102777131415
 30
0.0
 11
61.96577334328416
 21
117.0992866501275
 31
0.0
  0
LINE
  5
134
330
62
100
AcDbEntity
  8
0
 62
     0
100
AcDbLine
 10
66.165133662941
 20
117.1725867571641
 30
0.0
 11
65.96516412390972
 21
117.1690962758767
 31
0.0
  0
LINE
  5
135
330
62
100
AcDbEntity
  8
0
 62
     0
100
AcDbLine
 10
70.16452444356656
 20
117.2423963829132
 30
0.0
 11
69.96455490453529
 21
117.2389059016258
 31
0.0
  0
LINE
  5
136
330
62
100
AcDbEntity
  8
0
 62
     0
100
AcDbLine
 10
74.16391522419214
 20
117.3122060086624
 30
0.0
 11
73.96394568516085
 21
117.3087155273749
 31
0.0
  0
LINE
  5
137
330
62
100
AcDbEntity
  8
0
 62
     0
100
AcDbLine
 10
78.1633060048177
 20
117.3820156344115
 30
0.0
 11
77.96333646578641
 21
117.3785251531241
 31
0.0
  0
LINE
  5
138
330
62
100
AcDbEntity
  8
0
 62
     0
100
AcDbLine
 10
82.16269678544326
 20
117.4518252601606
 30
0.0
 11
81.96272724641199
 21
117.4483347788732
 31
0.0
  0
LINE
  5
139
330
62
100
AcDbEntity
  8
0
 62
     0
100
AcDbLine
 10
86.16208756606882
 20
117.5216348859098
 30
0.0
 11
85.96211802703755
 21
117.5181444046223
 31
0.0
  0
LINE
  5
13A
330
62
100
AcDbEntity
  8
0
 62
     0
100
AcDbLine
 10
90.1614783466944
 20
117.5914445116589
 30
0.0
 11
89.96150880766311
 21
117.5879540303714
 31
0.0
  0
LINE
  5
13B
330
62
100
AcDbEntity
  8
0
 62
     0
100
AcDbLine
 10
94.16086912731996
 20
117.6612541374081
 30
0.0
 11
93.96089958828868
 21
117.6577636561206
 31
0.0
  0
LINE
  5
13C
330
62
100
AcDbEntity
  8
0
 62
     0
100
AcDbLine
 10
98.16025990794552
 20
117.7310637631572
 30
0.0
 11
97.96029036891424
 21
117.7275732818697
 31
0.0
  0
LINE
  5
13D
330
62
100
AcDbEntity
  8
0
 62
     0
100
AcDbLine
 10
54.09715169531517
 20
120.9625486605423
 30
0.0
 11
53.89718215628389
 21
120.9590581792548
 31
0.0
  0
LINE
  5
13E
330
62
100
AcDbEntity
  8
0
 62
     0
100
AcDbLine
 10
58.09654247594074
 20
121.0323582862914
 30
0.0
 11
57.89657293690945
 21
121.0288678050039
 31
0.0
  0
LINE
  5
13F
330
62
100
AcDbEntity
  8
0
 62
     0
100
AcDbLine
 10
62.0959332565663
 20
121.1021679120405
 30
0.0
 11
61.89596371753502
 21
121.0986774307531
 31
0.0
  0
LINE
  5
140
330
62
100
AcDbEntity
  8
0
 62
     0
100
AcDbLine
 10
66.09532403719187
 20
121.1719775377897
 30
0.0
 11
65.89535449816059
 21
121.1684870565022
 31
0.0
  0
LINE
  5
141
330
62
100
AcDbEntity
  8
0
 62
     0
100
AcDbLine
 10
70.09471481781743
 20
121.2417871635388
 30
0.0
 11
69.89474527878616
 21
121.2382966822513
 31
0.0
  0
LINE
  5
142
330
62
100
AcDbEntity
  8
0
 62
     0
100
AcDbLine
 10
74.09410559844301
 20
121.3115967892879
 30
0.0
 11
73.89413605941172
 21
121.3081063080005
 31
0.0
  0
LINE
  5
143
330
62
100
AcDbEntity
  8
0
 62
     0
100
AcDbLine
 10
78.09349637906857
 20
121.3814064150371
 30
0.0
 11
77.89352684003728
 21
121.3779159337496
 31
0.0
  0
LINE
  5
144
330
62
100
AcDbEntity
  8
0
 62
     0
100
AcDbLine
 10
82.09288715969413
 20
121.4512160407862
 30
0.0
 11
81.89291762066286
 21
121.4477255594987
 31
0.0
  0
LINE
  5
145
330
62
100
AcDbEntity
  8
0
 62
     0
100
AcDbLine
 10
86.09227794031969
 20
121.5210256665353
 30
0.0
 11
85.89230840128842
 21
121.5175351852479
 31
0.0
  0
LINE
  5
146
330
62
100
AcDbEntity
  8
0
 62
     0
100
AcDbLine
 10
90.09166872094526
 20
121.5908352922845
 30
0.0
 11
89.89169918191398
 21
121.587344810997
 31
0.0
  0
LINE
  5
147
330
62
100
AcDbEntity
  8
0
 62
     0
100
AcDbLine
 10
66.02551441144273
 20
125.1713683184152
 30
0.0
 11
65.82554487241144
 21
125.1678778371278
 31
0.0
  0
LINE
  5
148
330
62
100
AcDbEntity
  8
0
 62
     0
100
AcDbLine
 10
70.02490519206829
 20
125.2411779441644
 30
0.0
 11
69.82493565303702
 21
125.2376874628769
 31
0.0
  0
LINE
  5
149
330
62
100
AcDbEntity
  8
0
 62
     0
100
AcDbLine
 10
74.02429597269386
 20
125.3109875699135
 30
0.0
 11
73.82432643366258
 21
125.3074970886261
 31
0.0
  0
LINE
  5
14A
330
62
100
AcDbEntity
  8
0
 62
     0
100
AcDbLine
 10
78.02368675331942
 20
125.3807971956627
 30
0.0
 11
77.82371721428814
 21
125.3773067143752
 31
0.0
  0
ENDBLK
  5
64
330
62
100
AcDbEntity
  8
0
100
AcDbBlockEnd
  0
ENDSEC
  0
SECTION
  2
ENTITIES
  0
LWPOLYLINE
  5
14B
330
1F
100
AcDbEntity
  8
0
  6
CONTINUOUS
 62
   250
 48
12.0
100
AcDbPolyline
 90
        4
 70
     1
 43
0.0
 10
0.0
 20
133.6872
 10
0.0
 20
145.098
 10
13.10279999999999
 20
145.098
 10
13.10279999999999
 20
133.6872
  0
LWPOLYLINE
  5
151
330
1F
100
AcDbEntity
  8
0
  6
CONTINUOUS
 62
   250
 48
12.0
100
AcDbPolyline
 90
        4
 70
     1
 43
0.0
 10
0.0
 20
0.0
 10
0.0
 20
145.098
 10
145.2132
 20
145.098
 10
145.2132
 20
0.0
  0
ARC
  5
152
330
1F
100
AcDbEntity
  8
0
  6
CONTINUOUS
 62
   250
 48
12.0
100
AcDbCircle
 10
65.66441
 20
50.02112999999999
 30
0.0
 40
17.37072000000001
100
AcDbArc
 50
119.9565
 51
156.818
  0
LINE
  5
153
330
1F
100
AcDbEntity
  8
0
  6
CONTINUOUS
 62
   250
 48
12.0
100
AcDbLine
 10
50.26361
 20
59.21300999999999
 30
0.0
 11
51.32632999999999
 21
59.82644999999999
 31
0.0
  0
LWPOLYLINE
  5
154
330
1F
100
AcDbEntity
  8
0
  6
CONTINUOUS
 62
   250
 48
12.0
100
AcDbPolyline
 90
        3
 70
     0
 43
0.0
 10
56.73389
 20
70.81653
 10
49.84241
 20
58.45809
 10
48.82397
 20
57.88569
  0
LWPOLYLINE
  5
155
330
1F
100
AcDbEntity
  8
0
  6
CONTINUOUS
 62
   250
 48
12.0
100
AcDbPolyline
 90
        3
 70
     0
 43
0.0
 10
55.50053
 20
71.57145
 10
48.82397
 20
58.94625
 10
48.82397
 20
57.88569
  0
ARC
  5
156
330
1F
100
AcDbEntity
  8
0
  6
CONTINUOUS
 62
   250
 48
12.0
100
AcDbCircle
 10
57.87653
 20
71.31765
 30
0.0
 40
0.6080399999999969
100
AcDbArc
 50
329.044
 51
337.4182999999997
  0
ARC
  5
157
330
1F
100
AcDbEntity
  8
0
  6
CONTINUOUS
 62
   250
 48
12.0
100
AcDbCircle
 10
57.87653
 20
71.31765
 30
0.0
 40
0.6080399999999976
100
AcDbArc
 50
291.3130999999999
 51
329.0454999999998
  0
ARC
  5
158
330
1F
100
AcDbEntity
  8
0
  6
CONTINUOUS
 62
   250
 48
12.0
100
AcDbCircle
 10
57.56764999999999
 20
72.10929000000002
 30
0.0
 40
1.456920000000001
100
AcDbArc
 50
267.2056999999999
 51
291.3132
  0
ARC
  5
159
330
1F
100
AcDbEntity
  8
0
  6
CONTINUOUS
 62
   250
 48
12.0
100
AcDbCircle
 10
57.61409
 20
73.05429
 30
0.0
 40
2.404080000000008
100
AcDbArc
 50
251.5458
 51
267.2044
  0
ARC
  5
15A
330
1F
100
AcDbEntity
  8
0
  6
CONTINUOUS
 62
   250
 48
12.0
100
AcDbCircle
 10
58.04393
 20
74.34381
 30
0.0
 40
3.762719999999995
100
AcDbArc
 50
239.0451
 51
251.547
  0
ARC
  5
15B
330
1F
100
AcDbEntity
  8
0
  6
CONTINUOUS
 62
   250
 48
12.0
100
AcDbCircle
 10
58.04393
 20
74.34381
 30
0.0
 40
3.762719999999998
100
AcDbArc
 50
226.5427999999999
 51
239.0445
  0
ARC
  5
15C
330
1F
100
AcDbEntity
  8
0
  6
CONTINUOUS
 62
   250
 48
12.0
100
AcDbCircle
 10
57.10972999999998
 20
73.35777
 30
0.0
 40
2.40408
100
AcDbArc
 50
210.8835999999999
 51
226.5418999999999
  0
ARC
  5
15D
330
1F
100
AcDbEntity
  8
0
  6
CONTINUOUS
 62
   250
 48
12.0
100
AcDbCircle
 10
56.29757
 20
72.87069
 30
0.0
 40
1.456920000000004
100
AcDbArc
 50
186.7774000000002
 51
210.8851000000001
  0
ARC
  5
15E
330
1F
100
AcDbEntity
  8
0
  6
CONTINUOUS
 62
   250
 48
12.0
100
AcDbCircle
 10
55.45408999999999
 20
72.77133
 30
0.0
 40
0.608040000000001
100
AcDbArc
 50
149.0458999999998
 51
186.7770999999996
  0
LINE
  5
15F
330
1F
100
AcDbEntity
  8
0
  6
CONTINUOUS
 62
   250
 48
12.0
100
AcDbLine
 10
58.39817
 20
71.00444999999999
 30
0.0
 11
58.64441
 21
71.49369
 31
0.0
  0
LINE
  5
160
330
1F
100
AcDbEntity
  8
0
  6
CONTINUOUS
 62
   250
 48
12.0
100
AcDbLine
 10
54.93244999999999
 20
73.08345
 30
0.0
 11
55.17869
 21
73.57161
 31
0.0
  0
ARC
  5
161
330
1F
100
AcDbEntity
  8
0
  6
CONTINUOUS
 62
   250
 48
12.0
100
AcDbCircle
 10
55.70032999999999
 20
73.25949
 30
0.0
 40
0.6080399999999926
100
AcDbArc
 50
111.3124000000003
 51
149.0452999999998
  0
ARC
  5
162
330
1F
100
AcDbEntity
  8
0
  6
CONTINUOUS
 62
   250
 48
12.0
100
AcDbCircle
 10
56.00921
 20
72.46785
 30
0.0
 40
1.456919999999999
100
AcDbArc
 50
87.2056
 51
111.3130000000001
  0
ARC
  5
163
330
1F
100
AcDbEntity
  8
0
  6
CONTINUOUS
 62
   250
 48
12.0
100
AcDbCircle
 10
55.96276999999998
 20
71.52177
 30
0.0
 40
2.404079999999996
100
AcDbArc
 50
71.5462999999999
 51
87.20469999999995
  0
ARC
  5
164
330
1F
100
AcDbEntity
  8
0
  6
CONTINUOUS
 62
   250
 48
12.0
100
AcDbCircle
 10
55.53292999999999
 20
70.23333
 30
0.0
 40
3.762719999999996
100
AcDbArc
 50
59.04529999999995
 51
71.54709999999996
  0
ARC
  5
165
330
1F
100
AcDbEntity
  8
0
  6
CONTINUOUS
 62
   250
 48
12.0
100
AcDbCircle
 10
55.53184999999999
 20
70.23333
 30
0.0
 40
3.762719999999995
100
AcDbArc
 50
46.54240000000001
 51
59.04430000000002
  0
ARC
  5
166
330
1F
100
AcDbEntity
  8
0
  6
CONTINUOUS
 62
   250
 48
12.0
100
AcDbCircle
 10
56.46712999999999
 20
71.21937
 30
0.0
 40
2.40408
100
AcDbArc
 50
30.88379999999992
 51
46.54230000000009
  0
ARC
  5
167
330
1F
100
AcDbEntity
  8
0
  6
CONTINUOUS
 62
   250
 48
12.0
100
AcDbCircle
 10
57.27928999999999
 20
71.70537
 30
0.0
 40
1.456919999999996
100
AcDbArc
 50
6.777300000000213
 51
30.88460000000018
  0
ARC
  5
168
330
1F
100
AcDbEntity
  8
0
  6
CONTINUOUS
 62
   250
 48
12.0
100
AcDbCircle
 10
58.12277
 20
71.80581000000001
 30
0.0
 40
0.6080400000000032
100
AcDbArc
 50
329.0454000000003
 51
6.777199999999631
  0
ARC
  5
169
330
1F
100
AcDbEntity
  8
0
  6
CONTINUOUS
 62
   250
 48
12.0
100
AcDbCircle
 10
58.12277
 20
71.80581000000001
 30
0.0
 40
0.6080399999999991
100
AcDbArc
 50
291.3121999999999
 51
329.0446000000001
  0
ARC
  5
16A
330
1F
100
AcDbEntity
  8
0
  6
CONTINUOUS
 62
   250
 48
12.0
100
AcDbCircle
 10
57.81497
 20
72.59745
 30
0.0
 40
1.45691999999999
100
AcDbArc
 50
267.2048999999999
 51
291.3123000000001
  0
ARC
  5
16B
330
1F
100
AcDbEntity
  8
0
  6
CONTINUOUS
 62
   250
 48
12.0
100
AcDbCircle
 10
57.86033
 20
73.54352999999999
 30
0.0
 40
2.404079999999996
100
AcDbArc
 50
251.5459
 51
267.2041
  0
ARC
  5
16C
330
1F
100
AcDbEntity
  8
0
  6
CONTINUOUS
 62
   250
 48
12.0
100
AcDbCircle
 10
58.29125
 20
74.83197
 30
0.0
 40
3.76271999999999
100
AcDbArc
 50
239.0452
 51
251.5472
  0
ARC
  5
16D
330
1F
100
AcDbEntity
  8
0
  6
CONTINUOUS
 62
   250
 48
12.0
100
AcDbCircle
 10
58.29125
 20
74.83197
 30
0.0
 40
3.762719999999995
100
AcDbArc
 50
226.5424
 51
239.0443
  0
ARC
  5
16E
330
1F
100
AcDbEntity
  8
0
  6
CONTINUOUS
 62
   250
 48
12.0
100
AcDbCircle
 10
57.35596999999999
 20
73.84593000000001
 30
0.0
 40
2.404080000000004
100
AcDbArc
 50
210.8837000000001
 51
226.5422
  0
ARC
  5
16F
330
1F
100
AcDbEntity
  8
0
  6
CONTINUOUS
 62
   250
 48
12.0
100
AcDbCircle
 10
56.54381
 20
73.35993
 30
0.0
 40
1.456919999999998
100
AcDbArc
 50
186.7778999999999
 51
210.8846999999999
  0
ARC
  5
170
330
1F
100
AcDbEntity
  8
0
  6
CONTINUOUS
 62
   250
 48
12.0
100
AcDbCircle
 10
55.70032999999999
 20
73.25949
 30
0.0
 40
0.6080399999999972
100
AcDbArc
 50
149.0448000000002
 51
186.7778999999998
  0
ARC
  5
171
330
1F
100
AcDbEntity
  8
0
  6
CONTINUOUS
 62
   250
 48
12.0
100
AcDbCircle
 10
65.70437000000001
 20
43.15881
 30
0.0
 40
17.15688000000001
100
AcDbArc
 50
120.0
 51
147.8494
  0
LINE
  5
172
330
1F
100
AcDbEntity
  8
0
  6
CONTINUOUS
 62
   250
 48
12.0
100
AcDbLine
 10
58.11413
 20
58.58660999999999
 30
0.0
 11
57.12592999999998
 21
58.01636999999999
 31
0.0
  0
LINE
  5
173
330
1F
100
AcDbEntity
  8
0
  6
CONTINUOUS
 62
   250
 48
12.0
100
AcDbLine
 10
56.99093000000001
 20
65.07093
 30
0.0
 11
76.24517
 21
76.16793
 31
0.0
  0
LINE
  5
174
330
1F
100
AcDbEntity
  8
0
  6
CONTINUOUS
 62
   250
 48
12.0
100
AcDbLine
 10
76.24517
 20
112.07361
 30
0.0
 11
90.09077
 21
120.06669
 31
0.0
  0
LINE
  5
175
330
1F
100
AcDbEntity
  8
0
  6
CONTINUOUS
 62
   250
 48
12.0
100
AcDbLine
 10
76.24517
 20
101.87409
 30
0.0
 11
94.63324999999999
 21
112.49049
 31
0.0
  0
LINE
  5
176
330
1F
100
AcDbEntity
  8
0
  6
CONTINUOUS
 62
   250
 48
12.0
100
AcDbLine
 10
76.24517
 20
106.82805
 30
0.0
 11
94.63324999999999
 21
117.44445
 31
0.0
  0
LINE
  5
177
330
1F
100
AcDbEntity
  8
0
  6
CONTINUOUS
 62
   250
 48
12.0
100
AcDbLine
 10
76.24517
 20
74.00900999999999
 30
0.0
 11
94.63324999999999
 21
84.62541
 31
0.0
  0
LINE
  5
178
330
1F
100
AcDbEntity
  8
0
  6
CONTINUOUS
 62
   250
 48
12.0
100
AcDbLine
 10
76.24517
 20
69.05505
 30
0.0
 11
94.63324999999999
 21
79.67145
 31
0.0
  0
LINE
  5
179
330
1F
100
AcDbEntity
  8
0
  6
CONTINUOUS
 62
   250
 48
12.0
100
AcDbLine
 10
93.68717
 20
103.50489
 30
0.0
 11
92.93549
 21
103.93905
 31
0.0
  0
LINE
  5
17A
330
1F
100
AcDbEntity
  8
0
  6
CONTINUOUS
 62
   250
 48
12.0
100
AcDbLine
 10
92.73785
 20
99.37605
 30
0.0
 11
91.98617
 21
99.81021
 31
0.0
  0
LINE
  5
17B
330
1F
100
AcDbEntity
  8
0
  6
CONTINUOUS
 62
   250
 48
12.0
100
AcDbLine
 10
92.93549
 20
103.93905
 30
0.0
 11
92.71624999999999
 21
103.81269
 31
0.0
  0
LINE
  5
17C
330
1F
100
AcDbEntity
  8
0
  6
CONTINUOUS
 62
   250
 48
12.0
100
AcDbLine
 10
91.98617
 20
99.81021
 30
0.0
 11
91.63192999999998
 21
99.60501000000001
 31
0.0
  0
LWPOLYLINE
  5
17D
330
1F
100
AcDbEntity
  8
0
  6
CONTINUOUS
 62
   250
 48
12.0
100
AcDbPolyline
 90
        7
 70
     0
 43
0.0
 10
76.24517
 20
76.19816999999999
 10
92.73785
 20
85.71945
 10
92.73785
 20
99.37605
 10
90.97529
 20
98.35869000000001
 10
93.68717
 20
103.50489
 10
92.71624999999999
 20
102.94545
 10
92.71624999999999
 20
111.38349
  0
LINE
  5
17E
330
1F
100
AcDbEntity
  8
0
  6
CONTINUOUS
 62
   250
 48
12.0
100
AcDbLine
 10
43.92833
 20
93.41445
 30
0.0
 11
76.24517
 21
112.07361
 31
0.0
  0
LINE
  5
17F
330
1F
100
AcDbEntity
  8
0
  6
CONTINUOUS
 62
   250
 48
12.0
100
AcDbLine
 10
94.63324999999999
 20
112.49049
 30
0.0
 11
94.63324999999999
 21
117.44445
 31
0.0
  0
LINE
  5
180
330
1F
100
AcDbEntity
  8
0
  6
CONTINUOUS
 62
   250
 48
12.0
100
AcDbLine
 10
94.63324999999999
 20
117.44445
 30
0.0
 11
90.09077
 21
120.06669
 31
0.0
  0
LINE
  5
181
330
1F
100
AcDbEntity
  8
0
  6
CONTINUOUS
 62
   250
 48
12.0
100
AcDbLine
 10
48.47081
 20
85.83825
 30
0.0
 11
76.24517
 21
101.87409
 31
0.0
  0
LINE
  5
182
330
1F
100
AcDbEntity
  8
0
  6
CONTINUOUS
 62
   250
 48
12.0
100
AcDbLine
 10
48.47081
 20
90.79221
 30
0.0
 11
76.24517
 21
106.82805
 31
0.0
  0
LINE
  5
183
330
1F
100
AcDbEntity
  8
0
  6
CONTINUOUS
 62
   250
 48
12.0
100
AcDbLine
 10
58.32689
 20
58.70972999999999
 30
0.0
 11
86.35613
 21
42.52701
 31
0.0
  0
LINE
  5
184
330
1F
100
AcDbEntity
  8
0
  6
CONTINUOUS
 62
   250
 48
12.0
100
AcDbLine
 10
45.82373
 20
87.36645
 30
0.0
 11
43.92833
 21
88.46049000000001
 31
0.0
  0
LINE
  5
185
330
1F
100
AcDbEntity
  8
0
  6
CONTINUOUS
 62
   250
 48
12.0
100
AcDbLine
 10
48.47081
 20
90.79221
 30
0.0
 11
43.92833
 21
93.41445
 31
0.0
  0
LINE
  5
186
330
1F
100
AcDbEntity
  8
0
  6
CONTINUOUS
 62
   250
 48
12.0
100
AcDbLine
 10
43.92833
 20
93.41445
 30
0.0
 11
43.92833
 21
88.46049000000001
 31
0.0
  0
LINE
  5
187
330
1F
100
AcDbEntity
  8
0
  6
CONTINUOUS
 62
   250
 48
12.0
100
AcDbLine
 10
48.47081
 20
85.83825
 30
0.0
 11
48.47081
 21
90.79221
 31
0.0
  0
LINE
  5
188
330
1F
100
AcDbEntity
  8
0
  6
CONTINUOUS
 62
   250
 48
12.0
100
AcDbLine
 10
48.47081
 20
85.83825
 30
0.0
 11
46.57540999999999
 21
86.93229
 31
0.0
  0
LINE
  5
189
330
1F
100
AcDbEntity
  8
0
  6
CONTINUOUS
 62
   250
 48
12.0
100
AcDbLine
 10
46.57540999999999
 20
88.82229
 30
0.0
 11
45.82373
 21
89.25645
 31
0.0
  0
LINE
  5
18A
330
1F
100
AcDbEntity
  8
0
  6
CONTINUOUS
 62
   250
 48
12.0
100
AcDbLine
 10
45.82373
 20
59.50136999999999
 30
0.0
 11
43.92833
 21
60.59648999999999
 31
0.0
  0
LINE
  5
18B
330
1F
100
AcDbEntity
  8
0
  6
CONTINUOUS
 62
   250
 48
12.0
100
AcDbLine
 10
46.57540999999999
 20
57.08324999999999
 30
0.0
 11
46.57540999999999
 21
88.82229
 31
0.0
  0
LWPOLYLINE
  5
18C
330
1F
100
AcDbEntity
  8
0
  6
CONTINUOUS
 62
   250
 48
12.0
100
AcDbPolyline
 90
        3
 70
     0
 43
0.0
 10
46.57540999999999
 20
57.08324999999999
 10
45.82373
 20
57.51632999999999
 10
45.82373
 20
89.25645
  0
LINE
  5
18D
330
1F
100
AcDbEntity
  8
0
  6
CONTINUOUS
 62
   250
 48
12.0
100
AcDbLine
 10
43.92833
 20
60.59648999999999
 30
0.0
 11
45.82373
 21
61.69052999999999
 31
0.0
  0
LINE
  5
18E
330
1F
100
AcDbEntity
  8
0
  6
CONTINUOUS
 62
   250
 48
12.0
100
AcDbLine
 10
58.82908999999999
 20
63.95420999999999
 30
0.0
 11
76.24517
 21
74.00900999999999
 31
0.0
  0
LINE
  5
18F
330
1F
100
AcDbEntity
  8
0
  6
CONTINUOUS
 62
   250
 48
12.0
100
AcDbLine
 10
94.63324999999999
 20
79.67145
 30
0.0
 11
94.63324999999999
 21
84.62541
 31
0.0
  0
LINE
  5
190
330
1F
100
AcDbEntity
  8
0
  6
CONTINUOUS
 62
   250
 48
12.0
100
AcDbLine
 10
94.63324999999999
 20
84.62541
 30
0.0
 11
92.73785
 21
85.71945
 31
0.0
  0
LINE
  5
191
330
1F
100
AcDbEntity
  8
0
  6
CONTINUOUS
 62
   250
 48
12.0
100
AcDbLine
 10
57.12592999999998
 20
58.01636999999999
 30
0.0
 11
76.24517
 21
69.05505
 31
0.0
  0
LINE
  5
192
330
1F
100
AcDbEntity
  8
0
  6
CONTINUOUS
 62
   250
 48
12.0
100
AcDbLine
 10
43.92833
 20
60.59648999999999
 30
0.0
 11
43.92833
 21
55.64252999999999
 31
0.0
  0
LINE
  5
193
330
1F
100
AcDbEntity
  8
0
  6
CONTINUOUS
 62
   250
 48
12.0
100
AcDbLine
 10
79.57372999999998
 20
38.61200999999998
 30
0.0
 11
79.57372999999998
 21
26.82057
 31
0.0
  0
LINE
  5
194
330
1F
100
AcDbEntity
  8
0
  6
CONTINUOUS
 62
   250
 48
12.0
100
AcDbLine
 10
76.50004999999999
 20
36.83648999999999
 30
0.0
 11
76.50004999999999
 21
25.04612999999999
 31
0.0
  0
LINE
  5
195
330
1F
100
AcDbEntity
  8
0
  6
CONTINUOUS
 62
   250
 48
12.0
100
AcDbLine
 10
86.35613
 20
42.52701
 30
0.0
 11
86.35613
 21
30.73664999999999
 31
0.0
  0
LINE
  5
196
330
1F
100
AcDbEntity
  8
0
  6
CONTINUOUS
 62
   250
 48
12.0
100
AcDbLine
 10
85.06012999999999
 20
39.39500999999999
 30
0.0
 11
85.06012999999999
 21
27.60357
 31
0.0
  0
LINE
  5
197
330
1F
100
AcDbEntity
  8
0
  6
CONTINUOUS
 62
   250
 48
12.0
100
AcDbLine
 10
37.51960999999999
 20
66.84213
 30
0.0
 11
37.51960999999999
 21
65.70597
 31
0.0
  0
LINE
  5
198
330
1F
100
AcDbEntity
  8
0
  6
CONTINUOUS
 62
   250
 48
12.0
100
AcDbLine
 10
32.40905000000001
 20
65.84204999999999
 30
0.0
 11
32.40905000000001
 21
63.89156999999999
 31
0.0
  0
LINE
  5
199
330
1F
100
AcDbEntity
  8
0
  6
CONTINUOUS
 62
   250
 48
12.0
100
AcDbLine
 10
31.02341
 20
63.09236999999999
 30
0.0
 11
31.02341
 21
51.30201
 31
0.0
  0
LINE
  5
19A
330
1F
100
AcDbEntity
  8
0
  6
CONTINUOUS
 62
   250
 48
12.0
100
AcDbLine
 10
86.35613
 20
30.73664999999999
 30
0.0
 11
85.06012999999999
 21
29.98821
 31
0.0
  0
LINE
  5
19B
330
1F
100
AcDbEntity
  8
0
  6
CONTINUOUS
 62
   250
 48
12.0
100
AcDbLine
 10
79.57372999999998
 20
26.82057
 30
0.0
 11
76.50004999999999
 21
25.04612999999999
 31
0.0
  0
LINE
  5
19C
330
1F
100
AcDbEntity
  8
0
  6
CONTINUOUS
 62
   250
 48
12.0
100
AcDbLine
 10
85.06012999999999
 20
27.60357
 30
0.0
 11
79.57372999999998
 21
27.75044999999999
 31
0.0
  0
LINE
  5
19D
330
1F
100
AcDbEntity
  8
0
  6
CONTINUOUS
 62
   250
 48
12.0
100
AcDbLine
 10
76.50004999999999
 20
25.04612999999999
 30
0.0
 11
31.02341
 21
51.30201
 31
0.0
  0
LINE
  5
19E
330
1F
100
AcDbEntity
  8
0
  6
CONTINUOUS
 62
   250
 48
12.0
100
AcDbLine
 10
86.35613
 20
36.34076999999999
 30
0.0
 11
85.06012999999999
 21
35.59340999999999
 31
0.0
  0
LINE
  5
19F
330
1F
100
AcDbEntity
  8
0
  6
CONTINUOUS
 62
   250
 48
12.0
100
AcDbLine
 10
79.57372999999998
 20
32.42576999999999
 30
0.0
 11
76.50004999999999
 21
30.65025
 31
0.0
  0
LINE
  5
1A0
330
1F
100
AcDbEntity
  8
0
  6
CONTINUOUS
 62
   250
 48
12.0
100
AcDbLine
 10
85.06012999999999
 20
33.20877
 30
0.0
 11
79.57372999999998
 21
33.35565
 31
0.0
  0
LINE
  5
1A1
330
1F
100
AcDbEntity
  8
0
  6
CONTINUOUS
 62
   250
 48
12.0
100
AcDbLine
 10
76.50004999999999
 20
30.65025
 30
0.0
 11
31.02341
 21
56.90612999999999
 31
0.0
  0
LINE
  5
1A2
330
1F
100
AcDbEntity
  8
0
  6
CONTINUOUS
 62
   250
 48
12.0
100
AcDbLine
 10
40.88057
 20
68.78289
 30
0.0
 11
37.51960999999999
 21
66.84213
 31
0.0
  0
LINE
  5
1A3
330
1F
100
AcDbEntity
  8
0
  6
CONTINUOUS
 62
   250
 48
12.0
100
AcDbLine
 10
37.51960999999999
 20
66.84213
 30
0.0
 11
39.58457
 21
65.64980999999999
 31
0.0
  0
LINE
  5
1A4
330
1F
100
AcDbEntity
  8
0
  6
CONTINUOUS
 62
   250
 48
12.0
100
AcDbLine
 10
32.40905000000001
 20
65.84204999999999
 30
0.0
 11
34.09817
 21
64.86680999999999
 31
0.0
  0
LINE
  5
1A5
330
1F
100
AcDbEntity
  8
0
  6
CONTINUOUS
 62
   250
 48
12.0
100
AcDbLine
 10
34.09817
 20
64.86680999999999
 30
0.0
 11
31.02341
 21
63.09236999999999
 31
0.0
  0
LINE
  5
1A6
330
1F
100
AcDbEntity
  8
0
  6
CONTINUOUS
 62
   250
 48
12.0
100
AcDbLine
 10
39.58457
 20
65.64980999999999
 30
0.0
 11
32.40905000000001
 21
65.84204999999999
 31
0.0
  0
LWPOLYLINE
  5
1A7
330
1F
100
AcDbEntity
  8
0
  6
CONTINUOUS
 62
   250
 48
12.0
100
AcDbPolyline
 90
        5
 70
     0
 43
0.0
 10
82.99517
 20
40.58732999999999
 10
85.06012999999999
 20
39.39500999999999
 10
77.88460999999998
 20
39.58724999999999
 10
79.57372999999998
 20
38.61200999999998
 10
76.50004999999999
 20
36.83648999999999
  0
LINE
  5
1A8
330
1F
100
AcDbEntity
  8
0
  6
CONTINUOUS
 62
   250
 48
12.0
100
AcDbLine
 10
76.50004999999999
 20
36.83648999999999
 30
0.0
 11
31.02341
 21
63.09236999999999
 31
0.0
  0
LINE
  5
1A9
330
1F
100
AcDbEntity
  8
0
  6
CONTINUOUS
 62
   250
 48
12.0
100
AcDbLine
 10
86.35613
 20
42.52701
 30
0.0
 11
82.99517
 21
40.58732999999999
 31
0.0
  0
LINE
  5
1AA
330
1F
100
AcDbEntity
  8
0
  6
CONTINUOUS
 62
   250
 48
12.0
100
AcDbLine
 10
40.88057
 20
68.78289
 30
0.0
 11
45.82373
 21
65.92845
 31
0.0
  0
LINE
  5
1AB
330
1F
100
AcDbEntity
  8
0
  6
CONTINUOUS
 62
   250
 48
12.0
100
AcDbLine
 10
46.57540999999999
 20
57.08324999999999
 30
0.0
 11
48.82397
 21
58.38140999999999
 31
0.0
  0
LINE
  5
1AC
330
1F
100
AcDbEntity
  8
0
  6
CONTINUOUS
 62
   250
 48
12.0
100
AcDbLine
 10
46.54409
 20
56.21168999999999
 30
0.0
 11
50.50229000000001
 21
58.49696999999999
 31
0.0
  0
LINE
  5
1AD
330
1F
100
AcDbEntity
  8
0
  6
CONTINUOUS
 62
   250
 48
12.0
100
AcDbLine
 10
46.69853
 20
56.58320999999999
 30
0.0
 11
50.74745
 21
58.92140999999999
 31
0.0
  0
LINE
  5
1AE
330
1F
100
AcDbEntity
  8
0
  6
CONTINUOUS
 62
   250
 48
12.0
100
AcDbLine
 10
46.51061
 20
55.74836999999999
 30
0.0
 11
50.16208999999999
 21
57.85652999999999
 31
0.0
  0
LINE
  5
1AF
330
1F
100
AcDbEntity
  8
0
  6
CONTINUOUS
 62
   250
 48
12.0
100
AcDbLine
 10
45.13036999999999
 20
54.94808999999999
 30
0.0
 11
50.15884999999999
 21
57.85112999999999
 31
0.0
  0
LWPOLYLINE
  5
1B0
330
1F
100
AcDbEntity
  8
0
  6
CONTINUOUS
 62
   250
 48
12.0
100
AcDbPolyline
 90
       15
 70
     0
 43
0.0
 10
51.17836999999999
 20
56.30348999999999
 10
51.17836999999999
 20
52.28804999999999
 10
48.31529
 20
53.10884999999999
 10
48.27209
 20
53.36912999999998
 10
48.24293
 20
53.71149
 10
48.39736999999999
 20
53.89508999999999
 10
48.33472999999999
 20
54.26660999999999
 10
48.76997
 20
54.42104999999999
 10
49.19981
 20
54.72992999999999
 10
49.10800999999999
 20
54.88437
 10
49.29160999999999
 20
55.37684999999999
 10
49.54216999999999
 20
55.59392999999999
 10
49.54216999999999
 20
55.87365
 10
49.54216999999999
 20
56.45792999999999
 10
49.69660999999999
 20
56.85860999999999
  0
LWPOLYLINE
  5
1B1
330
1F
100
AcDbEntity
  8
0
  6
CONTINUOUS
 62
   250
 48
12.0
100
AcDbPolyline
 90
        9
 70
     0
 43
0.0
 10
46.57540999999999
 20
57.08324999999999
 10
46.69853
 20
56.58320999999999
 10
46.54409
 20
56.21168999999999
 10
46.51061
 20
55.74836999999999
 10
46.10993
 20
55.62308999999999
 10
45.73840999999999
 20
55.71920999999998
 10
45.64661
 20
55.34768999999999
 10
45.33772999999999
 20
55.34768999999999
 10
45.13036999999999
 20
54.94808999999999
  0
LINE
  5
1B2
330
1F
100
AcDbEntity
  8
0
  6
CONTINUOUS
 62
   250
 48
12.0
100
AcDbLine
 10
51.17836999999999
 20
56.30348999999999
 30
0.0
 11
49.69660999999999
 21
56.85860999999999
 31
0.0
  0
ARC
  5
1B3
330
1F
100
AcDbEntity
  8
0
  6
CONTINUOUS
 62
   250
 48
12.0
100
AcDbCircle
 10
68.16353
 20
46.85672999999999
 30
0.0
 40
19.43568
100
AcDbArc
 50
129.4534
 51
150.9169
  0
ARC
  5
1B4
330
1F
100
AcDbEntity
  8
0
  6
CONTINUOUS
 62
   250
 48
12.0
100
AcDbCircle
 10
69.96065000000002
 20
44.67296999999999
 30
0.0
 40
22.2642
100
AcDbArc
 50
119.9998
 51
129.4533
  0
LINE
  5
1B5
330
1F
100
AcDbEntity
  8
0
  6
CONTINUOUS
 62
   250
 48
12.0
100
AcDbLine
 10
60.36700999999999
 20
64.84196999999999
 30
0.0
 11
58.82908999999999
 21
63.95420999999999
 31
0.0
  0
TEXT
  5
1B6
330
1F
100
AcDbEntity
  8
0
 62
   250
100
AcDbText
 10
15.875
 20
138.0185879467414
 30
0.0
 40
5.0
  1
DON'T use 16d nails.
 41
0.7936507936507936
  7
LPDETAILTEXT
 11
15.875
 21
136.0
 31
0.0
100
AcDbText
 73
     1
  0
TEXT
  5
1B7
330
1F
100
AcDbEntity
  8
0
 62
   250
100
AcDbText
 10
26.0
 20
15.39358794674142
 30
0.0
 40
5.0
  1
Refer to Joist End Nailing detail,
 41
0.7936507936507936
  7
LPDETAILTEXT
 11
26.0
 21
13.375
 31
0.0
100
AcDbText
 73
     1
  0
TEXT
  5
1B8
330
1F
100
AcDbEntity
  8
0
 62
   250
100
AcDbText
 10
22.36718750000001
 20
7.518587946741415
 30
0.0
 40
5.0
  1
A5, for correct sizes and locations.
 41
0.7936507936507936
  7
LPDETAILTEXT
 11
22.36718750000001
 21
5.5
 31
0.0
100
AcDbText
 73
     1
  0
TEXT
  5
1B9
330
1F
100
AcDbEntity
  8
0
 62
   250
100
AcDbText
 10
2.289062500000001
 20
138.0810879467414
 30
0.0
 40
5.0
  1
R6
 41
0.7936507936507936
  7
LPDETAILTEXT
 11
2.289062500000001
 21
136.0625
 31
0.0
100
AcDbText
 73
     1
  0
INSERT
  5
1BB
330
1F
100
AcDbEntity
  8
0
  6
BYBLOCK
100
AcDbBlockReference
  2
GROUP_0_B00AF4AA-BCA9-421F
 10
0.0
 20
0.0
 30
0.0
  0
ENDSEC
  0
SECTION
  2
OBJECTS
  0
DICTIONARY
  5
C
330
0
100
AcDbDictionary
  3
ACAD_GROUP
350
D
  3
ACAD_LAYOUT
350
1A
  3
ACAD_MATERIAL
350
3B
  3
ACAD_MLEADERSTYLE
350
1DE
  3
ACAD_MLINESTYLE
350
17
  3
ACAD_PLOTSETTINGS
350
19
  3
ACAD_VISUALSTYLE
350
2A
  3
ACDBHEADERROUNDTRIPXREC
350
1BC
  3
ACDBVARIABLEDICTIONARY
350
1DC
  0
DICTIONARY
  5
D
102
{ACAD_REACTORS
330
C
102
}
330
C
100
AcDbDictionary
  0
DICTIONARY
  5
1A
102
{ACAD_REACTORS
330
C
102
}
330
C
100
AcDbDictionary
  0
DICTIONARY
  5
3B
102
{ACAD_REACTORS
330
C
102
}
330
C
100
AcDbDictionary
  3
BYBLOCK
350
3D
  3
BYLAYER
350
3C
  3
GLOBAL
350
3E
  0
DICTIONARY
  5
1DE
102
{ACAD_REACTORS
330
C
102
}
330
C
100
AcDbDictionary
  0
DICTIONARY
  5
17
102
{ACAD_REACTORS
330
C
102
}
330
C
100
AcDbDictionary
  3
STANDARD
350
18
  0
DICTIONARY
  5
19
102
{ACAD_REACTORS
330
C
102
}
330
C
100
AcDbDictionary
  0
DICTIONARY
  5
2A
102
{ACAD_REACTORS
330
C
102
}
330
C
100
AcDbDictionary
  3
2DWIREFRAME
350
2F
  3
3D_HIDDEN
350
31
  3
3DWIREFRAME
350
30
  3
BASIC
350
32
  3
BRIGHTEN
350
36
  3
COLORCHANGE
350
3A
  3
CONCEPTUAL
350
34
  3
DIM
350
35
  3
FACEPATTERN
350
39
  3
FLAT
350
2B
  3
FLATWITHEDGES
350
2C
  3
GOURAUD
350
2D
  3
GOURAUDWITHEDGES
350
2E
  3
LINEPATTERN
350
38
  3
REALISTIC
350
33
  3
THICKEN
350
37
  0
DICTIONARY
  5
1BC
102
{ACAD_REACTORS
330
C
102
}
330
C
100
AcDbDictionary
  3
CEPSNTYPE
350
1C5
  3
DIMSTYLEDATA
350
1DB
  3
FINGERPRINTGUID
350
1C6
  3
HYPERLINKBASE
350
1BF
  3
INSUNITS
350
1C4
  3
LAYOUTDICT
350
1C1
  3
LWETCUNION
350
1C3
  3
PLOTSETDICT
350
1C2
  3
PSVPSCALE
350
1C8
  3
PUCSBASE
350
1CB
  3
PUCSORGBACK
350
1D1
  3
PUCSORGBOTTOM
350
1CD
  3
PUCSORGFRONT
350
1D0
  3
PUCSORGLEFT
350
1CE
  3
PUCSORGRIGHT
350
1CF
  3
PUCSORGTOP
350
1CC
  3
PUCSORTHOREF
350
1C9
  3
PUCSORTHOVIEW
350
1CA
  3
STYLESHEET
350
1C0
  3
TSTACKALIGN
350
1BD
  3
TSTACKSIZE
350
1BE
  3
UCSBASE
350
1D4
  3
UCSORGBACK
350
1DA
  3
UCSORGBOTTOM
350
1D6
  3
UCSORGFRONT
350
1D9
  3
UCSORGLEFT
350
1D7
  3
UCSORGRIGHT
350
1D8
  3
UCSORGTOP
350
1D5
  3
UCSORTHOREF
350
1D2
  3
UCSORTHOVIEW
350
1D3
  3
VERSIONGUID
350
1C7
  0
DICTIONARY
  5
1DC
102
{ACAD_REACTORS
330
C
102
}
330
C
100
AcDbDictionary
  3
DIMASSOC
350
1DF
  3
HIDETEXT
350
1E0
  0
MATERIAL
  5
3D
102
{ACAD_REACTORS
330
3B
102
}
102
{ACAD_XDICTIONARY
360
1E3
102
}
330
3B
100
AcDbMaterial
  1
ByBlock
  0
MATERIAL
  5
3C
102
{ACAD_REACTORS
330
3B
102
}
102
{ACAD_XDICTIONARY
360
1E1
102
}
330
3B
100
AcDbMaterial
  1
ByLayer
  0
MATERIAL
  5
3E
102
{ACAD_REACTORS
330
3B
102
}
102
{ACAD_XDICTIONARY
360
1E5
102
}
330
3B
100
AcDbMaterial
  1
Global
  0
MLINESTYLE
  5
18
102
{ACAD_REACTORS
330
17
102
}
330
17
100
AcDbMlineStyle
  2
Standard
 70
     0
  3

 62
   256
 51
90.0
 52
90.0
 71
     2
 49
0.5
 62
   256
  6
BYLAYER
 49
-0.5
 62
   256
  6
BYLAYER
  0
ACAD_PROXY_OBJECT
  5
2F
102
{ACAD_REACTORS
330
2A
102
}
330
2A
100
AcDbProxyObject
 90
      499
 91
      501
 93
      436
310
42CC9915DA5C99599C985B595049028333333333333E3BF0000000000000FB0107901411070040501600405405064090741402480A0340
1001
ACAD
1000
AcDbSavedByObjectVersion
1070
     0
  0
ACAD_PROXY_OBJECT
  5
31
102
{ACAD_REACTORS
330
2A
102
}
330
2A
100
AcDbProxyObject
 90
      499
 91
      501
 93
      500
310
424CD108121A5919195B90640502408333333333333E3BF0000000000000FB01079024090700405020000000000001110200405405064090740C02480A0340
1001
ACAD
1000
AcDbSavedByObjectVersion
1070
     0
  0
ACAD_PROXY_OBJECT
  5
30
102
{ACAD_REACTORS
330
2A
102
}
330
2A
100
AcDbProxyObject
 90
      499
 91
      501
 93
      436
310
42CCD915DA5C99599C985B595059028333333333333E3BF0000000000000FB0107901411070040501600405405064090741402480A0340
1001
ACAD
1000
AcDbSavedByObjectVersion
1070
     0
  0
ACAD_PROXY_OBJECT
  5
32
102
{ACAD_REACTORS
330
2A
102
}
330
2A
100
AcDbProxyObject
 90
      499
 91
      501
 93
      388
310
4150985CDA58D07406404333333333333E3BF0000000000000FB0107A41107004050150841D405064090741402480A0350
1001
ACAD
1000
AcDbSavedByObjectVersion
1070
     0
  0
ACAD_PROXY_OBJECT
  5
36
102
{ACAD_REACTORS
330
2A
102
}
330
2A
100
AcDbProxyObject
 90
      499
 91
      501
 93
      428
310
42109C9A59DA1D195B90C409028333333333333E3BF0000000000000FB010790141107004050150841D405064090741402480A029950
1001
ACAD
1000
AcDbSavedByObjectVersion
1070
     0
  0
ACAD_PROXY_OBJECT
  5
3A
102
{ACAD_REACTORS
330
2A
102
}
330
2A
100
AcDbProxyObject
 90
      499
 91
      501
 93
      452
310
42D0DBDB1BDC90DA185B99D95104090240C333333333333E3BF0000000000000FB0108901411070040501508421405064090741402480A0350
1001
ACAD
1000
AcDbSavedByObjectVersion
1070
     0
  0
ACAD_PROXY_OBJECT
  5
34
102
{ACAD_REACTORS
330
2A
102
}
330
2A
100
AcDbProxyObject
 90
      499
 91
      501
 93
      500
310
4290DBDB98D95C1D1D585B10940D028333333333333E3BF0000000000000FB0107902409070040501000000000000111010841D405064090740C02480A0340
1001
ACAD
1000
AcDbSavedByObjectVersion
1070
     0
  0
ACAD_PROXY_OBJECT
  5
35
102
{ACAD_REACTORS
330
2A
102
}
330
2A
100
AcDbProxyObject
 90
      499
 91
      501
 93
      412
310
40D11A5B50B409028333333333333E3BF0000000000000FB010790141107004050150841D405064090741402480A02677FFFFFD0
1001
ACAD
1000
AcDbSavedByObjectVersion
1070
     0
  0
ACAD_PROXY_OBJECT
  5
39
102
{ACAD_REACTORS
330
2A
102
}
330
2A
100
AcDbProxyObject
 90
      499
 91
      501
 93
      444
310
42D19858D95C185D1D195C9B90F409028333333333333E3BF0000000000000FB010790141107004050150841D405064090741402480A0350
1001
ACAD
1000
AcDbSavedByObjectVersion
1070
     0
  0
ACAD_PROXY_OBJECT
  5
2B
102
{ACAD_REACTORS
330
2A
102
}
330
2A
100
AcDbProxyObject
 90
      499
 91
      501
 93
      388
310
41119B185D240901404333333333333E3BF0000000000000F9010740A41107004050150841D405064090741402480A1B50
1001
ACAD
1000
AcDbSavedByObjectVersion
1070
     0
  0
ACAD_PROXY_OBJECT
  5
2C
102
{ACAD_REACTORS
330
2A
102
}
330
2A
100
AcDbProxyObject
 90
      499
 91
      501
 93
      476
310
43519B185D15DA5D1A115919D95CD0140901404333333333333E3BF0000000000000F9010740901411070040501600405405064090741402480A1B50
1001
ACAD
1000
AcDbSavedByObjectVersion
1070
     0
  0
ACAD_PROXY_OBJECT
  5
2D
102
{ACAD_REACTORS
330
2A
102
}
330
2A
100
AcDbProxyObject
 90
      499
 91
      501
 93
      412
310
41D1DBDD5C985D5910240902404333333333333E3BF0000000000000F9010740A411070040501641D405064090741402480A1B50
1001
ACAD
1000
AcDbSavedByObjectVersion
1070
     0
  0
ACAD_PROXY_OBJECT
  5
2E
102
{ACAD_REACTORS
330
2A
102
}
330
2A
100
AcDbProxyObject
 90
      499
 91
      501
 93
      500
310
4411DBDD5C985D5915DA5D1A115919D95CD0340902404333333333333E3BF0000000000000F9010740901411070040501600405405064090741402480A1B50
1001
ACAD
1000
AcDbSavedByObjectVersion
1070
     0
  0
ACAD_PROXY_OBJECT
  5
38
102
{ACAD_REACTORS
330
2A
102
}
330
2A
100
AcDbProxyObject
 90
      499
 91
      501
 93
      444
310
42D31A5B995C185D1D195C9B90E409028333333333333E3BF0000000000000FB010790141107004050750841D405064090741402483A0350
1001
ACAD
1000
AcDbSavedByObjectVersion
1070
     0
  0
ACAD_PROXY_OBJECT
  5
33
102
{ACAD_REACTORS
330
2A
102
}
330
2A
100
AcDbProxyObject
 90
      499
 91
      501
 93
      420
310
425499585B1A5CDD1A58D08409028333333333333E3BF0000000000000FB01079019070040501508421405064090741402480A1B40
1001
ACAD
1000
AcDbSavedByObjectVersion
1070
     0
  0
ACAD_PROXY_OBJECT
  5
37
102
{ACAD_REACTORS
330
2A
102
}
330
2A
100
AcDbProxyObject
 90
      499
 91
      501
 93
      412
310
41D51A1A58DAD95B90D409028333333333333E3BF0000000000000FB010790141107004050150C41D405064090741402480A0350
1001
ACAD
1000
AcDbSavedByObjectVersion
1070
     0
  0
XRECORD
  5
1C5
102
{ACAD_REACTORS
330
1BC
102
}
330
1BC
100
AcDbXrecord
 90
        0
  0
XRECORD
  5
1DB
102
{ACAD_REACTORS
330
1BC
102
}
330
1BC
100
AcDbXrecord
1000
DSTYLE
1002
{
1070
   340
340
11
1002
}
  0
XRECORD
  5
1C6
102
{ACAD_REACTORS
330
1BC
102
}
330
1BC
100
AcDbXrecord
  1
{4BA27C2D-5DA3-497B-B847-FD1EED644AEC}
  0
XRECORD
  5
1BF
102
{ACAD_REACTORS
330
1BC
102
}
330
1BC
100
AcDbXrecord
  1

  0
XRECORD
  5
1C4
102
{ACAD_REACTORS
330
1BC
102
}
330
1BC
100
AcDbXrecord
 90
        4
  0
XRECORD
  5
1C1
102
{ACAD_REACTORS
330
1BC
102
}
330
1BC
100
AcDbXrecord
340
1A
  0
XRECORD
  5
1C3
102
{ACAD_REACTORS
330
1BC
102
}
330
1BC
100
AcDbXrecord
 90
    10781
  0
XRECORD
  5
1C2
102
{ACAD_REACTORS
330
1BC
102
}
330
1BC
100
AcDbXrecord
340
19
  0
XRECORD
  5
1C8
102
{ACAD_REACTORS
330
1BC
102
}
330
1BC
100
AcDbXrecord
 40
0.0
  0
XRECORD
  5
1CB
102
{ACAD_REACTORS
330
1BC
102
}
330
1BC
100
AcDbXrecord
340
0
  0
XRECORD
  5
1D1
102
{ACAD_REACTORS
330
1BC
102
}
330
1BC
100
AcDbXrecord
 10
0.0
 20
0.0
 30
0.0
  0
XRECORD
  5
1CD
102
{ACAD_REACTORS
330
1BC
102
}
330
1BC
100
AcDbXrecord
 10
0.0
 20
0.0
 30
0.0
  0
XRECORD
  5
1D0
102
{ACAD_REACTORS
330
1BC
102
}
330
1BC
100
AcDbXrecord
 10
0.0
 20
0.0
 30
0.0
  0
XRECORD
  5
1CE
102
{ACAD_REACTORS
330
1BC
102
}
330
1BC
100
AcDbXrecord
 10
0.0
 20
0.0
 30
0.0
  0
XRECORD
  5
1CF
102
{ACAD_REACTORS
330
1BC
102
}
330
1BC
100
AcDbXrecord
 10
0.0
 20
0.0
 30
0.0
  0
XRECORD
  5
1CC
102
{ACAD_REACTORS
330
1BC
102
}
330
1BC
100
AcDbXrecord
 10
0.0
 20
0.0
 30
0.0
  0
XRECORD
  5
1C9
102
{ACAD_REACTORS
330
1BC
102
}
330
1BC
100
AcDbXrecord
340
0
  0
XRECORD
  5
1CA
102
{ACAD_REACTORS
330
1BC
102
}
330
1BC
100
AcDbXrecord
 70
     0
  0
XRECORD
  5
1C0
102
{ACAD_REACTORS
330
1BC
102
}
330
1BC
100
AcDbXrecord
  1

  0
XRECORD
  5
1BD
102
{ACAD_REACTORS
330
1BC
102
}
330
1BC
100
AcDbXrecord
 90
        1
  0
XRECORD
  5
1BE
102
{ACAD_REACTORS
330
1BC
102
}
330
1BC
100
AcDbXrecord
 90
       70
  0
XRECORD
  5
1D4
102
{ACAD_REACTORS
330
1BC
102
}
330
1BC
100
AcDbXrecord
340
0
  0
XRECORD
  5
1DA
102
{ACAD_REACTORS
330
1BC
102
}
330
1BC
100
AcDbXrecord
 10
0.0
 20
0.0
 30
0.0
  0
XRECORD
  5
1D6
102
{ACAD_REACTORS
330
1BC
102
}
330
1BC
100
AcDbXrecord
 10
0.0
 20
0.0
 30
0.0
  0
XRECORD
  5
1D9
102
{ACAD_REACTORS
330
1BC
102
}
330
1BC
100
AcDbXrecord
 10
0.0
 20
0.0
 30
0.0
  0
XRECORD
  5
1D7
102
{ACAD_REACTORS
330
1BC
102
}
330
1BC
100
AcDbXrecord
 10
0.0
 20
0.0
 30
0.0
  0
XRECORD
  5
1D8
102
{ACAD_REACTORS
330
1BC
102
}
330
1BC
100
AcDbXrecord
 10
0.0
 20
0.0
 30
0.0
  0
XRECORD
  5
1D5
102
{ACAD_REACTORS
330
1BC
102
}
330
1BC
100
AcDbXrecord
 10
0.0
 20
0.0
 30
0.0
  0
XRECORD
  5
1D2
102
{ACAD_REACTORS
330
1BC
102
}
330
1BC
100
AcDbXrecord
340
0
  0
XRECORD
  5
1D3
102
{ACAD_REACTORS
330
1BC
102
}
330
1BC
100
AcDbXrecord
 70
     0
  0
XRECORD
  5
1C7
102
{ACAD_REACTORS
330
1BC
102
}
330
1BC
100
AcDbXrecord
  1
{FAEB1C32-E019-11D5-929B-00C0DF256EC4}
  0
DICTIONARYVAR
  5
1DF
102
{ACAD_REACTORS
330
1DC
102
}
330
1DC
100
DictionaryVariables
280
     0
  1
2
  0
DICTIONARYVAR
  5
1E0
102
{ACAD_REACTORS
330
1DC
102
}
330
1DC
100
DictionaryVariables
280
     0
  1
1
  0
DICTIONARY
  5
1E3
330
3D
100
AcDbDictionary
280
     1
  3
ACAD_XREC_ROUNDTRIP
360
1E4
  0
DICTIONARY
  5
1E1
330
3C
100
AcDbDictionary
280
     1
  3
ACAD_XREC_ROUNDTRIP
360
1E2
  0
DICTIONARY
  5
1E5
330
3E
100
AcDbDictionary
280
     1
  3
ACAD_XREC_ROUNDTRIP
360
1E6
  0
XRECORD
  5
1E4
102
{ACAD_REACTORS
330
1E3
102
}
330
1E3
100
AcDbXrecord
102
MATERIAL
148
0.0
149
0.0
149
0.0
 93
        0
 94
      127
282
     0
 72
     1
 77
     1
171
     1
175
     1
179
     1
273
     0
  0
XRECORD
  5
1E2
102
{ACAD_REACTORS
330
1E1
102
}
330
1E1
100
AcDbXrecord
102
MATERIAL
148
0.0
149
0.0
149
0.0
 93
        0
 94
      127
282
     0
 72
     1
 77
     1
171
     1
175
     1
179
     1
273
     0
  0
XRECORD
  5
1E6
102
{ACAD_REACTORS
330
1E5
102
}
330
1E5
100
AcDbXrecord
102
MATERIAL
148
0.0
149
0.0
149
0.0
 93
        0
 94
      127
282
     0
 72
     1
 77
     1
171
     1
175
     1
179
     1
273
     0
  0
ENDSEC
  0
EOF
