  0
SECTION
  2
HEADER
  9
$ACADVER
  1
AC1014
  9
$ACADMAINTVER
 70
     9
  9
$DWGCODEPAGE
  3
ANSI_1252
  9
$INSBASE
 10
0.0
 20
0.0
 30
0.0
  9
$EXTMIN
 10
-7.260660000000001
 20
-7.254899999999999
 30
0.0
  9
$EXTMAX
 10
152.47386
 20
152.3529
 30
0.0
  9
$LIMMIN
 10
-7.260660000000001
 20
-7.254899999999999
  9
$LIMMAX
 10
152.47386
 20
152.3529
  9
$ORTHOMODE
 70
     0
  9
$REGENMODE
 70
     1
  9
$FILLMODE
 70
     1
  9
$QTEXTMODE
 70
     0
  9
$MIRRTEXT
 70
     1
  9
$DRAGMODE
 70
     2
  9
$LTSCALE
 40
1.0
  9
$OSMODE
 70
    37
  9
$ATTMODE
 70
     1
  9
$TEXTSIZE
 40
0.2
  9
$TRACEWID
 40
0.05
  9
$TEXTSTYLE
  7
STANDARD
  9
$CLAYER
  8
0
  9
$CELTYPE
  6
BYLAYER
  9
$CECOLOR
 62
   256
  9
$CELTSCALE
 40
1.0
  9
$DELOBJ
 70
     1
  9
$DISPSILH
 70
     0
  9
$DIMSCALE
 40
1.0
  9
$DIMASZ
 40
0.18
  9
$DIMEXO
 40
0.0625
  9
$DIMDLI
 40
0.38
  9
$DIMRND
 40
0.0
  9
$DIMDLE
 40
0.0
  9
$DIMEXE
 40
0.18
  9
$DIMTP
 40
0.0
  9
$DIMTM
 40
0.0
  9
$DIMTXT
 40
0.18
  9
$DIMCEN
 40
0.09
  9
$DIMTSZ
 40
0.0
  9
$DIMTOL
 70
     0
  9
$DIMLIM
 70
     0
  9
$DIMTIH
 70
     1
  9
$DIMTOH
 70
     1
  9
$DIMSE1
 70
     0
  9
$DIMSE2
 70
     0
  9
$DIMTAD
 70
     0
  9
$DIMZIN
 70
     0
  9
$DIMBLK
  1

  9
$DIMASO
 70
     1
  9
$DIMSHO
 70
     1
  9
$DIMPOST
  1

  9
$DIMAPOST
  1

  9
$DIMALT
 70
     0
  9
$DIMALTD
 70
     2
  9
$DIMALTF
 40
25.4
  9
$DIMLFAC
 40
1.0
  9
$DIMTOFL
 70
     0
  9
$DIMTVP
 40
0.0
  9
$DIMTIX
 70
     0
  9
$DIMSOXD
 70
     0
  9
$DIMSAH
 70
     0
  9
$DIMBLK1
  1

  9
$DIMBLK2
  1

  9
$DIMSTYLE
  2
STANDARD
  9
$DIMCLRD
 70
     0
  9
$DIMCLRE
 70
     0
  9
$DIMCLRT
 70
     0
  9
$DIMTFAC
 40
1.0
  9
$DIMGAP
 40
0.09
  9
$DIMJUST
 70
     0
  9
$DIMSD1
 70
     0
  9
$DIMSD2
 70
     0
  9
$DIMTOLJ
 70
     1
  9
$DIMTZIN
 70
     0
  9
$DIMALTZ
 70
     0
  9
$DIMALTTZ
 70
     0
  9
$DIMFIT
 70
     3
  9
$DIMUPT
 70
     0
  9
$DIMUNIT
 70
     2
  9
$DIMDEC
 70
     4
  9
$DIMTDEC
 70
     4
  9
$DIMALTU
 70
     2
  9
$DIMALTTD
 70
     2
  9
$DIMTXSTY
  7
STANDARD
  9
$DIMAUNIT
 70
     0
  9
$LUNITS
 70
     2
  9
$LUPREC
 70
     4
  9
$SKETCHINC
 40
0.1
  9
$FILLETRAD
 40
0.5
  9
$AUNITS
 70
     0
  9
$AUPREC
 70
     0
  9
$MENU
  1
.
  9
$ELEVATION
 40
0.0
  9
$PELEVATION
 40
0.0
  9
$THICKNESS
 40
0.0
  9
$LIMCHECK
 70
     0
  9
$CHAMFERA
 40
0.5
  9
$CHAMFERB
 40
0.5
  9
$CHAMFERC
 40
1.0
  9
$CHAMFERD
 40
0.0
  9
$SKPOLY
 70
     0
  9
$TDCREATE
 40
2456098.437512546
  9
$TDUPDATE
 40
2456098.437512558
  9
$TDINDWG
 40
0.0000000116
  9
$TDUSRTIMER
 40
0.0000000116
  9
$USRTIMER
 70
     1
  9
$ANGBASE
 50
0.0
  9
$ANGDIR
 70
     0
  9
$PDMODE
 70
     0
  9
$PDSIZE
 40
0.0
  9
$PLINEWID
 40
0.0
  9
$COORDS
 70
     1
  9
$SPLFRAME
 70
     0
  9
$SPLINETYPE
 70
     6
  9
$SPLINESEGS
 70
     8
  9
$ATTDIA
 70
     0
  9
$ATTREQ
 70
     1
  9
$HANDLING
 70
     1
  9
$HANDSEED
  5
3B3
  9
$SURFTAB1
 70
     6
  9
$SURFTAB2
 70
     6
  9
$SURFTYPE
 70
     6
  9
$SURFU
 70
     6
  9
$SURFV
 70
     6
  9
$UCSNAME
  2

  9
$UCSORG
 10
0.0
 20
0.0
 30
0.0
  9
$UCSXDIR
 10
1.0
 20
0.0
 30
0.0
  9
$UCSYDIR
 10
0.0
 20
1.0
 30
0.0
  9
$PUCSNAME
  2

  9
$PUCSORG
 10
0.0
 20
0.0
 30
0.0
  9
$PUCSXDIR
 10
1.0
 20
0.0
 30
0.0
  9
$PUCSYDIR
 10
0.0
 20
1.0
 30
0.0
  9
$USERI1
 70
     0
  9
$USERI2
 70
     0
  9
$USERI3
 70
     0
  9
$USERI4
 70
     0
  9
$USERI5
 70
     0
  9
$USERR1
 40
0.0
  9
$USERR2
 40
0.0
  9
$USERR3
 40
0.0
  9
$USERR4
 40
0.0
  9
$USERR5
 40
0.0
  9
$WORLDVIEW
 70
     1
  9
$SHADEDGE
 70
     3
  9
$SHADEDIF
 70
    70
  9
$TILEMODE
 70
     1
  9
$MAXACTVP
 70
    64
  9
$PINSBASE
 10
0.0
 20
0.0
 30
0.0
  9
$PLIMCHECK
 70
     0
  9
$PEXTMIN
 10
1.000000000000000E+20
 20
1.000000000000000E+20
 30
1.000000000000000E+20
  9
$PEXTMAX
 10
-1.000000000000000E+20
 20
-1.000000000000000E+20
 30
-1.000000000000000E+20
  9
$PLIMMIN
 10
0.0
 20
0.0
  9
$PLIMMAX
 10
12.0
 20
9.0
  9
$UNITMODE
 70
     0
  9
$VISRETAIN
 70
     1
  9
$PLINEGEN
 70
     0
  9
$PSLTSCALE
 70
     1
  9
$TREEDEPTH
 70
  3020
  9
$PICKSTYLE
 70
     1
  9
$CMLSTYLE
  2
STANDARD
  9
$CMLJUST
 70
     0
  9
$CMLSCALE
 40
1.0
  9
$PROXYGRAPHICS
 70
     1
  9
$MEASUREMENT
 70
     0
  0
ENDSEC
  0
SECTION
  2
CLASSES
  0
CLASS
  1
ACDBDICTIONARYWDFLT
  2
AcDbDictionaryWithDefault
  3
ObjectDBX Classes
 90
        0
280
     0
281
     0
  0
CLASS
  1
VISUALSTYLE
  2
AcDbVisualStyle
  3
ObjectDBX Classes
 90
     4095
280
     0
281
     0
  0
CLASS
  1
MATERIAL
  2
AcDbMaterial
  3
ObjectDBX Classes
 90
     1153
280
     0
281
     0
  0
CLASS
  1
DICTIONARYVAR
  2
AcDbDictionaryVar
  3
ObjectDBX Classes
 90
        0
280
     0
281
     0
  0
CLASS
  1
XRECORD
  2
AcDbXrecord
  3
AutoCAD 2000
 90
        0
280
     0
281
     0
  0
CLASS
  1
LWPOLYLINE
  2
AcDbPolyline
  3
AutoCAD 2000
 90
        0
280
     0
281
     1
  0
CLASS
  1
HATCH
  2
AcDbHatch
  3
AutoCAD 2000
 90
        0
280
     0
281
     1
  0
CLASS
  1
ACDBPLACEHOLDER
  2
AcDbPlaceHolder
  3
ObjectDBX Classes
 90
        0
280
     0
281
     0
  0
CLASS
  1
LAYOUT
  2
AcDbLayout
  3
ObjectDBX Classes
 90
        0
280
     0
281
     0
  0
ENDSEC
  0
SECTION
  2
TABLES
  0
TABLE
  2
VPORT
  5
8
330
0
100
AcDbSymbolTable
 70
     1
  0
VPORT
  5
29
330
8
100
AcDbSymbolTableRecord
100
AcDbViewportTableRecord
  2
*ACTIVE
 70
     0
 10
0.0
 20
0.0
 11
1.0
 21
1.0
 12
-7.260660000000001
 22
72.54899999999999
 13
0.0
 23
0.0
 14
0.5
 24
0.5
 15
0.5
 25
0.5
 16
0.0
 26
0.0
 36
1.0
 17
0.0
 27
0.0
 37
0.0
 40
159.6078
 41
0.1112524372596638
 42
50.0
 43
0.0
 44
0.0
 50
0.0
 51
0.0
 71
     0
 72
   100
 73
     1
 74
     3
 75
     0
 76
     0
 77
     0
 78
     0
  0
ENDTAB
  0
TABLE
  2
LTYPE
  5
5
330
0
100
AcDbSymbolTable
 70
    11
  0
LTYPE
  5
14
330
5
100
AcDbSymbolTableRecord
100
AcDbLinetypeTableRecord
  2
BYBLOCK
 70
     0
  3

 72
    65
 73
     0
 40
0.0
  0
LTYPE
  5
15
330
5
100
AcDbSymbolTableRecord
100
AcDbLinetypeTableRecord
  2
BYLAYER
 70
     0
  3

 72
    65
 73
     0
 40
0.0
  0
LTYPE
  5
16
330
5
100
AcDbSymbolTableRecord
100
AcDbLinetypeTableRecord
  2
CONTINUOUS
 70
     0
  3
Solid line
 72
    65
 73
     0
 40
0.0
  0
LTYPE
  5
53
330
5
100
AcDbSymbolTableRecord
100
AcDbLinetypeTableRecord
  2
HIDDEN
 70
     0
  3
Hidden __ __ __ __ __ __ __ __ __ __ __ __ __ _
 72
    65
 73
     2
 40
0.375
 49
0.25
 74
     0
 49
-0.125
 74
     0
  0
LTYPE
  5
54
330
5
100
AcDbSymbolTableRecord
100
AcDbLinetypeTableRecord
  2
DIVIDE
 70
     0
  3
Divide ____ . . ____ . . ____ . . ____ . . ____
 72
    65
 73
     6
 40
1.25
 49
0.5
 74
     0
 49
-0.25
 74
     0
 49
0.0
 74
     0
 49
-0.25
 74
     0
 49
0.0
 74
     0
 49
-0.25
 74
     0
  0
LTYPE
  5
56
330
5
100
AcDbSymbolTableRecord
100
AcDbLinetypeTableRecord
  2
ZIGZAG
 70
     0
  3
/\/\/\/\/\/\/\/\
 72
    65
 73
     4
 40
20.32254
 49
0.00254
 74
     0
 49
-5.08
 74
     4
 75
   131
340
55
 46
5.08
 50
0.0
 44
-5.08
 45
0.0
 49
-10.16
 74
     4
 75
   131
340
55
 46
5.08
 50
180.0
 44
5.08
 45
0.0
 49
-5.08
 74
     0
  0
LTYPE
  5
57
330
5
100
AcDbSymbolTableRecord
100
AcDbLinetypeTableRecord
  2
BATTING
 70
     0
  3
 SSSSSSSSSSSSSSSSSSSSSS
 72
    65
 73
     4
 40
10.16254
 49
0.00254
 74
     0
 49
-2.54
 74
     4
 75
   134
340
55
 46
2.54
 50
0.0
 44
-2.54
 45
0.0
 49
-5.08
 74
     4
 75
   134
340
55
 46
2.54
 50
180.0
 44
2.54
 45
0.0
 49
-2.54
 74
     0
  0
LTYPE
  5
58
330
5
100
AcDbSymbolTableRecord
100
AcDbLinetypeTableRecord
  2
DASHDOT
 70
     0
  3
DASHDOT
 72
    65
 73
     4
 40
1.0
 49
0.5
 74
     0
 49
-0.25
 74
     0
 49
0.0001
 74
     0
 49
-0.25
 74
     0
  0
LTYPE
  5
59
330
5
100
AcDbSymbolTableRecord
100
AcDbLinetypeTableRecord
  2
DASHDOTX2
 70
     0
  3
DASHDOTX2
 72
    65
 73
     4
 40
1.0
 49
1.0
 74
     0
 49
-0.5
 74
     0
 49
0.0002
 74
     0
 49
-0.5
 74
     0
  0
LTYPE
  5
5A
330
5
100
AcDbSymbolTableRecord
100
AcDbLinetypeTableRecord
  2
DASHED
 70
     0
  3
DASHED
 72
    65
 73
     2
 40
0.75
 49
0.5
 74
     0
 49
-0.25
 74
     0
  0
LTYPE
  5
5B
330
5
100
AcDbSymbolTableRecord
100
AcDbLinetypeTableRecord
  2
TRACKS
 70
     0
  3
TRACKS
 72
    65
 73
     2
 40
7.62
 49
3.81
 74
     0
 49
3.81
 74
     0
  0
LTYPE
  5
5C
330
5
100
AcDbSymbolTableRecord
100
AcDbLinetypeTableRecord
  2
DOT
 70
     0
  3
DOT
 72
    65
 73
     2
 40
0.25
 49
0.0001
 74
     0
 49
-0.25
 74
     0
  0
LTYPE
  5
5D
330
5
100
AcDbSymbolTableRecord
100
AcDbLinetypeTableRecord
  2
PHANTOM
 70
     0
  3
PHANTOM
 72
    65
 73
     6
 40
2.5
 49
1.25
 74
     0
 49
-0.25
 74
     0
 49
0.25
 74
     0
 49
-0.25
 74
     0
 49
0.25
 74
     0
 49
-0.25
 74
     0
  0
ENDTAB
  0
TABLE
  2
LAYER
  5
2
330
0
100
AcDbSymbolTable
 70
     2
  0
LAYER
  5
10
330
2
100
AcDbSymbolTableRecord
100
AcDbLayerTableRecord
  2
0
 70
     0
 62
     1
  6
CONTINUOUS
  0
LAYER
  5
5E
330
2
100
AcDbSymbolTableRecord
100
AcDbLayerTableRecord
  2
TEXT
 70
     0
 62
     7
  6
CONTINUOUS
  0
ENDTAB
  0
TABLE
  2
STYLE
  5
3
330
0
100
AcDbSymbolTable
 70
    12
  0
STYLE
  5
11
330
3
100
AcDbSymbolTableRecord
100
AcDbTextStyleTableRecord
  2
STANDARD
 70
     0
 40
0.0
 41
1.0
 50
0.0
 71
     0
 42
0.2
  3
txt
  4

  0
STYLE
  5
40
330
3
100
AcDbSymbolTableRecord
100
AcDbTextStyleTableRecord
  2
LPDETAILTEXT
 70
     0
 40
0.0
 41
1.0
 50
0.0
 71
     0
 42
0.0
  3
COMIC.TTF
  4

1001
ACAD
1000
Comic Sans MS
1071
       34
  0
STYLE
  5
41
330
3
100
AcDbSymbolTableRecord
100
AcDbTextStyleTableRecord
  2
ARIAL
 70
     0
 40
0.0
 41
1.0
 50
0.0
 71
     0
 42
0.2
  3
ARIAL.TTF
  4

1001
ACAD
1000
Arial
1071
       34
  0
STYLE
  5
42
330
3
100
AcDbSymbolTableRecord
100
AcDbTextStyleTableRecord
  2
COURIER_NEW
 70
     0
 40
0.0
 41
1.0
 50
0.0
 71
     0
 42
0.2
  3
COUR.TTF
  4

1001
ACAD
1000
Courier New
1071
       34
  0
STYLE
  5
43
330
3
100
AcDbSymbolTableRecord
100
AcDbTextStyleTableRecord
  2
ARIAL_NARROW
 70
     0
 40
0.0
 41
1.0
 50
0.0
 71
     0
 42
0.2
  3
ARIALN.TTF
  4

1001
ACAD
1000
Arial Narrow
1071
       34
  0
STYLE
  5
44
330
3
100
AcDbSymbolTableRecord
100
AcDbTextStyleTableRecord
  2
TIMES_NEW_ROMAN
 70
     0
 40
0.0
 41
1.0
 50
0.0
 71
     0
 42
0.2
  3
TIMES.TTF
  4

1001
ACAD
1000
Times New Roman
1071
       34
  0
STYLE
  5
45
330
3
100
AcDbSymbolTableRecord
100
AcDbTextStyleTableRecord
  2
IMPACT
 70
     0
 40
0.0
 41
1.0
 50
0.0
 71
     0
 42
0.2
  3
IMPACT.TTF
  4

1001
ACAD
1000
Impact
1071
       34
  0
STYLE
  5
46
330
3
100
AcDbSymbolTableRecord
100
AcDbTextStyleTableRecord
  2
ARIAL_BLACK
 70
     0
 40
0.0
 41
1.0
 50
0.0
 71
     0
 42
0.2
  3
ARIBLK.TTF
  4

1001
ACAD
1000
Arial Black
1071
       34
  0
STYLE
  5
47
330
3
100
AcDbSymbolTableRecord
100
AcDbTextStyleTableRecord
  2
SYMBOL
 70
     0
 40
0.0
 41
1.0
 50
0.0
 71
     0
 42
0.2
  3
SYMBOL.TTF
  4

1001
ACAD
1000
Symbol
1071
       34
  0
STYLE
  5
48
330
3
100
AcDbSymbolTableRecord
100
AcDbTextStyleTableRecord
  2
COMIC_SANS_MS
 70
     0
 40
0.0
 41
1.0
 50
0.0
 71
     0
 42
0.2
  3
COMIC.TTF
  4

1001
ACAD
1000
Comic Sans MS
1071
       34
  0
STYLE
  5
49
330
3
100
AcDbSymbolTableRecord
100
AcDbTextStyleTableRecord
  2
TREBUCHET_MS
 70
     0
 40
0.0
 41
1.0
 50
0.0
 71
     0
 42
0.2
  3
TREBUC.TTF
  4

1001
ACAD
1000
Trebuchet MS
1071
       34
  0
STYLE
  5
55
330
3
100
AcDbSymbolTableRecord
100
AcDbTextStyleTableRecord
  2

 70
     1
 40
0.0
 41
1.0
 50
0.0
 71
     0
 42
22.45
  3
ltypeshp.shx
  4

  0
ENDTAB
  0
TABLE
  2
VIEW
  5
6
330
0
100
AcDbSymbolTable
 70
     0
  0
ENDTAB
  0
TABLE
  2
UCS
  5
7
330
0
100
AcDbSymbolTable
 70
     0
  0
ENDTAB
  0
TABLE
  2
APPID
  5
9
330
0
100
AcDbSymbolTable
 70
     2
  0
APPID
  5
12
330
9
100
AcDbSymbolTableRecord
100
AcDbRegAppTableRecord
  2
ACAD
 70
     0
  0
APPID
  5
3F
330
9
100
AcDbSymbolTableRecord
100
AcDbRegAppTableRecord
  2
VERTEX
 70
     0
  0
ENDTAB
  0
TABLE
  2
DIMSTYLE
  5
A
330
0
100
AcDbSymbolTable
 70
     3
  0
DIMSTYLE
105
27
330
A
100
AcDbSymbolTableRecord
100
AcDbDimStyleTableRecord
  2
STANDARD
 70
     0
  3

  4

  5

  6

  7

 40
1.0
 41
0.18
 42
0.0625
 43
0.38
 44
0.18
 45
0.0
 46
0.0
 47
0.0
 48
0.0
140
0.18
141
0.09
142
0.0
143
25.4
144
1.0
145
0.0
146
1.0
147
0.09
 71
     0
 72
     0
 73
     1
 74
     1
 75
     0
 76
     0
 77
     0
 78
     0
170
     0
171
     2
172
     0
173
     0
174
     0
175
     0
176
     0
177
     0
178
     0
270
     2
271
     4
272
     4
273
     2
274
     2
340
11
275
     0
280
     0
281
     0
282
     0
283
     1
284
     0
285
     0
286
     0
287
     3
288
     0
  0
DIMSTYLE
105
4A
330
A
100
AcDbSymbolTableRecord
100
AcDbDimStyleTableRecord
  2
VERTEX_STYLE
 70
     0
  3

  4

  5

  6
CLOSED
  7
CLOSED
 40
1.0
 41
0.078740157480315
 42
0.0625
 43
0.38
 44
0.0393700787401575
 45
0.0
 46
0.0393700787401575
 47
0.0
 48
0.0
140
0.18
141
0.09
142
0.0
143
25.4
144
25.4
145
0.0
146
0.65
147
0.0669291338582677
 71
     0
 72
     0
 73
     0
 74
     0
 75
     0
 76
     0
 77
     1
 78
     8
170
     0
171
     2
172
     1
173
     1
174
     0
175
     0
176
   256
177
   256
178
     0
179
     1
270
     2
271
     1
272
     4
273
     2
274
     2
340
40
275
     0
280
     0
281
     0
282
     0
283
     1
284
     0
285
     0
286
     0
287
     3
288
     0
  0
DIMSTYLE
105
52
330
A
100
AcDbSymbolTableRecord
100
AcDbDimStyleTableRecord
  2
VERTEX_STYLE__INCHES_
 70
     0
  3

  4

  5

  6
CLOSED
  7
CLOSED
 40
1.0
 41
0.078740157480315
 42
0.0625
 43
0.38
 44
0.0393700787401575
 45
0.0
 46
0.0393700787401575
 47
0.0
 48
0.0
140
0.18
141
0.09
142
0.0
143
25.4
144
1.0
145
0.0
146
0.65
147
0.0669291338582677
 71
     0
 72
     0
 73
     0
 74
     0
 75
     0
 76
     0
 77
     1
 78
     0
170
     0
171
     2
172
     1
173
     1
174
     0
175
     0
176
   256
177
   256
178
     0
179
     1
270
     4
271
     4
272
     4
273
     2
274
     2
340
40
275
     0
280
     0
281
     0
282
     0
283
     1
284
     0
285
     0
286
     0
287
     3
288
     0
  0
ENDTAB
  0
TABLE
  2
BLOCK_RECORD
  5
1
330
0
100
AcDbSymbolTable
 70
    10
  0
BLOCK_RECORD
  5
1F
330
1
100
AcDbSymbolTableRecord
100
AcDbBlockTableRecord
  2
*MODEL_SPACE
  0
BLOCK_RECORD
  5
1B
330
1
100
AcDbSymbolTableRecord
100
AcDbBlockTableRecord
  2
*PAPER_SPACE
  0
BLOCK_RECORD
  5
4B
330
1
100
AcDbSymbolTableRecord
100
AcDbBlockTableRecord
  2
_CLOSED
  0
BLOCK_RECORD
  5
5F
330
1
100
AcDbSymbolTableRecord
100
AcDbBlockTableRecord
  2
MACRO_0_F96CC7A6-F908-44CB
  0
BLOCK_RECORD
  5
62
330
1
100
AcDbSymbolTableRecord
100
AcDbBlockTableRecord
  2
MACRO_1_F1547F08-0579-4F60
  0
BLOCK_RECORD
  5
65
330
1
100
AcDbSymbolTableRecord
100
AcDbBlockTableRecord
  2
HATCH_2_BB7EEA32-C9A8-41EC
  0
BLOCK_RECORD
  5
6F
330
1
100
AcDbSymbolTableRecord
100
AcDbBlockTableRecord
  2
HATCH_3_6B1B8D76-8DB4-456B
  0
BLOCK_RECORD
  5
79
330
1
100
AcDbSymbolTableRecord
100
AcDbBlockTableRecord
  2
HATCH_4_C0D07722-D80D-4A96
  0
BLOCK_RECORD
  5
94
330
1
100
AcDbSymbolTableRecord
100
AcDbBlockTableRecord
  2
HATCH_5_8619D120-026A-4953
  0
BLOCK_RECORD
  5
AF
330
1
100
AcDbSymbolTableRecord
100
AcDbBlockTableRecord
  2
HATCH_6_9CB0B357-7323-4C80
  0
BLOCK_RECORD
  5
CB
330
1
100
AcDbSymbolTableRecord
100
AcDbBlockTableRecord
  2
HATCH_7_902249D3-E2C7-4163
  0
ENDTAB
  0
ENDSEC
  0
SECTION
  2
BLOCKS
  0
BLOCK
  5
20
330
1F
100
AcDbEntity
  8
0
100
AcDbBlockBegin
  2
*MODEL_SPACE
 70
     0
 10
0.0
 20
0.0
 30
0.0
  3
*MODEL_SPACE
  1

  0
ENDBLK
  5
21
330
1F
100
AcDbEntity
  8
0
100
AcDbBlockEnd
  0
BLOCK
  5
1C
330
1B
100
AcDbEntity
 67
     1
  8
0
100
AcDbBlockBegin
  2
*PAPER_SPACE
 70
     0
 10
0.0
 20
0.0
 30
0.0
  3
*PAPER_SPACE
  1

  0
ENDBLK
  5
1D
330
1B
100
AcDbEntity
 67
     1
  8
0
100
AcDbBlockEnd
  0
BLOCK
  5
4C
330
4B
100
AcDbEntity
  8
0
100
AcDbBlockBegin
  2
_CLOSED
 70
     0
 10
0.0
 20
0.0
 30
0.0
  3
_CLOSED
  1

  0
LINE
  5
4E
330
4B
100
AcDbEntity
  8
0
  6
BYBLOCK
 62
     0
100
AcDbLine
 10
-1.0
 20
0.166667
 30
0.0
 11
0.0
 21
0.0
 31
0.0
  0
LINE
  5
4F
330
4B
100
AcDbEntity
  8
0
  6
BYBLOCK
 62
     0
100
AcDbLine
 10
0.0
 20
0.0
 30
0.0
 11
-1.0
 21
-0.166667
 31
0.0
  0
LINE
  5
50
330
4B
100
AcDbEntity
  8
0
  6
BYBLOCK
 62
     0
100
AcDbLine
 10
-1.0
 20
0.166667
 30
0.0
 11
-1.0
 21
-0.166667
 31
0.0
  0
LINE
  5
51
330
4B
100
AcDbEntity
  8
0
  6
BYBLOCK
 62
     0
100
AcDbLine
 10
0.0
 20
0.0
 30
0.0
 11
-1.0
 21
0.0
 31
0.0
  0
ENDBLK
  5
4D
330
4B
100
AcDbEntity
  8
0
100
AcDbBlockEnd
  0
BLOCK
  5
60
330
5F
100
AcDbEntity
  8
0
100
AcDbBlockBegin
  2
MACRO_0_F96CC7A6-F908-44CB
 70
     0
 10
0.0
 20
0.0
 30
0.0
  3
MACRO_0_F96CC7A6-F908-44CB
  1

  0
LINE
  5
378
330
5F
100
AcDbEntity
  8
0
  6
CONTINUOUS
 62
   250
 48
12.0
100
AcDbLine
 10
0.0
 20
-0.4778005821600306
 30
0.0
 11
0.0
 21
-2.976677798389913
 31
0.0
  0
LWPOLYLINE
  5
379
330
5F
100
AcDbEntity
  8
0
  6
CONTINUOUS
 62
   250
 48
12.0
100
AcDbPolyline
 90
        3
 70
     1
 43
0.0
 10
-0.2738765145255044
 20
-0.4789338556763436
 10
0.2778306284853898
 20
-0.4766509469171964
 10
0.0
 20
0.0
  0
ENDBLK
  5
61
330
5F
100
AcDbEntity
  8
0
100
AcDbBlockEnd
  0
BLOCK
  5
63
330
62
100
AcDbEntity
  8
0
100
AcDbBlockBegin
  2
MACRO_1_F1547F08-0579-4F60
 70
     0
 10
0.0
 20
0.0
 30
0.0
  3
MACRO_1_F1547F08-0579-4F60
  1

  0
CIRCLE
  5
373
330
62
100
AcDbEntity
  8
TEXT
  6
CONTINUOUS
 62
     1
 48
12.0
100
AcDbCircle
 10
6.0505
 20
6.0457
 30
0.0
 40
4.7787
  0
ARC
  5
374
330
62
100
AcDbEntity
  8
TEXT
  6
CONTINUOUS
 62
     1
 48
12.0
100
AcDbCircle
 10
5.91705736578646
 20
6.179375087349095
 30
0.0
 40
3.9018
100
AcDbArc
 50
231.7806
 51
38.17420000000004
  0
LINE
  5
375
330
62
100
AcDbEntity
  8
TEXT
  6
CONTINUOUS
 62
     1
 48
12.0
100
AcDbLine
 10
8.464500000000001
 20
9.1112
 30
0.0
 11
2.9832
 21
3.6342
 31
0.0
  0
LINE
  5
376
330
62
100
AcDbEntity
  8
TEXT
  6
CONTINUOUS
 62
     1
 48
12.0
100
AcDbLine
 10
8.9844
 20
8.5909
 30
0.0
 11
3.5031
 21
3.1139
 31
0.0
  0
ARC
  5
377
330
62
100
AcDbEntity
  8
TEXT
  6
CONTINUOUS
 62
     1
 48
12.0
100
AcDbCircle
 10
6.0505
 20
6.0457
 30
0.0
 40
3.9018
100
AcDbArc
 50
51.7806
 51
218.1742
  0
ENDBLK
  5
64
330
62
100
AcDbEntity
  8
0
100
AcDbBlockEnd
  0
BLOCK
  5
66
330
65
100
AcDbEntity
  8
0
100
AcDbBlockBegin
  2
HATCH_2_BB7EEA32-C9A8-41EC
 70
     0
 10
0.0
 20
0.0
 30
0.0
  3
HATCH_2_BB7EEA32-C9A8-41EC
  1

  0
LINE
  5
68
330
65
100
AcDbEntity
  8
0
 62
     0
100
AcDbLine
 10
85.4721086018199
 20
58.5
 30
0.0
 11
85.26523395784807
 21
58.5
 31
0.0
  0
LINE
  5
69
330
65
100
AcDbEntity
  8
0
 62
     0
100
AcDbLine
 10
85.4721086018199
 20
58.75
 30
0.0
 11
85.29928109523748
 21
58.75
 31
0.0
  0
LINE
  5
6A
330
65
100
AcDbEntity
  8
0
 62
     0
100
AcDbLine
 10
85.4721086018199
 20
59.0
 30
0.0
 11
85.33332823262688
 21
59.0
 31
0.0
  0
LINE
  5
6B
330
65
100
AcDbEntity
  8
0
 62
     0
100
AcDbLine
 10
85.4721086018199
 20
59.25
 30
0.0
 11
85.36737537001628
 21
59.25
 31
0.0
  0
LINE
  5
6C
330
65
100
AcDbEntity
  8
0
 62
     0
100
AcDbLine
 10
85.4721086018199
 20
59.5
 30
0.0
 11
85.40142250740568
 21
59.5
 31
0.0
  0
LINE
  5
6D
330
65
100
AcDbEntity
  8
0
 62
     0
100
AcDbLine
 10
85.4721086018199
 20
59.75
 30
0.0
 11
85.43546964479509
 21
59.75
 31
0.0
  0
LINE
  5
6E
330
65
100
AcDbEntity
  8
0
 62
     0
100
AcDbLine
 10
85.4721086018199
 20
60.0
 30
0.0
 11
85.4695167821845
 21
60.0
 31
0.0
  0
ENDBLK
  5
67
330
65
100
AcDbEntity
  8
0
100
AcDbBlockEnd
  0
BLOCK
  5
70
330
6F
100
AcDbEntity
  8
0
100
AcDbBlockBegin
  2
HATCH_3_6B1B8D76-8DB4-456B
 70
     0
 10
0.0
 20
0.0
 30
0.0
  3
HATCH_3_6B1B8D76-8DB4-456B
  1

  0
LINE
  5
72
330
6F
100
AcDbEntity
  8
0
 62
     0
100
AcDbLine
 10
85.9515049717361
 20
58.5
 30
0.0
 11
85.4721086018199
 21
58.5
 31
0.0
  0
LINE
  5
73
330
6F
100
AcDbEntity
  8
0
 62
     0
100
AcDbLine
 10
85.48055265628747
 20
60.0
 30
0.0
 11
85.4721086018199
 21
60.0
 31
0.0
  0
LINE
  5
74
330
6F
100
AcDbEntity
  8
0
 62
     0
100
AcDbLine
 10
85.59147699633562
 20
59.75
 30
0.0
 11
85.4721086018199
 21
59.75
 31
0.0
  0
LINE
  5
75
330
6F
100
AcDbEntity
  8
0
 62
     0
100
AcDbLine
 10
85.70240133638376
 20
59.5
 30
0.0
 11
85.4721086018199
 21
59.5
 31
0.0
  0
LINE
  5
76
330
6F
100
AcDbEntity
  8
0
 62
     0
100
AcDbLine
 10
85.81332567643189
 20
59.25
 30
0.0
 11
85.4721086018199
 21
59.25
 31
0.0
  0
LINE
  5
77
330
6F
100
AcDbEntity
  8
0
 62
     0
100
AcDbLine
 10
85.92425001648003
 20
59.0
 30
0.0
 11
85.4721086018199
 21
59.0
 31
0.0
  0
LINE
  5
78
330
6F
100
AcDbEntity
  8
0
 62
     0
100
AcDbLine
 10
86.03517435652817
 20
58.75
 30
0.0
 11
85.4721086018199
 21
58.75
 31
0.0
  0
ENDBLK
  5
71
330
6F
100
AcDbEntity
  8
0
100
AcDbBlockEnd
  0
BLOCK
  5
7A
330
79
100
AcDbEntity
  8
0
100
AcDbBlockBegin
  2
HATCH_4_C0D07722-D80D-4A96
 70
     0
 10
0.0
 20
0.0
 30
0.0
  3
HATCH_4_C0D07722-D80D-4A96
  1

  0
LINE
  5
7C
330
79
100
AcDbEntity
  8
0
 62
     0
100
AcDbLine
 10
86.11620926265738
 20
58.75
 30
0.0
 11
86.03517435652817
 21
58.75
 31
0.0
  0
LINE
  5
7D
330
79
100
AcDbEntity
  8
0
 62
     0
100
AcDbLine
 10
86.11620926265738
 20
59.0
 30
0.0
 11
85.92425001648003
 21
59.0
 31
0.0
  0
LINE
  5
7E
330
79
100
AcDbEntity
  8
0
 62
     0
100
AcDbLine
 10
86.11620926265738
 20
59.25
 30
0.0
 11
85.81332567643189
 21
59.25
 31
0.0
  0
LINE
  5
7F
330
79
100
AcDbEntity
  8
0
 62
     0
100
AcDbLine
 10
86.11620926265738
 20
59.5
 30
0.0
 11
85.70240133638376
 21
59.5
 31
0.0
  0
LINE
  5
80
330
79
100
AcDbEntity
  8
0
 62
     0
100
AcDbLine
 10
86.11620926265738
 20
59.75
 30
0.0
 11
85.59147699633562
 21
59.75
 31
0.0
  0
LINE
  5
81
330
79
100
AcDbEntity
  8
0
 62
     0
100
AcDbLine
 10
86.11620926265738
 20
60.0
 30
0.0
 11
85.48055265628747
 21
60.0
 31
0.0
  0
LINE
  5
82
330
79
100
AcDbEntity
  8
0
 62
     0
100
AcDbLine
 10
86.11620926265738
 20
60.25
 30
0.0
 11
85.50356391957389
 21
60.25
 31
0.0
  0
LINE
  5
83
330
79
100
AcDbEntity
  8
0
 62
     0
100
AcDbLine
 10
86.11620926265738
 20
60.5
 30
0.0
 11
85.5376110569633
 21
60.5
 31
0.0
  0
LINE
  5
84
330
79
100
AcDbEntity
  8
0
 62
     0
100
AcDbLine
 10
86.11620926265738
 20
60.75
 30
0.0
 11
85.57165819435271
 21
60.75
 31
0.0
  0
LINE
  5
85
330
79
100
AcDbEntity
  8
0
 62
     0
100
AcDbLine
 10
86.11620926265738
 20
61.0
 30
0.0
 11
85.6057053317421
 21
61.0
 31
0.0
  0
LINE
  5
86
330
79
100
AcDbEntity
  8
0
 62
     0
100
AcDbLine
 10
86.11620926265738
 20
61.25
 30
0.0
 11
85.63975246913151
 21
61.25
 31
0.0
  0
LINE
  5
87
330
79
100
AcDbEntity
  8
0
 62
     0
100
AcDbLine
 10
86.11620926265738
 20
61.5
 30
0.0
 11
85.67379960652092
 21
61.5
 31
0.0
  0
LINE
  5
88
330
79
100
AcDbEntity
  8
0
 62
     0
100
AcDbLine
 10
86.11620926265738
 20
61.75
 30
0.0
 11
85.70784674391032
 21
61.75
 31
0.0
  0
LINE
  5
89
330
79
100
AcDbEntity
  8
0
 62
     0
100
AcDbLine
 10
86.11620926265738
 20
62.0
 30
0.0
 11
85.74189388129972
 21
62.0
 31
0.0
  0
LINE
  5
8A
330
79
100
AcDbEntity
  8
0
 62
     0
100
AcDbLine
 10
86.11620926265738
 20
62.25
 30
0.0
 11
85.77594101868912
 21
62.25
 31
0.0
  0
LINE
  5
8B
330
79
100
AcDbEntity
  8
0
 62
     0
100
AcDbLine
 10
86.11620926265738
 20
62.5
 30
0.0
 11
85.80998815607853
 21
62.5
 31
0.0
  0
LINE
  5
8C
330
79
100
AcDbEntity
  8
0
 62
     0
100
AcDbLine
 10
86.11620926265738
 20
62.75
 30
0.0
 11
85.84403529346793
 21
62.75
 31
0.0
  0
LINE
  5
8D
330
79
100
AcDbEntity
  8
0
 62
     0
100
AcDbLine
 10
86.11620926265738
 20
63.0
 30
0.0
 11
85.87808243085733
 21
63.0
 31
0.0
  0
LINE
  5
8E
330
79
100
AcDbEntity
  8
0
 62
     0
100
AcDbLine
 10
86.11620926265738
 20
63.25
 30
0.0
 11
85.91212956824674
 21
63.25
 31
0.0
  0
LINE
  5
8F
330
79
100
AcDbEntity
  8
0
 62
     0
100
AcDbLine
 10
86.11620926265738
 20
63.5
 30
0.0
 11
85.94617670563615
 21
63.5
 31
0.0
  0
LINE
  5
90
330
79
100
AcDbEntity
  8
0
 62
     0
100
AcDbLine
 10
86.11620926265738
 20
63.75
 30
0.0
 11
85.98022384302554
 21
63.75
 31
0.0
  0
LINE
  5
91
330
79
100
AcDbEntity
  8
0
 62
     0
100
AcDbLine
 10
86.11620926265738
 20
64.0
 30
0.0
 11
86.01427098041495
 21
64.0
 31
0.0
  0
LINE
  5
92
330
79
100
AcDbEntity
  8
0
 62
     0
100
AcDbLine
 10
86.11620926265738
 20
64.25
 30
0.0
 11
86.04831811780436
 21
64.25
 31
0.0
  0
LINE
  5
93
330
79
100
AcDbEntity
  8
0
 62
     0
100
AcDbLine
 10
86.11620926265738
 20
64.5
 30
0.0
 11
86.08236525519375
 21
64.5
 31
0.0
  0
ENDBLK
  5
7B
330
79
100
AcDbEntity
  8
0
100
AcDbBlockEnd
  0
BLOCK
  5
95
330
94
100
AcDbEntity
  8
0
100
AcDbBlockBegin
  2
HATCH_5_8619D120-026A-4953
 70
     0
 10
0.0
 20
0.0
 30
0.0
  3
HATCH_5_8619D120-026A-4953
  1

  0
LINE
  5
97
330
94
100
AcDbEntity
  8
0
 62
     0
100
AcDbLine
 10
86.11667765932081
 20
64.5
 30
0.0
 11
86.11620926265738
 21
64.5
 31
0.0
  0
LINE
  5
98
330
94
100
AcDbEntity
  8
0
 62
     0
100
AcDbLine
 10
86.11714886727603
 20
64.25
 30
0.0
 11
86.11620926265738
 21
64.25
 31
0.0
  0
LINE
  5
99
330
94
100
AcDbEntity
  8
0
 62
     0
100
AcDbLine
 10
86.11762007523123
 20
64.0
 30
0.0
 11
86.11620926265738
 21
64.0
 31
0.0
  0
LINE
  5
9A
330
94
100
AcDbEntity
  8
0
 62
     0
100
AcDbLine
 10
86.11809128318644
 20
63.75
 30
0.0
 11
86.11620926265738
 21
63.75
 31
0.0
  0
LINE
  5
9B
330
94
100
AcDbEntity
  8
0
 62
     0
100
AcDbLine
 10
86.11856249114165
 20
63.5
 30
0.0
 11
86.11620926265738
 21
63.5
 31
0.0
  0
LINE
  5
9C
330
94
100
AcDbEntity
  8
0
 62
     0
100
AcDbLine
 10
86.11903369909686
 20
63.25
 30
0.0
 11
86.11620926265738
 21
63.25
 31
0.0
  0
LINE
  5
9D
330
94
100
AcDbEntity
  8
0
 62
     0
100
AcDbLine
 10
86.11950490705206
 20
63.0
 30
0.0
 11
86.11620926265738
 21
63.0
 31
0.0
  0
LINE
  5
9E
330
94
100
AcDbEntity
  8
0
 62
     0
100
AcDbLine
 10
86.11997611500728
 20
62.75
 30
0.0
 11
86.11620926265738
 21
62.75
 31
0.0
  0
LINE
  5
9F
330
94
100
AcDbEntity
  8
0
 62
     0
100
AcDbLine
 10
86.12044732296248
 20
62.5
 30
0.0
 11
86.11620926265738
 21
62.5
 31
0.0
  0
LINE
  5
A0
330
94
100
AcDbEntity
  8
0
 62
     0
100
AcDbLine
 10
86.12091853091769
 20
62.25
 30
0.0
 11
86.11620926265738
 21
62.25
 31
0.0
  0
LINE
  5
A1
330
94
100
AcDbEntity
  8
0
 62
     0
100
AcDbLine
 10
86.12138973887289
 20
62.0
 30
0.0
 11
86.11620926265738
 21
62.0
 31
0.0
  0
LINE
  5
A2
330
94
100
AcDbEntity
  8
0
 62
     0
100
AcDbLine
 10
86.1218609468281
 20
61.75
 30
0.0
 11
86.11620926265738
 21
61.75
 31
0.0
  0
LINE
  5
A3
330
94
100
AcDbEntity
  8
0
 62
     0
100
AcDbLine
 10
86.12233215478331
 20
61.5
 30
0.0
 11
86.11620926265738
 21
61.5
 31
0.0
  0
LINE
  5
A4
330
94
100
AcDbEntity
  8
0
 62
     0
100
AcDbLine
 10
86.12280336273851
 20
61.25
 30
0.0
 11
86.11620926265738
 21
61.25
 31
0.0
  0
LINE
  5
A5
330
94
100
AcDbEntity
  8
0
 62
     0
100
AcDbLine
 10
86.12327457069372
 20
61.0
 30
0.0
 11
86.11620926265738
 21
61.0
 31
0.0
  0
LINE
  5
A6
330
94
100
AcDbEntity
  8
0
 62
     0
100
AcDbLine
 10
86.12374577864892
 20
60.75
 30
0.0
 11
86.11620926265738
 21
60.75
 31
0.0
  0
LINE
  5
A7
330
94
100
AcDbEntity
  8
0
 62
     0
100
AcDbLine
 10
86.12421698660414
 20
60.5
 30
0.0
 11
86.11620926265738
 21
60.5
 31
0.0
  0
LINE
  5
A8
330
94
100
AcDbEntity
  8
0
 62
     0
100
AcDbLine
 10
86.12468819455934
 20
60.25
 30
0.0
 11
86.11620926265738
 21
60.25
 31
0.0
  0
LINE
  5
A9
330
94
100
AcDbEntity
  8
0
 62
     0
100
AcDbLine
 10
86.12515940251456
 20
60.0
 30
0.0
 11
86.11620926265738
 21
60.0
 31
0.0
  0
LINE
  5
AA
330
94
100
AcDbEntity
  8
0
 62
     0
100
AcDbLine
 10
86.12563061046976
 20
59.75
 30
0.0
 11
86.11620926265738
 21
59.75
 31
0.0
  0
LINE
  5
AB
330
94
100
AcDbEntity
  8
0
 62
     0
100
AcDbLine
 10
86.12610181842497
 20
59.5
 30
0.0
 11
86.11620926265738
 21
59.5
 31
0.0
  0
LINE
  5
AC
330
94
100
AcDbEntity
  8
0
 62
     0
100
AcDbLine
 10
86.12657302638017
 20
59.25
 30
0.0
 11
86.11620926265738
 21
59.25
 31
0.0
  0
LINE
  5
AD
330
94
100
AcDbEntity
  8
0
 62
     0
100
AcDbLine
 10
86.12704423433539
 20
59.0
 30
0.0
 11
86.11620926265738
 21
59.0
 31
0.0
  0
LINE
  5
AE
330
94
100
AcDbEntity
  8
0
 62
     0
100
AcDbLine
 10
86.12751544229059
 20
58.75
 30
0.0
 11
86.11620926265738
 21
58.75
 31
0.0
  0
ENDBLK
  5
96
330
94
100
AcDbEntity
  8
0
100
AcDbBlockEnd
  0
BLOCK
  5
B0
330
AF
100
AcDbEntity
  8
0
100
AcDbBlockBegin
  2
HATCH_6_9CB0B357-7323-4C80
 70
     0
 10
0.0
 20
0.0
 30
0.0
  3
HATCH_6_9CB0B357-7323-4C80
  1

  0
LINE
  5
B2
330
AF
100
AcDbEntity
  8
0
 62
     0
100
AcDbLine
 10
86.12785070516622
 20
58.75
 30
0.0
 11
86.12751544229059
 21
58.75
 31
0.0
  0
LINE
  5
B3
330
AF
100
AcDbEntity
  8
0
 62
     0
100
AcDbLine
 10
86.12785070516622
 20
59.0
 30
0.0
 11
86.12704423433539
 21
59.0
 31
0.0
  0
LINE
  5
B4
330
AF
100
AcDbEntity
  8
0
 62
     0
100
AcDbLine
 10
86.12785070516622
 20
59.25
 30
0.0
 11
86.12657302638017
 21
59.25
 31
0.0
  0
LINE
  5
B5
330
AF
100
AcDbEntity
  8
0
 62
     0
100
AcDbLine
 10
86.12785070516622
 20
59.5
 30
0.0
 11
86.12610181842497
 21
59.5
 31
0.0
  0
LINE
  5
B6
330
AF
100
AcDbEntity
  8
0
 62
     0
100
AcDbLine
 10
86.12785070516622
 20
59.75
 30
0.0
 11
86.12563061046976
 21
59.75
 31
0.0
  0
LINE
  5
B7
330
AF
100
AcDbEntity
  8
0
 62
     0
100
AcDbLine
 10
86.12785070516622
 20
60.0
 30
0.0
 11
86.12515940251456
 21
60.0
 31
0.0
  0
LINE
  5
B8
330
AF
100
AcDbEntity
  8
0
 62
     0
100
AcDbLine
 10
86.12785070516622
 20
60.25
 30
0.0
 11
86.12468819455934
 21
60.25
 31
0.0
  0
LINE
  5
B9
330
AF
100
AcDbEntity
  8
0
 62
     0
100
AcDbLine
 10
86.12785070516622
 20
60.5
 30
0.0
 11
86.12421698660414
 21
60.5
 31
0.0
  0
LINE
  5
BA
330
AF
100
AcDbEntity
  8
0
 62
     0
100
AcDbLine
 10
86.12785070516622
 20
60.75
 30
0.0
 11
86.12374577864892
 21
60.75
 31
0.0
  0
LINE
  5
BB
330
AF
100
AcDbEntity
  8
0
 62
     0
100
AcDbLine
 10
86.12785070516622
 20
61.0
 30
0.0
 11
86.12327457069372
 21
61.0
 31
0.0
  0
LINE
  5
BC
330
AF
100
AcDbEntity
  8
0
 62
     0
100
AcDbLine
 10
86.12785070516622
 20
61.25
 30
0.0
 11
86.12280336273851
 21
61.25
 31
0.0
  0
LINE
  5
BD
330
AF
100
AcDbEntity
  8
0
 62
     0
100
AcDbLine
 10
86.12785070516622
 20
61.5
 30
0.0
 11
86.12233215478331
 21
61.5
 31
0.0
  0
LINE
  5
BE
330
AF
100
AcDbEntity
  8
0
 62
     0
100
AcDbLine
 10
86.12785070516622
 20
61.75
 30
0.0
 11
86.1218609468281
 21
61.75
 31
0.0
  0
LINE
  5
BF
330
AF
100
AcDbEntity
  8
0
 62
     0
100
AcDbLine
 10
86.12785070516622
 20
62.0
 30
0.0
 11
86.12138973887289
 21
62.0
 31
0.0
  0
LINE
  5
C0
330
AF
100
AcDbEntity
  8
0
 62
     0
100
AcDbLine
 10
86.12785070516622
 20
62.25
 30
0.0
 11
86.12091853091769
 21
62.25
 31
0.0
  0
LINE
  5
C1
330
AF
100
AcDbEntity
  8
0
 62
     0
100
AcDbLine
 10
86.12785070516622
 20
62.5
 30
0.0
 11
86.12044732296248
 21
62.5
 31
0.0
  0
LINE
  5
C2
330
AF
100
AcDbEntity
  8
0
 62
     0
100
AcDbLine
 10
86.12785070516622
 20
62.75
 30
0.0
 11
86.11997611500728
 21
62.75
 31
0.0
  0
LINE
  5
C3
330
AF
100
AcDbEntity
  8
0
 62
     0
100
AcDbLine
 10
86.12785070516622
 20
63.0
 30
0.0
 11
86.11950490705206
 21
63.0
 31
0.0
  0
LINE
  5
C4
330
AF
100
AcDbEntity
  8
0
 62
     0
100
AcDbLine
 10
86.12785070516622
 20
63.25
 30
0.0
 11
86.11903369909686
 21
63.25
 31
0.0
  0
LINE
  5
C5
330
AF
100
AcDbEntity
  8
0
 62
     0
100
AcDbLine
 10
86.12785070516622
 20
63.5
 30
0.0
 11
86.11856249114165
 21
63.5
 31
0.0
  0
LINE
  5
C6
330
AF
100
AcDbEntity
  8
0
 62
     0
100
AcDbLine
 10
86.12785070516622
 20
63.75
 30
0.0
 11
86.11809128318644
 21
63.75
 31
0.0
  0
LINE
  5
C7
330
AF
100
AcDbEntity
  8
0
 62
     0
100
AcDbLine
 10
86.12785070516622
 20
64.0
 30
0.0
 11
86.11762007523123
 21
64.0
 31
0.0
  0
LINE
  5
C8
330
AF
100
AcDbEntity
  8
0
 62
     0
100
AcDbLine
 10
86.12785070516622
 20
64.25
 30
0.0
 11
86.11714886727603
 21
64.25
 31
0.0
  0
LINE
  5
C9
330
AF
100
AcDbEntity
  8
0
 62
     0
100
AcDbLine
 10
86.12785070516622
 20
64.5
 30
0.0
 11
86.11667765932081
 21
64.5
 31
0.0
  0
LINE
  5
CA
330
AF
100
AcDbEntity
  8
0
 62
     0
100
AcDbLine
 10
86.12785070516622
 20
64.75
 30
0.0
 11
86.11879284792626
 21
64.75
 31
0.0
  0
ENDBLK
  5
B1
330
AF
100
AcDbEntity
  8
0
100
AcDbBlockEnd
  0
BLOCK
  5
CC
330
CB
100
AcDbEntity
  8
0
100
AcDbBlockBegin
  2
HATCH_7_902249D3-E2C7-4163
 70
     0
 10
0.0
 20
0.0
 30
0.0
  3
HATCH_7_902249D3-E2C7-4163
  1

  0
LINE
  5
CE
330
CB
100
AcDbEntity
  8
0
 62
     0
100
AcDbLine
 10
86.56274822321731
 20
58.75
 30
0.0
 11
86.12785070516622
 21
58.75
 31
0.0
  0
LINE
  5
CF
330
CB
100
AcDbEntity
  8
0
 62
     0
100
AcDbLine
 10
87.17399147469851
 20
59.0
 30
0.0
 11
86.12785070516622
 21
59.0
 31
0.0
  0
LINE
  5
D0
330
CB
100
AcDbEntity
  8
0
 62
     0
100
AcDbLine
 10
87.78523472617971
 20
59.25
 30
0.0
 11
86.12785070516622
 21
59.25
 31
0.0
  0
LINE
  5
D1
330
CB
100
AcDbEntity
  8
0
 62
     0
100
AcDbLine
 10
88.39647797766091
 20
59.5
 30
0.0
 11
86.12785070516622
 21
59.5
 31
0.0
  0
LINE
  5
D2
330
CB
100
AcDbEntity
  8
0
 62
     0
100
AcDbLine
 10
89.0077212291421
 20
59.75
 30
0.0
 11
86.12785070516622
 21
59.75
 31
0.0
  0
LINE
  5
D3
330
CB
100
AcDbEntity
  8
0
 62
     0
100
AcDbLine
 10
89.6189644806233
 20
60.0
 30
0.0
 11
86.12785070516622
 21
60.0
 31
0.0
  0
LINE
  5
D4
330
CB
100
AcDbEntity
  8
0
 62
     0
100
AcDbLine
 10
90.2302077321045
 20
60.25
 30
0.0
 11
86.12785070516622
 21
60.25
 31
0.0
  0
LINE
  5
D5
330
CB
100
AcDbEntity
  8
0
 62
     0
100
AcDbLine
 10
90.8414509835857
 20
60.5
 30
0.0
 11
86.12785070516622
 21
60.5
 31
0.0
  0
LINE
  5
D6
330
CB
100
AcDbEntity
  8
0
 62
     0
100
AcDbLine
 10
86.1346030273861
 20
64.75
 30
0.0
 11
86.12785070516622
 21
64.75
 31
0.0
  0
LINE
  5
D7
330
CB
100
AcDbEntity
  8
0
 62
     0
100
AcDbLine
 10
86.45742060929075
 20
64.5
 30
0.0
 11
86.12785070516622
 21
64.5
 31
0.0
  0
LINE
  5
D8
330
CB
100
AcDbEntity
  8
0
 62
     0
100
AcDbLine
 10
86.78023819119541
 20
64.25
 30
0.0
 11
86.12785070516622
 21
64.25
 31
0.0
  0
LINE
  5
D9
330
CB
100
AcDbEntity
  8
0
 62
     0
100
AcDbLine
 10
87.10305577310007
 20
64.0
 30
0.0
 11
86.12785070516622
 21
64.0
 31
0.0
  0
LINE
  5
DA
330
CB
100
AcDbEntity
  8
0
 62
     0
100
AcDbLine
 10
87.42587335500473
 20
63.75
 30
0.0
 11
86.12785070516622
 21
63.75
 31
0.0
  0
LINE
  5
DB
330
CB
100
AcDbEntity
  8
0
 62
     0
100
AcDbLine
 10
87.74869093690938
 20
63.5
 30
0.0
 11
86.12785070516622
 21
63.5
 31
0.0
  0
LINE
  5
DC
330
CB
100
AcDbEntity
  8
0
 62
     0
100
AcDbLine
 10
88.07150851881404
 20
63.25
 30
0.0
 11
86.12785070516622
 21
63.25
 31
0.0
  0
LINE
  5
DD
330
CB
100
AcDbEntity
  8
0
 62
     0
100
AcDbLine
 10
88.3943261007187
 20
63.0
 30
0.0
 11
86.12785070516622
 21
63.0
 31
0.0
  0
LINE
  5
DE
330
CB
100
AcDbEntity
  8
0
 62
     0
100
AcDbLine
 10
88.71714368262336
 20
62.75
 30
0.0
 11
86.12785070516622
 21
62.75
 31
0.0
  0
LINE
  5
DF
330
CB
100
AcDbEntity
  8
0
 62
     0
100
AcDbLine
 10
89.03996126452802
 20
62.5
 30
0.0
 11
86.12785070516622
 21
62.5
 31
0.0
  0
LINE
  5
E0
330
CB
100
AcDbEntity
  8
0
 62
     0
100
AcDbLine
 10
89.36277884643266
 20
62.25
 30
0.0
 11
86.12785070516622
 21
62.25
 31
0.0
  0
LINE
  5
E1
330
CB
100
AcDbEntity
  8
0
 62
     0
100
AcDbLine
 10
89.68559642833732
 20
62.0
 30
0.0
 11
86.12785070516622
 21
62.0
 31
0.0
  0
LINE
  5
E2
330
CB
100
AcDbEntity
  8
0
 62
     0
100
AcDbLine
 10
90.00841401024198
 20
61.75
 30
0.0
 11
86.12785070516622
 21
61.75
 31
0.0
  0
LINE
  5
E3
330
CB
100
AcDbEntity
  8
0
 62
     0
100
AcDbLine
 10
90.33123159214664
 20
61.5
 30
0.0
 11
86.12785070516622
 21
61.5
 31
0.0
  0
LINE
  5
E4
330
CB
100
AcDbEntity
  8
0
 62
     0
100
AcDbLine
 10
90.6540491740513
 20
61.25
 30
0.0
 11
86.12785070516622
 21
61.25
 31
0.0
  0
LINE
  5
E5
330
CB
100
AcDbEntity
  8
0
 62
     0
100
AcDbLine
 10
90.97686675595595
 20
61.0
 30
0.0
 11
86.12785070516622
 21
61.0
 31
0.0
  0
LINE
  5
E6
330
CB
100
AcDbEntity
  8
0
 62
     0
100
AcDbLine
 10
91.29968433786061
 20
60.75
 30
0.0
 11
86.12785070516622
 21
60.75
 31
0.0
  0
ENDBLK
  5
CD
330
CB
100
AcDbEntity
  8
0
100
AcDbBlockEnd
  0
ENDSEC
  0
SECTION
  2
ENTITIES
  0
LWPOLYLINE
  5
E7
330
1F
100
AcDbEntity
  8
0
  6
CONTINUOUS
 62
   250
 48
12.0
100
AcDbPolyline
 90
        4
 70
     1
 43
0.0
 10
0.0
 20
133.6872
 10
0.0
 20
145.098
 10
13.10279999999999
 20
145.098
 10
13.10279999999999
 20
133.6872
  0
LWPOLYLINE
  5
E8
330
1F
100
AcDbEntity
  8
0
  6
CONTINUOUS
 62
   250
 48
12.0
100
AcDbPolyline
 90
        3
 70
     1
 43
0.0
 10
85.4721086018199
 20
58.30392570030241
 10
85.255557993951
 20
58.42895170755177
 10
85.4721086018199
 20
60.01903111270239
  0
LWPOLYLINE
  5
E9
330
1F
100
AcDbEntity
  8
0
  6
CONTINUOUS
 62
   250
 48
12.0
100
AcDbPolyline
 90
        3
 70
     1
 43
0.0
 10
85.4721086018199
 20
58.30392570030241
 10
85.4721086018199
 20
60.01903111270239
 10
86.11620926265738
 20
58.567364461907
  0
LWPOLYLINE
  5
EA
330
1F
100
AcDbEntity
  8
0
  6
CONTINUOUS
 62
   250
 48
12.0
100
AcDbPolyline
 90
        3
 70
     1
 43
0.0
 10
86.11620926265738
 20
58.567364461907
 10
85.4721086018199
 20
60.01903111270239
 10
86.11620926265738
 20
64.7485084654588
  0
LWPOLYLINE
  5
EB
330
1F
100
AcDbEntity
  8
0
  6
CONTINUOUS
 62
   250
 48
12.0
100
AcDbPolyline
 90
        3
 70
     1
 43
0.0
 10
86.11620926265738
 20
58.567364461907
 10
86.11620926265738
 20
64.7485084654588
 10
86.12785070516622
 20
58.57212584065459
  0
LWPOLYLINE
  5
EC
330
1F
100
AcDbEntity
  8
0
  6
CONTINUOUS
 62
   250
 48
12.0
100
AcDbPolyline
 90
        3
 70
     1
 43
0.0
 10
86.12785070516622
 20
58.57212584065459
 10
86.11620926265738
 20
64.7485084654588
 10
86.12785070516622
 20
64.75522920884609
  0
LWPOLYLINE
  5
ED
330
1F
100
AcDbEntity
  8
0
  6
CONTINUOUS
 62
   250
 48
12.0
100
AcDbPolyline
 90
        3
 70
     1
 43
0.0
 10
86.12785070516622
 20
58.57212584065459
 10
86.12785070516622
 20
64.75522920884609
 10
91.35256556706767
 20
60.70904712740934
  0
LINE
  5
EE
330
1F
100
AcDbEntity
  8
0
  6
CONTINUOUS
 62
   250
 48
12.0
100
AcDbLine
 10
53.7972
 20
106.3656
 30
0.0
 11
53.80319999999999
 21
106.1268
 31
0.0
  0
LINE
  5
EF
330
1F
100
AcDbEntity
  8
0
  6
CONTINUOUS
 62
   250
 48
12.0
100
AcDbLine
 10
54.1956
 20
106.1676
 30
0.0
 11
54.00240000000001
 21
106.0284
 31
0.0
  0
LINE
  5
F0
330
1F
100
AcDbEntity
  8
0
  6
CONTINUOUS
 62
   250
 48
12.0
100
AcDbLine
 10
53.99639999999999
 20
106.2672
 30
0.0
 11
54.00240000000001
 21
106.0284
 31
0.0
  0
LINE
  5
F1
330
1F
100
AcDbEntity
  8
0
  6
CONTINUOUS
 62
   250
 48
12.0
100
AcDbLine
 10
54.396
 20
106.0692
 30
0.0
 11
54.2016
 21
105.9288
 31
0.0
  0
LINE
  5
F2
330
1F
100
AcDbEntity
  8
0
  6
CONTINUOUS
 62
   250
 48
12.0
100
AcDbLine
 10
54.1956
 20
106.1676
 30
0.0
 11
54.2016
 21
105.9288
 31
0.0
  0
LINE
  5
F3
330
1F
100
AcDbEntity
  8
0
  6
CONTINUOUS
 62
   250
 48
12.0
100
AcDbLine
 10
54.59519999999999
 20
105.9708
 30
0.0
 11
54.4008
 21
105.8304
 31
0.0
  0
LINE
  5
F4
330
1F
100
AcDbEntity
  8
0
  6
CONTINUOUS
 62
   250
 48
12.0
100
AcDbLine
 10
54.396
 20
106.0692
 30
0.0
 11
54.4008
 21
105.8304
 31
0.0
  0
LINE
  5
F5
330
1F
100
AcDbEntity
  8
0
  6
CONTINUOUS
 62
   250
 48
12.0
100
AcDbLine
 10
54.7944
 20
105.8712
 30
0.0
 11
54.60120000000001
 21
105.732
 31
0.0
  0
LINE
  5
F6
330
1F
100
AcDbEntity
  8
0
  6
CONTINUOUS
 62
   250
 48
12.0
100
AcDbLine
 10
54.59519999999999
 20
105.9708
 30
0.0
 11
54.60120000000001
 21
105.732
 31
0.0
  0
LINE
  5
F7
330
1F
100
AcDbEntity
  8
0
  6
CONTINUOUS
 62
   250
 48
12.0
100
AcDbLine
 10
54.9936
 20
105.7728
 30
0.0
 11
54.8004
 21
105.6336
 31
0.0
  0
LINE
  5
F8
330
1F
100
AcDbEntity
  8
0
  6
CONTINUOUS
 62
   250
 48
12.0
100
AcDbLine
 10
54.7944
 20
105.8712
 30
0.0
 11
54.8004
 21
105.6336
 31
0.0
  0
LINE
  5
F9
330
1F
100
AcDbEntity
  8
0
  6
CONTINUOUS
 62
   250
 48
12.0
100
AcDbLine
 10
55.19279999999999
 20
105.6744
 30
0.0
 11
54.9996
 21
105.534
 31
0.0
  0
LINE
  5
FA
330
1F
100
AcDbEntity
  8
0
  6
CONTINUOUS
 62
   250
 48
12.0
100
AcDbLine
 10
54.9936
 20
105.7728
 30
0.0
 11
54.9996
 21
105.534
 31
0.0
  0
LINE
  5
FB
330
1F
100
AcDbEntity
  8
0
  6
CONTINUOUS
 62
   250
 48
12.0
100
AcDbLine
 10
55.39200000000001
 20
105.576
 30
0.0
 11
55.19879999999999
 21
105.4356
 31
0.0
  0
LINE
  5
FC
330
1F
100
AcDbEntity
  8
0
  6
CONTINUOUS
 62
   250
 48
12.0
100
AcDbLine
 10
55.19279999999999
 20
105.6744
 30
0.0
 11
55.19879999999999
 21
105.4356
 31
0.0
  0
LINE
  5
FD
330
1F
100
AcDbEntity
  8
0
  6
CONTINUOUS
 62
   250
 48
12.0
100
AcDbLine
 10
55.5912
 20
105.4764
 30
0.0
 11
55.39799999999998
 21
105.3372
 31
0.0
  0
LINE
  5
FE
330
1F
100
AcDbEntity
  8
0
  6
CONTINUOUS
 62
   250
 48
12.0
100
AcDbLine
 10
55.39200000000001
 20
105.576
 30
0.0
 11
55.39799999999998
 21
105.3372
 31
0.0
  0
LINE
  5
FF
330
1F
100
AcDbEntity
  8
0
  6
CONTINUOUS
 62
   250
 48
12.0
100
AcDbLine
 10
55.79159999999999
 20
105.378
 30
0.0
 11
55.5972
 21
105.2376
 31
0.0
  0
LINE
  5
100
330
1F
100
AcDbEntity
  8
0
  6
CONTINUOUS
 62
   250
 48
12.0
100
AcDbLine
 10
55.5912
 20
105.4764
 30
0.0
 11
55.5972
 21
105.2376
 31
0.0
  0
LINE
  5
101
330
1F
100
AcDbEntity
  8
0
  6
CONTINUOUS
 62
   250
 48
12.0
100
AcDbLine
 10
55.99079999999999
 20
105.2796
 30
0.0
 11
55.79639999999999
 21
105.1392
 31
0.0
  0
LINE
  5
102
330
1F
100
AcDbEntity
  8
0
  6
CONTINUOUS
 62
   250
 48
12.0
100
AcDbLine
 10
55.79159999999999
 20
105.378
 30
0.0
 11
55.79639999999999
 21
105.1392
 31
0.0
  0
LINE
  5
103
330
1F
100
AcDbEntity
  8
0
  6
CONTINUOUS
 62
   250
 48
12.0
100
AcDbLine
 10
56.19
 20
105.1812
 30
0.0
 11
55.99679999999999
 21
105.0408
 31
0.0
  0
LINE
  5
104
330
1F
100
AcDbEntity
  8
0
  6
CONTINUOUS
 62
   250
 48
12.0
100
AcDbLine
 10
55.99079999999999
 20
105.2796
 30
0.0
 11
55.99679999999999
 21
105.0408
 31
0.0
  0
LINE
  5
105
330
1F
100
AcDbEntity
  8
0
  6
CONTINUOUS
 62
   250
 48
12.0
100
AcDbLine
 10
56.3892
 20
105.0816
 30
0.0
 11
56.19600000000001
 21
104.9424
 31
0.0
  0
LINE
  5
106
330
1F
100
AcDbEntity
  8
0
  6
CONTINUOUS
 62
   250
 48
12.0
100
AcDbLine
 10
56.19
 20
105.1812
 30
0.0
 11
56.19600000000001
 21
104.9424
 31
0.0
  0
LINE
  5
107
330
1F
100
AcDbEntity
  8
0
  6
CONTINUOUS
 62
   250
 48
12.0
100
AcDbLine
 10
56.58840000000001
 20
104.9832
 30
0.0
 11
56.39519999999999
 21
104.8428
 31
0.0
  0
LINE
  5
108
330
1F
100
AcDbEntity
  8
0
  6
CONTINUOUS
 62
   250
 48
12.0
100
AcDbLine
 10
56.3892
 20
105.0816
 30
0.0
 11
56.39519999999999
 21
104.8428
 31
0.0
  0
LINE
  5
109
330
1F
100
AcDbEntity
  8
0
  6
CONTINUOUS
 62
   250
 48
12.0
100
AcDbLine
 10
56.78759999999998
 20
104.8848
 30
0.0
 11
56.59439999999999
 21
104.7444
 31
0.0
  0
LINE
  5
10A
330
1F
100
AcDbEntity
  8
0
  6
CONTINUOUS
 62
   250
 48
12.0
100
AcDbLine
 10
56.58840000000001
 20
104.9832
 30
0.0
 11
56.59439999999999
 21
104.7444
 31
0.0
  0
LINE
  5
10B
330
1F
100
AcDbEntity
  8
0
  6
CONTINUOUS
 62
   250
 48
12.0
100
AcDbLine
 10
56.9868
 20
104.7852
 30
0.0
 11
56.7936
 21
104.646
 31
0.0
  0
LINE
  5
10C
330
1F
100
AcDbEntity
  8
0
  6
CONTINUOUS
 62
   250
 48
12.0
100
AcDbLine
 10
56.78759999999998
 20
104.8848
 30
0.0
 11
56.7936
 21
104.646
 31
0.0
  0
LINE
  5
10D
330
1F
100
AcDbEntity
  8
0
  6
CONTINUOUS
 62
   250
 48
12.0
100
AcDbLine
 10
57.1872
 20
104.6868
 30
0.0
 11
56.9928
 21
104.5464
 31
0.0
  0
LINE
  5
10E
330
1F
100
AcDbEntity
  8
0
  6
CONTINUOUS
 62
   250
 48
12.0
100
AcDbLine
 10
56.9868
 20
104.7852
 30
0.0
 11
56.9928
 21
104.5464
 31
0.0
  0
LINE
  5
10F
330
1F
100
AcDbEntity
  8
0
  6
CONTINUOUS
 62
   250
 48
12.0
100
AcDbLine
 10
57.38639999999999
 20
104.5884
 30
0.0
 11
57.19200000000001
 21
104.448
 31
0.0
  0
LINE
  5
110
330
1F
100
AcDbEntity
  8
0
  6
CONTINUOUS
 62
   250
 48
12.0
100
AcDbLine
 10
57.1872
 20
104.6868
 30
0.0
 11
57.19200000000001
 21
104.448
 31
0.0
  0
LINE
  5
111
330
1F
100
AcDbEntity
  8
0
  6
CONTINUOUS
 62
   250
 48
12.0
100
AcDbLine
 10
57.58560000000001
 20
104.49
 30
0.0
 11
57.39239999999999
 21
104.3496
 31
0.0
  0
LINE
  5
112
330
1F
100
AcDbEntity
  8
0
  6
CONTINUOUS
 62
   250
 48
12.0
100
AcDbLine
 10
57.38639999999999
 20
104.5884
 30
0.0
 11
57.39239999999999
 21
104.3496
 31
0.0
  0
LINE
  5
113
330
1F
100
AcDbEntity
  8
0
  6
CONTINUOUS
 62
   250
 48
12.0
100
AcDbLine
 10
57.78479999999999
 20
104.3904
 30
0.0
 11
57.59159999999999
 21
104.2512
 31
0.0
  0
LINE
  5
114
330
1F
100
AcDbEntity
  8
0
  6
CONTINUOUS
 62
   250
 48
12.0
100
AcDbLine
 10
57.58560000000001
 20
104.49
 30
0.0
 11
57.59159999999999
 21
104.2512
 31
0.0
  0
LINE
  5
115
330
1F
100
AcDbEntity
  8
0
  6
CONTINUOUS
 62
   250
 48
12.0
100
AcDbLine
 10
57.98399999999999
 20
104.292
 30
0.0
 11
57.7908
 21
104.1516
 31
0.0
  0
LINE
  5
116
330
1F
100
AcDbEntity
  8
0
  6
CONTINUOUS
 62
   250
 48
12.0
100
AcDbLine
 10
57.78479999999999
 20
104.3904
 30
0.0
 11
57.7908
 21
104.1516
 31
0.0
  0
LINE
  5
117
330
1F
100
AcDbEntity
  8
0
  6
CONTINUOUS
 62
   250
 48
12.0
100
AcDbLine
 10
58.1832
 20
104.1936
 30
0.0
 11
57.98999999999999
 21
104.0532
 31
0.0
  0
LINE
  5
118
330
1F
100
AcDbEntity
  8
0
  6
CONTINUOUS
 62
   250
 48
12.0
100
AcDbLine
 10
57.98399999999999
 20
104.292
 30
0.0
 11
57.98999999999999
 21
104.0532
 31
0.0
  0
LINE
  5
119
330
1F
100
AcDbEntity
  8
0
  6
CONTINUOUS
 62
   250
 48
12.0
100
AcDbLine
 10
58.3824
 20
104.094
 30
0.0
 11
58.18920000000001
 21
103.9548
 31
0.0
  0
LINE
  5
11A
330
1F
100
AcDbEntity
  8
0
  6
CONTINUOUS
 62
   250
 48
12.0
100
AcDbLine
 10
58.1832
 20
104.1936
 30
0.0
 11
58.18920000000001
 21
103.9548
 31
0.0
  0
LINE
  5
11B
330
1F
100
AcDbEntity
  8
0
  6
CONTINUOUS
 62
   250
 48
12.0
100
AcDbLine
 10
58.58280000000001
 20
103.9956
 30
0.0
 11
58.38839999999999
 21
103.8564
 31
0.0
  0
LINE
  5
11C
330
1F
100
AcDbEntity
  8
0
  6
CONTINUOUS
 62
   250
 48
12.0
100
AcDbLine
 10
58.3824
 20
104.094
 30
0.0
 11
58.38839999999999
 21
103.8564
 31
0.0
  0
LINE
  5
11D
330
1F
100
AcDbEntity
  8
0
  6
CONTINUOUS
 62
   250
 48
12.0
100
AcDbLine
 10
58.782
 20
103.8972
 30
0.0
 11
58.58759999999999
 21
103.7568
 31
0.0
  0
LINE
  5
11E
330
1F
100
AcDbEntity
  8
0
  6
CONTINUOUS
 62
   250
 48
12.0
100
AcDbLine
 10
58.58280000000001
 20
103.9956
 30
0.0
 11
58.58759999999999
 21
103.7568
 31
0.0
  0
LINE
  5
11F
330
1F
100
AcDbEntity
  8
0
  6
CONTINUOUS
 62
   250
 48
12.0
100
AcDbLine
 10
58.98119999999999
 20
103.7988
 30
0.0
 11
58.788
 21
103.6584
 31
0.0
  0
LINE
  5
120
330
1F
100
AcDbEntity
  8
0
  6
CONTINUOUS
 62
   250
 48
12.0
100
AcDbLine
 10
58.782
 20
103.8972
 30
0.0
 11
58.788
 21
103.6584
 31
0.0
  0
LINE
  5
121
330
1F
100
AcDbEntity
  8
0
  6
CONTINUOUS
 62
   250
 48
12.0
100
AcDbLine
 10
59.18040000000001
 20
103.6992
 30
0.0
 11
58.9872
 21
103.56
 31
0.0
  0
LINE
  5
122
330
1F
100
AcDbEntity
  8
0
  6
CONTINUOUS
 62
   250
 48
12.0
100
AcDbLine
 10
58.98119999999999
 20
103.7988
 30
0.0
 11
58.9872
 21
103.56
 31
0.0
  0
LINE
  5
123
330
1F
100
AcDbEntity
  8
0
  6
CONTINUOUS
 62
   250
 48
12.0
100
AcDbLine
 10
59.3796
 20
103.6008
 30
0.0
 11
59.18640000000001
 21
103.4604
 31
0.0
  0
LINE
  5
124
330
1F
100
AcDbEntity
  8
0
  6
CONTINUOUS
 62
   250
 48
12.0
100
AcDbLine
 10
59.18040000000001
 20
103.6992
 30
0.0
 11
59.18640000000001
 21
103.4604
 31
0.0
  0
LINE
  5
125
330
1F
100
AcDbEntity
  8
0
  6
CONTINUOUS
 62
   250
 48
12.0
100
AcDbLine
 10
59.57880000000002
 20
103.5024
 30
0.0
 11
59.3856
 21
103.362
 31
0.0
  0
LINE
  5
126
330
1F
100
AcDbEntity
  8
0
  6
CONTINUOUS
 62
   250
 48
12.0
100
AcDbLine
 10
59.3796
 20
103.6008
 30
0.0
 11
59.3856
 21
103.362
 31
0.0
  0
LINE
  5
127
330
1F
100
AcDbEntity
  8
0
  6
CONTINUOUS
 62
   250
 48
12.0
100
AcDbLine
 10
59.77799999999999
 20
103.4028
 30
0.0
 11
59.58479999999999
 21
103.2636
 31
0.0
  0
LINE
  5
128
330
1F
100
AcDbEntity
  8
0
  6
CONTINUOUS
 62
   250
 48
12.0
100
AcDbLine
 10
59.57880000000002
 20
103.5024
 30
0.0
 11
59.58479999999999
 21
103.2636
 31
0.0
  0
LINE
  5
129
330
1F
100
AcDbEntity
  8
0
  6
CONTINUOUS
 62
   250
 48
12.0
100
AcDbLine
 10
59.9772
 20
103.3044
 30
0.0
 11
59.78400000000001
 21
103.1652
 31
0.0
  0
LINE
  5
12A
330
1F
100
AcDbEntity
  8
0
  6
CONTINUOUS
 62
   250
 48
12.0
100
AcDbLine
 10
59.77799999999999
 20
103.4028
 30
0.0
 11
59.78400000000001
 21
103.1652
 31
0.0
  0
LINE
  5
12B
330
1F
100
AcDbEntity
  8
0
  6
CONTINUOUS
 62
   250
 48
12.0
100
AcDbLine
 10
60.1776
 20
103.206
 30
0.0
 11
59.9832
 21
103.0656
 31
0.0
  0
LINE
  5
12C
330
1F
100
AcDbEntity
  8
0
  6
CONTINUOUS
 62
   250
 48
12.0
100
AcDbLine
 10
59.9772
 20
103.3044
 30
0.0
 11
59.9832
 21
103.0656
 31
0.0
  0
LINE
  5
12D
330
1F
100
AcDbEntity
  8
0
  6
CONTINUOUS
 62
   250
 48
12.0
100
AcDbLine
 10
60.3768
 20
103.1076
 30
0.0
 11
60.1836
 21
102.9672
 31
0.0
  0
LINE
  5
12E
330
1F
100
AcDbEntity
  8
0
  6
CONTINUOUS
 62
   250
 48
12.0
100
AcDbLine
 10
60.1776
 20
103.206
 30
0.0
 11
60.1836
 21
102.9672
 31
0.0
  0
LINE
  5
12F
330
1F
100
AcDbEntity
  8
0
  6
CONTINUOUS
 62
   250
 48
12.0
100
AcDbLine
 10
60.57600000000001
 20
103.008
 30
0.0
 11
60.38279999999999
 21
102.8688
 31
0.0
  0
LINE
  5
130
330
1F
100
AcDbEntity
  8
0
  6
CONTINUOUS
 62
   250
 48
12.0
100
AcDbLine
 10
60.3768
 20
103.1076
 30
0.0
 11
60.38279999999999
 21
102.8688
 31
0.0
  0
LINE
  5
131
330
1F
100
AcDbEntity
  8
0
  6
CONTINUOUS
 62
   250
 48
12.0
100
AcDbLine
 10
60.7752
 20
102.9096
 30
0.0
 11
60.58199999999999
 21
102.7692
 31
0.0
  0
LINE
  5
132
330
1F
100
AcDbEntity
  8
0
  6
CONTINUOUS
 62
   250
 48
12.0
100
AcDbLine
 10
60.57600000000001
 20
103.008
 30
0.0
 11
60.58199999999999
 21
102.7692
 31
0.0
  0
LINE
  5
133
330
1F
100
AcDbEntity
  8
0
  6
CONTINUOUS
 62
   250
 48
12.0
100
AcDbLine
 10
60.97439999999999
 20
102.8112
 30
0.0
 11
60.7812
 21
102.6708
 31
0.0
  0
LINE
  5
134
330
1F
100
AcDbEntity
  8
0
  6
CONTINUOUS
 62
   250
 48
12.0
100
AcDbLine
 10
60.7752
 20
102.9096
 30
0.0
 11
60.7812
 21
102.6708
 31
0.0
  0
LINE
  5
135
330
1F
100
AcDbEntity
  8
0
  6
CONTINUOUS
 62
   250
 48
12.0
100
AcDbLine
 10
61.17360000000001
 20
102.7128
 30
0.0
 11
60.9804
 21
102.5724
 31
0.0
  0
LINE
  5
136
330
1F
100
AcDbEntity
  8
0
  6
CONTINUOUS
 62
   250
 48
12.0
100
AcDbLine
 10
60.97439999999999
 20
102.8112
 30
0.0
 11
60.9804
 21
102.5724
 31
0.0
  0
LINE
  5
137
330
1F
100
AcDbEntity
  8
0
  6
CONTINUOUS
 62
   250
 48
12.0
100
AcDbLine
 10
61.3728
 20
102.6132
 30
0.0
 11
61.17960000000001
 21
102.474
 31
0.0
  0
LINE
  5
138
330
1F
100
AcDbEntity
  8
0
  6
CONTINUOUS
 62
   250
 48
12.0
100
AcDbLine
 10
61.17360000000001
 20
102.7128
 30
0.0
 11
61.17960000000001
 21
102.474
 31
0.0
  0
LINE
  5
139
330
1F
100
AcDbEntity
  8
0
  6
CONTINUOUS
 62
   250
 48
12.0
100
AcDbLine
 10
61.5732
 20
102.5148
 30
0.0
 11
61.3788
 21
102.3744
 31
0.0
  0
LINE
  5
13A
330
1F
100
AcDbEntity
  8
0
  6
CONTINUOUS
 62
   250
 48
12.0
100
AcDbLine
 10
61.3728
 20
102.6132
 30
0.0
 11
61.3788
 21
102.3744
 31
0.0
  0
LINE
  5
13B
330
1F
100
AcDbEntity
  8
0
  6
CONTINUOUS
 62
   250
 48
12.0
100
AcDbLine
 10
61.77239999999999
 20
102.4164
 30
0.0
 11
61.5792
 21
102.276
 31
0.0
  0
LINE
  5
13C
330
1F
100
AcDbEntity
  8
0
  6
CONTINUOUS
 62
   250
 48
12.0
100
AcDbLine
 10
61.5732
 20
102.5148
 30
0.0
 11
61.5792
 21
102.276
 31
0.0
  0
LINE
  5
13D
330
1F
100
AcDbEntity
  8
0
  6
CONTINUOUS
 62
   250
 48
12.0
100
AcDbLine
 10
61.9716
 20
102.3168
 30
0.0
 11
61.77839999999999
 21
102.1776
 31
0.0
  0
LINE
  5
13E
330
1F
100
AcDbEntity
  8
0
  6
CONTINUOUS
 62
   250
 48
12.0
100
AcDbLine
 10
61.77239999999999
 20
102.4164
 30
0.0
 11
61.77839999999999
 21
102.1776
 31
0.0
  0
LINE
  5
13F
330
1F
100
AcDbEntity
  8
0
  6
CONTINUOUS
 62
   250
 48
12.0
100
AcDbLine
 10
62.1708
 20
102.2184
 30
0.0
 11
61.97760000000001
 21
102.078
 31
0.0
  0
LINE
  5
140
330
1F
100
AcDbEntity
  8
0
  6
CONTINUOUS
 62
   250
 48
12.0
100
AcDbLine
 10
61.9716
 20
102.3168
 30
0.0
 11
61.97760000000001
 21
102.078
 31
0.0
  0
LINE
  5
141
330
1F
100
AcDbEntity
  8
0
  6
CONTINUOUS
 62
   250
 48
12.0
100
AcDbLine
 10
62.37
 20
102.12
 30
0.0
 11
62.1768
 21
101.9796
 31
0.0
  0
LINE
  5
142
330
1F
100
AcDbEntity
  8
0
  6
CONTINUOUS
 62
   250
 48
12.0
100
AcDbLine
 10
62.1708
 20
102.2184
 30
0.0
 11
62.1768
 21
101.9796
 31
0.0
  0
LINE
  5
143
330
1F
100
AcDbEntity
  8
0
  6
CONTINUOUS
 62
   250
 48
12.0
100
AcDbLine
 10
62.56919999999998
 20
102.0216
 30
0.0
 11
62.37599999999999
 21
101.8812
 31
0.0
  0
LINE
  5
144
330
1F
100
AcDbEntity
  8
0
  6
CONTINUOUS
 62
   250
 48
12.0
100
AcDbLine
 10
62.37
 20
102.12
 30
0.0
 11
62.37599999999999
 21
101.8812
 31
0.0
  0
LINE
  5
145
330
1F
100
AcDbEntity
  8
0
  6
CONTINUOUS
 62
   250
 48
12.0
100
AcDbLine
 10
62.7684
 20
101.922
 30
0.0
 11
62.5752
 21
101.7828
 31
0.0
  0
LINE
  5
146
330
1F
100
AcDbEntity
  8
0
  6
CONTINUOUS
 62
   250
 48
12.0
100
AcDbLine
 10
62.56919999999998
 20
102.0216
 30
0.0
 11
62.5752
 21
101.7828
 31
0.0
  0
LINE
  5
147
330
1F
100
AcDbEntity
  8
0
  6
CONTINUOUS
 62
   250
 48
12.0
100
AcDbLine
 10
62.9688
 20
101.8236
 30
0.0
 11
62.7744
 21
101.6832
 31
0.0
  0
LINE
  5
148
330
1F
100
AcDbEntity
  8
0
  6
CONTINUOUS
 62
   250
 48
12.0
100
AcDbLine
 10
62.7684
 20
101.922
 30
0.0
 11
62.7744
 21
101.6832
 31
0.0
  0
LINE
  5
149
330
1F
100
AcDbEntity
  8
0
  6
CONTINUOUS
 62
   250
 48
12.0
100
AcDbLine
 10
63.16799999999999
 20
101.7252
 30
0.0
 11
62.9748
 21
101.5848
 31
0.0
  0
LINE
  5
14A
330
1F
100
AcDbEntity
  8
0
  6
CONTINUOUS
 62
   250
 48
12.0
100
AcDbLine
 10
62.9688
 20
101.8236
 30
0.0
 11
62.9748
 21
101.5848
 31
0.0
  0
LINE
  5
14B
330
1F
100
AcDbEntity
  8
0
  6
CONTINUOUS
 62
   250
 48
12.0
100
AcDbLine
 10
63.36720000000001
 20
101.6256
 30
0.0
 11
63.17400000000001
 21
101.4864
 31
0.0
  0
LINE
  5
14C
330
1F
100
AcDbEntity
  8
0
  6
CONTINUOUS
 62
   250
 48
12.0
100
AcDbLine
 10
63.16799999999999
 20
101.7252
 30
0.0
 11
63.17400000000001
 21
101.4864
 31
0.0
  0
LINE
  5
14D
330
1F
100
AcDbEntity
  8
0
  6
CONTINUOUS
 62
   250
 48
12.0
100
AcDbLine
 10
63.5664
 20
101.5272
 30
0.0
 11
63.37319999999998
 21
101.3868
 31
0.0
  0
LINE
  5
14E
330
1F
100
AcDbEntity
  8
0
  6
CONTINUOUS
 62
   250
 48
12.0
100
AcDbLine
 10
63.36720000000001
 20
101.6256
 30
0.0
 11
63.37319999999998
 21
101.3868
 31
0.0
  0
LINE
  5
14F
330
1F
100
AcDbEntity
  8
0
  6
CONTINUOUS
 62
   250
 48
12.0
100
AcDbLine
 10
63.76559999999999
 20
101.4288
 30
0.0
 11
63.5724
 21
101.2884
 31
0.0
  0
LINE
  5
150
330
1F
100
AcDbEntity
  8
0
  6
CONTINUOUS
 62
   250
 48
12.0
100
AcDbLine
 10
63.5664
 20
101.5272
 30
0.0
 11
63.5724
 21
101.2884
 31
0.0
  0
LINE
  5
151
330
1F
100
AcDbEntity
  8
0
  6
CONTINUOUS
 62
   250
 48
12.0
100
AcDbLine
 10
63.9648
 20
101.3304
 30
0.0
 11
63.77159999999999
 21
101.19
 31
0.0
  0
LINE
  5
152
330
1F
100
AcDbEntity
  8
0
  6
CONTINUOUS
 62
   250
 48
12.0
100
AcDbLine
 10
63.76559999999999
 20
101.4288
 30
0.0
 11
63.77159999999999
 21
101.19
 31
0.0
  0
LINE
  5
153
330
1F
100
AcDbEntity
  8
0
  6
CONTINUOUS
 62
   250
 48
12.0
100
AcDbLine
 10
64.164
 20
101.2308
 30
0.0
 11
63.97080000000001
 21
101.0916
 31
0.0
  0
LINE
  5
154
330
1F
100
AcDbEntity
  8
0
  6
CONTINUOUS
 62
   250
 48
12.0
100
AcDbLine
 10
63.9648
 20
101.3304
 30
0.0
 11
63.97080000000001
 21
101.0916
 31
0.0
  0
LINE
  5
155
330
1F
100
AcDbEntity
  8
0
  6
CONTINUOUS
 62
   250
 48
12.0
100
AcDbLine
 10
64.3644
 20
101.1324
 30
0.0
 11
64.17
 21
100.992
 31
0.0
  0
LINE
  5
156
330
1F
100
AcDbEntity
  8
0
  6
CONTINUOUS
 62
   250
 48
12.0
100
AcDbLine
 10
64.164
 20
101.2308
 30
0.0
 11
64.17
 21
100.992
 31
0.0
  0
LINE
  5
157
330
1F
100
AcDbEntity
  8
0
  6
CONTINUOUS
 62
   250
 48
12.0
100
AcDbLine
 10
64.56360000000001
 20
101.034
 30
0.0
 11
64.37039999999999
 21
100.8936
 31
0.0
  0
LINE
  5
158
330
1F
100
AcDbEntity
  8
0
  6
CONTINUOUS
 62
   250
 48
12.0
100
AcDbLine
 10
64.3644
 20
101.1324
 30
0.0
 11
64.37039999999999
 21
100.8936
 31
0.0
  0
LINE
  5
159
330
1F
100
AcDbEntity
  8
0
  6
CONTINUOUS
 62
   250
 48
12.0
100
AcDbLine
 10
64.76279999999998
 20
100.9344
 30
0.0
 11
64.5696
 21
100.7952
 31
0.0
  0
LINE
  5
15A
330
1F
100
AcDbEntity
  8
0
  6
CONTINUOUS
 62
   250
 48
12.0
100
AcDbLine
 10
64.56360000000001
 20
101.034
 30
0.0
 11
64.5696
 21
100.7952
 31
0.0
  0
LINE
  5
15B
330
1F
100
AcDbEntity
  8
0
  6
CONTINUOUS
 62
   250
 48
12.0
100
AcDbLine
 10
64.962
 20
100.836
 30
0.0
 11
64.7688
 21
100.6968
 31
0.0
  0
LINE
  5
15C
330
1F
100
AcDbEntity
  8
0
  6
CONTINUOUS
 62
   250
 48
12.0
100
AcDbLine
 10
64.76279999999998
 20
100.9344
 30
0.0
 11
64.7688
 21
100.6968
 31
0.0
  0
LINE
  5
15D
330
1F
100
AcDbEntity
  8
0
  6
CONTINUOUS
 62
   250
 48
12.0
100
AcDbLine
 10
65.1612
 20
100.7376
 30
0.0
 11
64.968
 21
100.5972
 31
0.0
  0
LINE
  5
15E
330
1F
100
AcDbEntity
  8
0
  6
CONTINUOUS
 62
   250
 48
12.0
100
AcDbLine
 10
64.962
 20
100.836
 30
0.0
 11
64.968
 21
100.5972
 31
0.0
  0
LINE
  5
15F
330
1F
100
AcDbEntity
  8
0
  6
CONTINUOUS
 62
   250
 48
12.0
100
AcDbLine
 10
65.36040000000001
 20
100.6392
 30
0.0
 11
65.16720000000001
 21
100.4988
 31
0.0
  0
LINE
  5
160
330
1F
100
AcDbEntity
  8
0
  6
CONTINUOUS
 62
   250
 48
12.0
100
AcDbLine
 10
65.1612
 20
100.7376
 30
0.0
 11
65.16720000000001
 21
100.4988
 31
0.0
  0
LINE
  5
161
330
1F
100
AcDbEntity
  8
0
  6
CONTINUOUS
 62
   250
 48
12.0
100
AcDbLine
 10
65.55959999999999
 20
100.5396
 30
0.0
 11
65.36639999999998
 21
100.4004
 31
0.0
  0
LINE
  5
162
330
1F
100
AcDbEntity
  8
0
  6
CONTINUOUS
 62
   250
 48
12.0
100
AcDbLine
 10
65.36040000000001
 20
100.6392
 30
0.0
 11
65.36639999999998
 21
100.4004
 31
0.0
  0
LINE
  5
163
330
1F
100
AcDbEntity
  8
0
  6
CONTINUOUS
 62
   250
 48
12.0
100
AcDbLine
 10
65.75999999999999
 20
100.4412
 30
0.0
 11
65.5656
 21
100.3008
 31
0.0
  0
LINE
  5
164
330
1F
100
AcDbEntity
  8
0
  6
CONTINUOUS
 62
   250
 48
12.0
100
AcDbLine
 10
65.55959999999999
 20
100.5396
 30
0.0
 11
65.5656
 21
100.3008
 31
0.0
  0
LINE
  5
165
330
1F
100
AcDbEntity
  8
0
  6
CONTINUOUS
 62
   250
 48
12.0
100
AcDbLine
 10
65.9592
 20
100.3428
 30
0.0
 11
65.766
 21
100.2024
 31
0.0
  0
LINE
  5
166
330
1F
100
AcDbEntity
  8
0
  6
CONTINUOUS
 62
   250
 48
12.0
100
AcDbLine
 10
65.75999999999999
 20
100.4412
 30
0.0
 11
65.766
 21
100.2024
 31
0.0
  0
LINE
  5
167
330
1F
100
AcDbEntity
  8
0
  6
CONTINUOUS
 62
   250
 48
12.0
100
AcDbLine
 10
66.1584
 20
100.2432
 30
0.0
 11
65.9652
 21
100.104
 31
0.0
  0
LINE
  5
168
330
1F
100
AcDbEntity
  8
0
  6
CONTINUOUS
 62
   250
 48
12.0
100
AcDbLine
 10
65.9592
 20
100.3428
 30
0.0
 11
65.9652
 21
100.104
 31
0.0
  0
LINE
  5
169
330
1F
100
AcDbEntity
  8
0
  6
CONTINUOUS
 62
   250
 48
12.0
100
AcDbLine
 10
66.3576
 20
100.1448
 30
0.0
 11
66.16440000000001
 21
100.0056
 31
0.0
  0
LINE
  5
16A
330
1F
100
AcDbEntity
  8
0
  6
CONTINUOUS
 62
   250
 48
12.0
100
AcDbLine
 10
66.1584
 20
100.2432
 30
0.0
 11
66.16440000000001
 21
100.0056
 31
0.0
  0
LINE
  5
16B
330
1F
100
AcDbEntity
  8
0
  6
CONTINUOUS
 62
   250
 48
12.0
100
AcDbLine
 10
66.5568
 20
100.0464
 30
0.0
 11
66.36359999999999
 21
99.90599999999999
 31
0.0
  0
LINE
  5
16C
330
1F
100
AcDbEntity
  8
0
  6
CONTINUOUS
 62
   250
 48
12.0
100
AcDbLine
 10
66.3576
 20
100.1448
 30
0.0
 11
66.36359999999999
 21
99.90599999999999
 31
0.0
  0
LINE
  5
16D
330
1F
100
AcDbEntity
  8
0
  6
CONTINUOUS
 62
   250
 48
12.0
100
AcDbLine
 10
66.75599999999999
 20
99.94800000000001
 30
0.0
 11
66.5628
 21
99.8076
 31
0.0
  0
LINE
  5
16E
330
1F
100
AcDbEntity
  8
0
  6
CONTINUOUS
 62
   250
 48
12.0
100
AcDbLine
 10
66.5568
 20
100.0464
 30
0.0
 11
66.5628
 21
99.8076
 31
0.0
  0
LINE
  5
16F
330
1F
100
AcDbEntity
  8
0
  6
CONTINUOUS
 62
   250
 48
12.0
100
AcDbLine
 10
66.9552
 20
99.84840000000001
 30
0.0
 11
66.762
 21
99.70920000000001
 31
0.0
  0
LINE
  5
170
330
1F
100
AcDbEntity
  8
0
  6
CONTINUOUS
 62
   250
 48
12.0
100
AcDbLine
 10
66.75599999999999
 20
99.94800000000001
 30
0.0
 11
66.762
 21
99.70920000000001
 31
0.0
  0
LINE
  5
171
330
1F
100
AcDbEntity
  8
0
  6
CONTINUOUS
 62
   250
 48
12.0
100
AcDbLine
 10
67.1556
 20
99.75
 30
0.0
 11
66.9612
 21
99.60960000000001
 31
0.0
  0
LINE
  5
172
330
1F
100
AcDbEntity
  8
0
  6
CONTINUOUS
 62
   250
 48
12.0
100
AcDbLine
 10
66.9552
 20
99.84840000000001
 30
0.0
 11
66.9612
 21
99.60960000000001
 31
0.0
  0
LINE
  5
173
330
1F
100
AcDbEntity
  8
0
  6
CONTINUOUS
 62
   250
 48
12.0
100
AcDbLine
 10
67.3548
 20
99.65159999999999
 30
0.0
 11
67.1616
 21
99.5112
 31
0.0
  0
LINE
  5
174
330
1F
100
AcDbEntity
  8
0
  6
CONTINUOUS
 62
   250
 48
12.0
100
AcDbLine
 10
67.1556
 20
99.75
 30
0.0
 11
67.1616
 21
99.5112
 31
0.0
  0
LINE
  5
175
330
1F
100
AcDbEntity
  8
0
  6
CONTINUOUS
 62
   250
 48
12.0
100
AcDbLine
 10
67.55399999999999
 20
99.55320000000002
 30
0.0
 11
67.3608
 21
99.41279999999999
 31
0.0
  0
LINE
  5
176
330
1F
100
AcDbEntity
  8
0
  6
CONTINUOUS
 62
   250
 48
12.0
100
AcDbLine
 10
67.3548
 20
99.65159999999999
 30
0.0
 11
67.3608
 21
99.41279999999999
 31
0.0
  0
LINE
  5
177
330
1F
100
AcDbEntity
  8
0
  6
CONTINUOUS
 62
   250
 48
12.0
100
AcDbLine
 10
67.75319999999999
 20
99.45360000000001
 30
0.0
 11
67.55999999999999
 21
99.31440000000002
 31
0.0
  0
LINE
  5
178
330
1F
100
AcDbEntity
  8
0
  6
CONTINUOUS
 62
   250
 48
12.0
100
AcDbLine
 10
67.55399999999999
 20
99.55320000000002
 30
0.0
 11
67.55999999999999
 21
99.31440000000002
 31
0.0
  0
LINE
  5
179
330
1F
100
AcDbEntity
  8
0
  6
CONTINUOUS
 62
   250
 48
12.0
100
AcDbLine
 10
67.9524
 20
99.35520000000001
 30
0.0
 11
67.7592
 21
99.21480000000001
 31
0.0
  0
LINE
  5
17A
330
1F
100
AcDbEntity
  8
0
  6
CONTINUOUS
 62
   250
 48
12.0
100
AcDbLine
 10
67.75319999999999
 20
99.45360000000001
 30
0.0
 11
67.7592
 21
99.21480000000001
 31
0.0
  0
LINE
  5
17B
330
1F
100
AcDbEntity
  8
0
  6
CONTINUOUS
 62
   250
 48
12.0
100
AcDbLine
 10
68.1516
 20
99.2568
 30
0.0
 11
67.9584
 21
99.11640000000001
 31
0.0
  0
LINE
  5
17C
330
1F
100
AcDbEntity
  8
0
  6
CONTINUOUS
 62
   250
 48
12.0
100
AcDbLine
 10
67.9524
 20
99.35520000000001
 30
0.0
 11
67.9584
 21
99.11640000000001
 31
0.0
  0
LINE
  5
17D
330
1F
100
AcDbEntity
  8
0
  6
CONTINUOUS
 62
   250
 48
12.0
100
AcDbLine
 10
68.3508
 20
99.1572
 30
0.0
 11
68.15759999999999
 21
99.018
 31
0.0
  0
LINE
  5
17E
330
1F
100
AcDbEntity
  8
0
  6
CONTINUOUS
 62
   250
 48
12.0
100
AcDbLine
 10
68.1516
 20
99.2568
 30
0.0
 11
68.15759999999999
 21
99.018
 31
0.0
  0
LINE
  5
17F
330
1F
100
AcDbEntity
  8
0
  6
CONTINUOUS
 62
   250
 48
12.0
100
AcDbLine
 10
68.55120000000001
 20
99.0588
 30
0.0
 11
68.35679999999999
 21
98.9184
 31
0.0
  0
LINE
  5
180
330
1F
100
AcDbEntity
  8
0
  6
CONTINUOUS
 62
   250
 48
12.0
100
AcDbLine
 10
68.3508
 20
99.1572
 30
0.0
 11
68.35679999999999
 21
98.9184
 31
0.0
  0
LINE
  5
181
330
1F
100
AcDbEntity
  8
0
  6
CONTINUOUS
 62
   250
 48
12.0
100
AcDbLine
 10
68.7504
 20
98.9604
 30
0.0
 11
68.556
 21
98.82
 31
0.0
  0
LINE
  5
182
330
1F
100
AcDbEntity
  8
0
  6
CONTINUOUS
 62
   250
 48
12.0
100
AcDbLine
 10
68.55120000000001
 20
99.0588
 30
0.0
 11
68.556
 21
98.82
 31
0.0
  0
LINE
  5
183
330
1F
100
AcDbEntity
  8
0
  6
CONTINUOUS
 62
   250
 48
12.0
100
AcDbLine
 10
68.94959999999999
 20
98.86200000000001
 30
0.0
 11
68.7564
 21
98.72160000000001
 31
0.0
  0
LINE
  5
184
330
1F
100
AcDbEntity
  8
0
  6
CONTINUOUS
 62
   250
 48
12.0
100
AcDbLine
 10
68.7504
 20
98.9604
 30
0.0
 11
68.7564
 21
98.72160000000001
 31
0.0
  0
LINE
  5
185
330
1F
100
AcDbEntity
  8
0
  6
CONTINUOUS
 62
   250
 48
12.0
100
AcDbLine
 10
69.14880000000001
 20
98.7624
 30
0.0
 11
68.9556
 21
98.62320000000001
 31
0.0
  0
LINE
  5
186
330
1F
100
AcDbEntity
  8
0
  6
CONTINUOUS
 62
   250
 48
12.0
100
AcDbLine
 10
68.94959999999999
 20
98.86200000000001
 30
0.0
 11
68.9556
 21
98.62320000000001
 31
0.0
  0
LINE
  5
187
330
1F
100
AcDbEntity
  8
0
  6
CONTINUOUS
 62
   250
 48
12.0
100
AcDbLine
 10
69.348
 20
98.664
 30
0.0
 11
69.15480000000001
 21
98.5236
 31
0.0
  0
LINE
  5
188
330
1F
100
AcDbEntity
  8
0
  6
CONTINUOUS
 62
   250
 48
12.0
100
AcDbLine
 10
69.14880000000001
 20
98.7624
 30
0.0
 11
69.15480000000001
 21
98.5236
 31
0.0
  0
LINE
  5
189
330
1F
100
AcDbEntity
  8
0
  6
CONTINUOUS
 62
   250
 48
12.0
100
AcDbLine
 10
69.54719999999999
 20
98.5656
 30
0.0
 11
69.354
 21
98.4252
 31
0.0
  0
LINE
  5
18A
330
1F
100
AcDbEntity
  8
0
  6
CONTINUOUS
 62
   250
 48
12.0
100
AcDbLine
 10
69.348
 20
98.664
 30
0.0
 11
69.354
 21
98.4252
 31
0.0
  0
LINE
  5
18B
330
1F
100
AcDbEntity
  8
0
  6
CONTINUOUS
 62
   250
 48
12.0
100
AcDbLine
 10
69.7464
 20
98.46600000000001
 30
0.0
 11
69.55319999999999
 21
98.3268
 31
0.0
  0
LINE
  5
18C
330
1F
100
AcDbEntity
  8
0
  6
CONTINUOUS
 62
   250
 48
12.0
100
AcDbLine
 10
69.54719999999999
 20
98.5656
 30
0.0
 11
69.55319999999999
 21
98.3268
 31
0.0
  0
LINE
  5
18D
330
1F
100
AcDbEntity
  8
0
  6
CONTINUOUS
 62
   250
 48
12.0
100
AcDbLine
 10
69.9468
 20
98.3676
 30
0.0
 11
69.75240000000001
 21
98.22840000000001
 31
0.0
  0
LINE
  5
18E
330
1F
100
AcDbEntity
  8
0
  6
CONTINUOUS
 62
   250
 48
12.0
100
AcDbLine
 10
69.7464
 20
98.46600000000001
 30
0.0
 11
69.75240000000001
 21
98.22840000000001
 31
0.0
  0
LINE
  5
18F
330
1F
100
AcDbEntity
  8
0
  6
CONTINUOUS
 62
   250
 48
12.0
100
AcDbLine
 10
70.146
 20
98.2692
 30
0.0
 11
69.9516
 21
98.1288
 31
0.0
  0
LINE
  5
190
330
1F
100
AcDbEntity
  8
0
  6
CONTINUOUS
 62
   250
 48
12.0
100
AcDbLine
 10
69.9468
 20
98.3676
 30
0.0
 11
69.9516
 21
98.1288
 31
0.0
  0
LINE
  5
191
330
1F
100
AcDbEntity
  8
0
  6
CONTINUOUS
 62
   250
 48
12.0
100
AcDbLine
 10
70.3452
 20
98.17080000000001
 30
0.0
 11
70.152
 21
98.0304
 31
0.0
  0
LINE
  5
192
330
1F
100
AcDbEntity
  8
0
  6
CONTINUOUS
 62
   250
 48
12.0
100
AcDbLine
 10
70.146
 20
98.2692
 30
0.0
 11
70.152
 21
98.0304
 31
0.0
  0
LINE
  5
193
330
1F
100
AcDbEntity
  8
0
  6
CONTINUOUS
 62
   250
 48
12.0
100
AcDbLine
 10
70.54439999999998
 20
98.07120000000002
 30
0.0
 11
70.35119999999999
 21
97.932
 31
0.0
  0
LINE
  5
194
330
1F
100
AcDbEntity
  8
0
  6
CONTINUOUS
 62
   250
 48
12.0
100
AcDbLine
 10
70.3452
 20
98.17080000000001
 30
0.0
 11
70.35119999999999
 21
97.932
 31
0.0
  0
LINE
  5
195
330
1F
100
AcDbEntity
  8
0
  6
CONTINUOUS
 62
   250
 48
12.0
100
AcDbLine
 10
70.7436
 20
97.9728
 30
0.0
 11
70.5504
 21
97.83240000000002
 31
0.0
  0
LINE
  5
196
330
1F
100
AcDbEntity
  8
0
  6
CONTINUOUS
 62
   250
 48
12.0
100
AcDbLine
 10
70.54439999999998
 20
98.07120000000002
 30
0.0
 11
70.5504
 21
97.83240000000002
 31
0.0
  0
LINE
  5
197
330
1F
100
AcDbEntity
  8
0
  6
CONTINUOUS
 62
   250
 48
12.0
100
AcDbLine
 10
70.94279999999999
 20
97.8744
 30
0.0
 11
70.7496
 21
97.73400000000001
 31
0.0
  0
LINE
  5
198
330
1F
100
AcDbEntity
  8
0
  6
CONTINUOUS
 62
   250
 48
12.0
100
AcDbLine
 10
70.7436
 20
97.9728
 30
0.0
 11
70.7496
 21
97.73400000000001
 31
0.0
  0
LINE
  5
199
330
1F
100
AcDbEntity
  8
0
  6
CONTINUOUS
 62
   250
 48
12.0
100
AcDbLine
 10
71.14200000000001
 20
97.7748
 30
0.0
 11
70.9488
 21
97.6356
 31
0.0
  0
LINE
  5
19A
330
1F
100
AcDbEntity
  8
0
  6
CONTINUOUS
 62
   250
 48
12.0
100
AcDbLine
 10
70.94279999999999
 20
97.8744
 30
0.0
 11
70.9488
 21
97.6356
 31
0.0
  0
LINE
  5
19B
330
1F
100
AcDbEntity
  8
0
  6
CONTINUOUS
 62
   250
 48
12.0
100
AcDbLine
 10
71.34240000000001
 20
97.67639999999999
 30
0.0
 11
71.14799999999998
 21
97.5372
 31
0.0
  0
LINE
  5
19C
330
1F
100
AcDbEntity
  8
0
  6
CONTINUOUS
 62
   250
 48
12.0
100
AcDbLine
 10
71.14200000000001
 20
97.7748
 30
0.0
 11
71.14799999999998
 21
97.5372
 31
0.0
  0
LINE
  5
19D
330
1F
100
AcDbEntity
  8
0
  6
CONTINUOUS
 62
   250
 48
12.0
100
AcDbLine
 10
71.54159999999999
 20
97.57800000000002
 30
0.0
 11
71.3472
 21
97.43759999999999
 31
0.0
  0
LINE
  5
19E
330
1F
100
AcDbEntity
  8
0
  6
CONTINUOUS
 62
   250
 48
12.0
100
AcDbLine
 10
71.34240000000001
 20
97.67639999999999
 30
0.0
 11
71.3472
 21
97.43759999999999
 31
0.0
  0
LINE
  5
19F
330
1F
100
AcDbEntity
  8
0
  6
CONTINUOUS
 62
   250
 48
12.0
100
AcDbLine
 10
71.7408
 20
97.4796
 30
0.0
 11
71.5476
 21
97.33920000000002
 31
0.0
  0
LINE
  5
1A0
330
1F
100
AcDbEntity
  8
0
  6
CONTINUOUS
 62
   250
 48
12.0
100
AcDbLine
 10
71.54159999999999
 20
97.57800000000002
 30
0.0
 11
71.5476
 21
97.33920000000002
 31
0.0
  0
LINE
  5
1A1
330
1F
100
AcDbEntity
  8
0
  6
CONTINUOUS
 62
   250
 48
12.0
100
AcDbLine
 10
71.94
 20
97.38000000000001
 30
0.0
 11
71.7468
 21
97.24080000000001
 31
0.0
  0
LINE
  5
1A2
330
1F
100
AcDbEntity
  8
0
  6
CONTINUOUS
 62
   250
 48
12.0
100
AcDbLine
 10
71.7408
 20
97.4796
 30
0.0
 11
71.7468
 21
97.24080000000001
 31
0.0
  0
LINE
  5
1A3
330
1F
100
AcDbEntity
  8
0
  6
CONTINUOUS
 62
   250
 48
12.0
100
AcDbLine
 10
72.1392
 20
97.2816
 30
0.0
 11
71.94600000000001
 21
97.14120000000001
 31
0.0
  0
LINE
  5
1A4
330
1F
100
AcDbEntity
  8
0
  6
CONTINUOUS
 62
   250
 48
12.0
100
AcDbLine
 10
71.94
 20
97.38000000000001
 30
0.0
 11
71.94600000000001
 21
97.14120000000001
 31
0.0
  0
LINE
  5
1A5
330
1F
100
AcDbEntity
  8
0
  6
CONTINUOUS
 62
   250
 48
12.0
100
AcDbLine
 10
72.33840000000001
 20
97.18320000000001
 30
0.0
 11
72.14519999999999
 21
97.0428
 31
0.0
  0
LINE
  5
1A6
330
1F
100
AcDbEntity
  8
0
  6
CONTINUOUS
 62
   250
 48
12.0
100
AcDbLine
 10
72.1392
 20
97.2816
 30
0.0
 11
72.14519999999999
 21
97.0428
 31
0.0
  0
LINE
  5
1A7
330
1F
100
AcDbEntity
  8
0
  6
CONTINUOUS
 62
   250
 48
12.0
100
AcDbLine
 10
72.53759999999998
 20
97.08480000000002
 30
0.0
 11
72.3444
 21
96.94439999999999
 31
0.0
  0
LINE
  5
1A8
330
1F
100
AcDbEntity
  8
0
  6
CONTINUOUS
 62
   250
 48
12.0
100
AcDbLine
 10
72.33840000000001
 20
97.18320000000001
 30
0.0
 11
72.3444
 21
96.94439999999999
 31
0.0
  0
LINE
  5
1A9
330
1F
100
AcDbEntity
  8
0
  6
CONTINUOUS
 62
   250
 48
12.0
100
AcDbLine
 10
72.73799999999999
 20
96.9852
 30
0.0
 11
72.5436
 21
96.84600000000002
 31
0.0
  0
LINE
  5
1AA
330
1F
100
AcDbEntity
  8
0
  6
CONTINUOUS
 62
   250
 48
12.0
100
AcDbLine
 10
72.53759999999998
 20
97.08480000000002
 30
0.0
 11
72.5436
 21
96.84600000000002
 31
0.0
  0
LINE
  5
1AB
330
1F
100
AcDbEntity
  8
0
  6
CONTINUOUS
 62
   250
 48
12.0
100
AcDbLine
 10
72.9372
 20
96.88680000000001
 30
0.0
 11
72.7428
 21
96.74640000000001
 31
0.0
  0
LINE
  5
1AC
330
1F
100
AcDbEntity
  8
0
  6
CONTINUOUS
 62
   250
 48
12.0
100
AcDbLine
 10
72.73799999999999
 20
96.9852
 30
0.0
 11
72.7428
 21
96.74640000000001
 31
0.0
  0
LINE
  5
1AD
330
1F
100
AcDbEntity
  8
0
  6
CONTINUOUS
 62
   250
 48
12.0
100
AcDbLine
 10
73.1364
 20
96.7884
 30
0.0
 11
72.9432
 21
96.64800000000001
 31
0.0
  0
LINE
  5
1AE
330
1F
100
AcDbEntity
  8
0
  6
CONTINUOUS
 62
   250
 48
12.0
100
AcDbLine
 10
72.9372
 20
96.88680000000001
 30
0.0
 11
72.9432
 21
96.64800000000001
 31
0.0
  0
LINE
  5
1AF
330
1F
100
AcDbEntity
  8
0
  6
CONTINUOUS
 62
   250
 48
12.0
100
AcDbLine
 10
73.33560000000001
 20
96.6888
 30
0.0
 11
73.1424
 21
96.5496
 31
0.0
  0
LINE
  5
1B0
330
1F
100
AcDbEntity
  8
0
  6
CONTINUOUS
 62
   250
 48
12.0
100
AcDbLine
 10
73.1364
 20
96.7884
 30
0.0
 11
73.1424
 21
96.5496
 31
0.0
  0
LINE
  5
1B1
330
1F
100
AcDbEntity
  8
0
  6
CONTINUOUS
 62
   250
 48
12.0
100
AcDbLine
 10
73.53479999999999
 20
96.5904
 30
0.0
 11
73.34159999999999
 21
96.45
 31
0.0
  0
LINE
  5
1B2
330
1F
100
AcDbEntity
  8
0
  6
CONTINUOUS
 62
   250
 48
12.0
100
AcDbLine
 10
73.33560000000001
 20
96.6888
 30
0.0
 11
73.34159999999999
 21
96.45
 31
0.0
  0
LINE
  5
1B3
330
1F
100
AcDbEntity
  8
0
  6
CONTINUOUS
 62
   250
 48
12.0
100
AcDbLine
 10
73.734
 20
96.492
 30
0.0
 11
73.5408
 21
96.3516
 31
0.0
  0
LINE
  5
1B4
330
1F
100
AcDbEntity
  8
0
  6
CONTINUOUS
 62
   250
 48
12.0
100
AcDbLine
 10
73.53479999999999
 20
96.5904
 30
0.0
 11
73.5408
 21
96.3516
 31
0.0
  0
LINE
  5
1B5
330
1F
100
AcDbEntity
  8
0
  6
CONTINUOUS
 62
   250
 48
12.0
100
AcDbLine
 10
73.9332
 20
96.3936
 30
0.0
 11
73.74
 21
96.2532
 31
0.0
  0
LINE
  5
1B6
330
1F
100
AcDbEntity
  8
0
  6
CONTINUOUS
 62
   250
 48
12.0
100
AcDbLine
 10
73.734
 20
96.492
 30
0.0
 11
73.74
 21
96.2532
 31
0.0
  0
LINE
  5
1B7
330
1F
100
AcDbEntity
  8
0
  6
CONTINUOUS
 62
   250
 48
12.0
100
AcDbLine
 10
74.1336
 20
96.294
 30
0.0
 11
73.93920000000001
 21
96.15480000000001
 31
0.0
  0
LINE
  5
1B8
330
1F
100
AcDbEntity
  8
0
  6
CONTINUOUS
 62
   250
 48
12.0
100
AcDbLine
 10
73.9332
 20
96.3936
 30
0.0
 11
73.93920000000001
 21
96.15480000000001
 31
0.0
  0
LINE
  5
1B9
330
1F
100
AcDbEntity
  8
0
  6
CONTINUOUS
 62
   250
 48
12.0
100
AcDbLine
 10
74.3328
 20
96.19560000000001
 30
0.0
 11
74.13839999999999
 21
96.0552
 31
0.0
  0
LINE
  5
1BA
330
1F
100
AcDbEntity
  8
0
  6
CONTINUOUS
 62
   250
 48
12.0
100
AcDbLine
 10
74.1336
 20
96.294
 30
0.0
 11
74.13839999999999
 21
96.0552
 31
0.0
  0
LINE
  5
1BB
330
1F
100
AcDbEntity
  8
0
  6
CONTINUOUS
 62
   250
 48
12.0
100
AcDbLine
 10
74.532
 20
96.0972
 30
0.0
 11
74.33879999999999
 21
95.9568
 31
0.0
  0
LINE
  5
1BC
330
1F
100
AcDbEntity
  8
0
  6
CONTINUOUS
 62
   250
 48
12.0
100
AcDbLine
 10
74.3328
 20
96.19560000000001
 30
0.0
 11
74.33879999999999
 21
95.9568
 31
0.0
  0
LINE
  5
1BD
330
1F
100
AcDbEntity
  8
0
  6
CONTINUOUS
 62
   250
 48
12.0
100
AcDbLine
 10
74.73119999999999
 20
95.9976
 30
0.0
 11
74.538
 21
95.8584
 31
0.0
  0
LINE
  5
1BE
330
1F
100
AcDbEntity
  8
0
  6
CONTINUOUS
 62
   250
 48
12.0
100
AcDbLine
 10
74.532
 20
96.0972
 30
0.0
 11
74.538
 21
95.8584
 31
0.0
  0
LINE
  5
1BF
330
1F
100
AcDbEntity
  8
0
  6
CONTINUOUS
 62
   250
 48
12.0
100
AcDbLine
 10
74.9304
 20
95.8992
 30
0.0
 11
74.7372
 21
95.76
 31
0.0
  0
LINE
  5
1C0
330
1F
100
AcDbEntity
  8
0
  6
CONTINUOUS
 62
   250
 48
12.0
100
AcDbLine
 10
74.73119999999999
 20
95.9976
 30
0.0
 11
74.7372
 21
95.76
 31
0.0
  0
LINE
  5
1C1
330
1F
100
AcDbEntity
  8
0
  6
CONTINUOUS
 62
   250
 48
12.0
100
AcDbLine
 10
75.1296
 20
95.8008
 30
0.0
 11
74.9364
 21
95.6604
 31
0.0
  0
LINE
  5
1C2
330
1F
100
AcDbEntity
  8
0
  6
CONTINUOUS
 62
   250
 48
12.0
100
AcDbLine
 10
74.9304
 20
95.8992
 30
0.0
 11
74.9364
 21
95.6604
 31
0.0
  0
LINE
  5
1C3
330
1F
100
AcDbEntity
  8
0
  6
CONTINUOUS
 62
   250
 48
12.0
100
AcDbLine
 10
75.32880000000002
 20
95.70240000000001
 30
0.0
 11
75.1356
 21
95.562
 31
0.0
  0
LINE
  5
1C4
330
1F
100
AcDbEntity
  8
0
  6
CONTINUOUS
 62
   250
 48
12.0
100
AcDbLine
 10
75.1296
 20
95.8008
 30
0.0
 11
75.1356
 21
95.562
 31
0.0
  0
LINE
  5
1C5
330
1F
100
AcDbEntity
  8
0
  6
CONTINUOUS
 62
   250
 48
12.0
100
AcDbLine
 10
75.52799999999999
 20
95.60280000000002
 30
0.0
 11
75.33479999999999
 21
95.46360000000001
 31
0.0
  0
LINE
  5
1C6
330
1F
100
AcDbEntity
  8
0
  6
CONTINUOUS
 62
   250
 48
12.0
100
AcDbLine
 10
75.32880000000002
 20
95.70240000000001
 30
0.0
 11
75.33479999999999
 21
95.46360000000001
 31
0.0
  0
LINE
  5
1C7
330
1F
100
AcDbEntity
  8
0
  6
CONTINUOUS
 62
   250
 48
12.0
100
AcDbLine
 10
75.7284
 20
95.5044
 30
0.0
 11
75.534
 21
95.36400000000002
 31
0.0
  0
LINE
  5
1C8
330
1F
100
AcDbEntity
  8
0
  6
CONTINUOUS
 62
   250
 48
12.0
100
AcDbLine
 10
75.52799999999999
 20
95.60280000000002
 30
0.0
 11
75.534
 21
95.36400000000002
 31
0.0
  0
LINE
  5
1C9
330
1F
100
AcDbEntity
  8
0
  6
CONTINUOUS
 62
   250
 48
12.0
100
AcDbLine
 10
75.9276
 20
95.40599999999999
 30
0.0
 11
75.73440000000001
 21
95.2656
 31
0.0
  0
LINE
  5
1CA
330
1F
100
AcDbEntity
  8
0
  6
CONTINUOUS
 62
   250
 48
12.0
100
AcDbLine
 10
75.7284
 20
95.5044
 30
0.0
 11
75.73440000000001
 21
95.2656
 31
0.0
  0
LINE
  5
1CB
330
1F
100
AcDbEntity
  8
0
  6
CONTINUOUS
 62
   250
 48
12.0
100
AcDbLine
 10
76.1268
 20
95.3064
 30
0.0
 11
75.9336
 21
95.1672
 31
0.0
  0
LINE
  5
1CC
330
1F
100
AcDbEntity
  8
0
  6
CONTINUOUS
 62
   250
 48
12.0
100
AcDbLine
 10
75.9276
 20
95.40599999999999
 30
0.0
 11
75.9336
 21
95.1672
 31
0.0
  0
LINE
  5
1CD
330
1F
100
AcDbEntity
  8
0
  6
CONTINUOUS
 62
   250
 48
12.0
100
AcDbLine
 10
76.32600000000001
 20
95.208
 30
0.0
 11
76.13279999999999
 21
95.06880000000001
 31
0.0
  0
LINE
  5
1CE
330
1F
100
AcDbEntity
  8
0
  6
CONTINUOUS
 62
   250
 48
12.0
100
AcDbLine
 10
76.1268
 20
95.3064
 30
0.0
 11
76.13279999999999
 21
95.06880000000001
 31
0.0
  0
LINE
  5
1CF
330
1F
100
AcDbEntity
  8
0
  6
CONTINUOUS
 62
   250
 48
12.0
100
AcDbLine
 10
76.5252
 20
95.10960000000001
 30
0.0
 11
76.332
 21
94.9692
 31
0.0
  0
LINE
  5
1D0
330
1F
100
AcDbEntity
  8
0
  6
CONTINUOUS
 62
   250
 48
12.0
100
AcDbLine
 10
76.32600000000001
 20
95.208
 30
0.0
 11
76.332
 21
94.9692
 31
0.0
  0
LINE
  5
1D1
330
1F
100
AcDbEntity
  8
0
  6
CONTINUOUS
 62
   250
 48
12.0
100
AcDbLine
 10
76.72439999999999
 20
95.0112
 30
0.0
 11
76.5312
 21
94.8708
 31
0.0
  0
LINE
  5
1D2
330
1F
100
AcDbEntity
  8
0
  6
CONTINUOUS
 62
   250
 48
12.0
100
AcDbLine
 10
76.5252
 20
95.10960000000001
 30
0.0
 11
76.5312
 21
94.8708
 31
0.0
  0
LINE
  5
1D3
330
1F
100
AcDbEntity
  8
0
  6
CONTINUOUS
 62
   250
 48
12.0
100
AcDbLine
 10
76.92360000000001
 20
94.9116
 30
0.0
 11
76.7304
 21
94.7724
 31
0.0
  0
LINE
  5
1D4
330
1F
100
AcDbEntity
  8
0
  6
CONTINUOUS
 62
   250
 48
12.0
100
AcDbLine
 10
76.72439999999999
 20
95.0112
 30
0.0
 11
76.7304
 21
94.7724
 31
0.0
  0
LINE
  5
1D5
330
1F
100
AcDbEntity
  8
0
  6
CONTINUOUS
 62
   250
 48
12.0
100
AcDbLine
 10
77.12400000000001
 20
94.81320000000001
 30
0.0
 11
76.92960000000001
 21
94.67280000000001
 31
0.0
  0
LINE
  5
1D6
330
1F
100
AcDbEntity
  8
0
  6
CONTINUOUS
 62
   250
 48
12.0
100
AcDbLine
 10
76.92360000000001
 20
94.9116
 30
0.0
 11
76.92960000000001
 21
94.67280000000001
 31
0.0
  0
LINE
  5
1D7
330
1F
100
AcDbEntity
  8
0
  6
CONTINUOUS
 62
   250
 48
12.0
100
AcDbLine
 10
77.3232
 20
94.7148
 30
0.0
 11
77.12999999999998
 21
94.57440000000001
 31
0.0
  0
LINE
  5
1D8
330
1F
100
AcDbEntity
  8
0
  6
CONTINUOUS
 62
   250
 48
12.0
100
AcDbLine
 10
77.12400000000001
 20
94.81320000000001
 30
0.0
 11
77.12999999999998
 21
94.57440000000001
 31
0.0
  0
LINE
  5
1D9
330
1F
100
AcDbEntity
  8
0
  6
CONTINUOUS
 62
   250
 48
12.0
100
AcDbLine
 10
77.52239999999999
 20
94.6152
 30
0.0
 11
77.3292
 21
94.476
 31
0.0
  0
LINE
  5
1DA
330
1F
100
AcDbEntity
  8
0
  6
CONTINUOUS
 62
   250
 48
12.0
100
AcDbLine
 10
77.3232
 20
94.7148
 30
0.0
 11
77.3292
 21
94.476
 31
0.0
  0
LINE
  5
1DB
330
1F
100
AcDbEntity
  8
0
  6
CONTINUOUS
 62
   250
 48
12.0
100
AcDbLine
 10
77.7216
 20
94.5168
 30
0.0
 11
77.52839999999999
 21
94.37760000000002
 31
0.0
  0
LINE
  5
1DC
330
1F
100
AcDbEntity
  8
0
  6
CONTINUOUS
 62
   250
 48
12.0
100
AcDbLine
 10
77.52239999999999
 20
94.6152
 30
0.0
 11
77.52839999999999
 21
94.37760000000002
 31
0.0
  0
LINE
  5
1DD
330
1F
100
AcDbEntity
  8
0
  6
CONTINUOUS
 62
   250
 48
12.0
100
AcDbLine
 10
77.9208
 20
94.4184
 30
0.0
 11
77.72760000000001
 21
94.278
 31
0.0
  0
LINE
  5
1DE
330
1F
100
AcDbEntity
  8
0
  6
CONTINUOUS
 62
   250
 48
12.0
100
AcDbLine
 10
77.7216
 20
94.5168
 30
0.0
 11
77.72760000000001
 21
94.278
 31
0.0
  0
LINE
  5
1DF
330
1F
100
AcDbEntity
  8
0
  6
CONTINUOUS
 62
   250
 48
12.0
100
AcDbLine
 10
78.12
 20
94.32000000000001
 30
0.0
 11
77.9268
 21
94.17960000000001
 31
0.0
  0
LINE
  5
1E0
330
1F
100
AcDbEntity
  8
0
  6
CONTINUOUS
 62
   250
 48
12.0
100
AcDbLine
 10
77.9208
 20
94.4184
 30
0.0
 11
77.9268
 21
94.17960000000001
 31
0.0
  0
LINE
  5
1E1
330
1F
100
AcDbEntity
  8
0
  6
CONTINUOUS
 62
   250
 48
12.0
100
AcDbLine
 10
78.31919999999998
 20
94.2204
 30
0.0
 11
78.12599999999999
 21
94.08120000000001
 31
0.0
  0
LINE
  5
1E2
330
1F
100
AcDbEntity
  8
0
  6
CONTINUOUS
 62
   250
 48
12.0
100
AcDbLine
 10
78.12
 20
94.32000000000001
 30
0.0
 11
78.12599999999999
 21
94.08120000000001
 31
0.0
  0
LINE
  5
1E3
330
1F
100
AcDbEntity
  8
0
  6
CONTINUOUS
 62
   250
 48
12.0
100
AcDbLine
 10
78.51959999999998
 20
94.122
 30
0.0
 11
78.3252
 21
93.9816
 31
0.0
  0
LINE
  5
1E4
330
1F
100
AcDbEntity
  8
0
  6
CONTINUOUS
 62
   250
 48
12.0
100
AcDbLine
 10
78.31919999999998
 20
94.2204
 30
0.0
 11
78.3252
 21
93.9816
 31
0.0
  0
LINE
  5
1E5
330
1F
100
AcDbEntity
  8
0
  6
CONTINUOUS
 62
   250
 48
12.0
100
AcDbLine
 10
78.7188
 20
94.0236
 30
0.0
 11
78.5256
 21
93.8832
 31
0.0
  0
LINE
  5
1E6
330
1F
100
AcDbEntity
  8
0
  6
CONTINUOUS
 62
   250
 48
12.0
100
AcDbLine
 10
78.51959999999998
 20
94.122
 30
0.0
 11
78.5256
 21
93.8832
 31
0.0
  0
LINE
  5
1E7
330
1F
100
AcDbEntity
  8
0
  6
CONTINUOUS
 62
   250
 48
12.0
100
AcDbLine
 10
78.91799999999999
 20
93.9252
 30
0.0
 11
78.7248
 21
93.7848
 31
0.0
  0
LINE
  5
1E8
330
1F
100
AcDbEntity
  8
0
  6
CONTINUOUS
 62
   250
 48
12.0
100
AcDbLine
 10
78.7188
 20
94.0236
 30
0.0
 11
78.7248
 21
93.7848
 31
0.0
  0
LINE
  5
1E9
330
1F
100
AcDbEntity
  8
0
  6
CONTINUOUS
 62
   250
 48
12.0
100
AcDbLine
 10
79.11720000000001
 20
93.82560000000001
 30
0.0
 11
78.924
 21
93.6864
 31
0.0
  0
LINE
  5
1EA
330
1F
100
AcDbEntity
  8
0
  6
CONTINUOUS
 62
   250
 48
12.0
100
AcDbLine
 10
78.91799999999999
 20
93.9252
 30
0.0
 11
78.924
 21
93.6864
 31
0.0
  0
LINE
  5
1EB
330
1F
100
AcDbEntity
  8
0
  6
CONTINUOUS
 62
   250
 48
12.0
100
AcDbLine
 10
79.3164
 20
93.7272
 30
0.0
 11
79.12319999999998
 21
93.58680000000001
 31
0.0
  0
LINE
  5
1EC
330
1F
100
AcDbEntity
  8
0
  6
CONTINUOUS
 62
   250
 48
12.0
100
AcDbLine
 10
79.11720000000001
 20
93.82560000000001
 30
0.0
 11
79.12319999999998
 21
93.58680000000001
 31
0.0
  0
LINE
  5
1ED
330
1F
100
AcDbEntity
  8
0
  6
CONTINUOUS
 62
   250
 48
12.0
100
AcDbLine
 10
79.51559999999999
 20
93.6288
 30
0.0
 11
79.3224
 21
93.4884
 31
0.0
  0
LINE
  5
1EE
330
1F
100
AcDbEntity
  8
0
  6
CONTINUOUS
 62
   250
 48
12.0
100
AcDbLine
 10
79.3164
 20
93.7272
 30
0.0
 11
79.3224
 21
93.4884
 31
0.0
  0
LINE
  5
1EF
330
1F
100
AcDbEntity
  8
0
  6
CONTINUOUS
 62
   250
 48
12.0
100
AcDbLine
 10
79.7148
 20
93.5292
 30
0.0
 11
79.52159999999999
 21
93.39
 31
0.0
  0
LINE
  5
1F0
330
1F
100
AcDbEntity
  8
0
  6
CONTINUOUS
 62
   250
 48
12.0
100
AcDbLine
 10
79.51559999999999
 20
93.6288
 30
0.0
 11
79.52159999999999
 21
93.39
 31
0.0
  0
LINE
  5
1F1
330
1F
100
AcDbEntity
  8
0
  6
CONTINUOUS
 62
   250
 48
12.0
100
AcDbLine
 10
79.9152
 20
93.4308
 30
0.0
 11
79.72080000000001
 21
93.2904
 31
0.0
  0
LINE
  5
1F2
330
1F
100
AcDbEntity
  8
0
  6
CONTINUOUS
 62
   250
 48
12.0
100
AcDbLine
 10
79.7148
 20
93.5292
 30
0.0
 11
79.72080000000001
 21
93.2904
 31
0.0
  0
LINE
  5
1F3
330
1F
100
AcDbEntity
  8
0
  6
CONTINUOUS
 62
   250
 48
12.0
100
AcDbLine
 10
80.1144
 20
93.3324
 30
0.0
 11
79.92120000000001
 21
93.192
 31
0.0
  0
LINE
  5
1F4
330
1F
100
AcDbEntity
  8
0
  6
CONTINUOUS
 62
   250
 48
12.0
100
AcDbLine
 10
79.9152
 20
93.4308
 30
0.0
 11
79.92120000000001
 21
93.192
 31
0.0
  0
LINE
  5
1F5
330
1F
100
AcDbEntity
  8
0
  6
CONTINUOUS
 62
   250
 48
12.0
100
AcDbLine
 10
80.31360000000001
 20
93.234
 30
0.0
 11
80.12039999999999
 21
93.09360000000001
 31
0.0
  0
LINE
  5
1F6
330
1F
100
AcDbEntity
  8
0
  6
CONTINUOUS
 62
   250
 48
12.0
100
AcDbLine
 10
80.1144
 20
93.3324
 30
0.0
 11
80.12039999999999
 21
93.09360000000001
 31
0.0
  0
LINE
  5
1F7
330
1F
100
AcDbEntity
  8
0
  6
CONTINUOUS
 62
   250
 48
12.0
100
AcDbLine
 10
80.51279999999998
 20
93.13440000000001
 30
0.0
 11
80.3196
 21
92.9952
 31
0.0
  0
LINE
  5
1F8
330
1F
100
AcDbEntity
  8
0
  6
CONTINUOUS
 62
   250
 48
12.0
100
AcDbLine
 10
80.31360000000001
 20
93.234
 30
0.0
 11
80.3196
 21
92.9952
 31
0.0
  0
LINE
  5
1F9
330
1F
100
AcDbEntity
  8
0
  6
CONTINUOUS
 62
   250
 48
12.0
100
AcDbLine
 10
80.712
 20
93.036
 30
0.0
 11
80.5188
 21
92.8956
 31
0.0
  0
LINE
  5
1FA
330
1F
100
AcDbEntity
  8
0
  6
CONTINUOUS
 62
   250
 48
12.0
100
AcDbLine
 10
80.51279999999998
 20
93.13440000000001
 30
0.0
 11
80.5188
 21
92.8956
 31
0.0
  0
LINE
  5
1FB
330
1F
100
AcDbEntity
  8
0
  6
CONTINUOUS
 62
   250
 48
12.0
100
AcDbLine
 10
80.9112
 20
92.9376
 30
0.0
 11
80.718
 21
92.7972
 31
0.0
  0
LINE
  5
1FC
330
1F
100
AcDbEntity
  8
0
  6
CONTINUOUS
 62
   250
 48
12.0
100
AcDbLine
 10
80.712
 20
93.036
 30
0.0
 11
80.718
 21
92.7972
 31
0.0
  0
LINE
  5
1FD
330
1F
100
AcDbEntity
  8
0
  6
CONTINUOUS
 62
   250
 48
12.0
100
AcDbLine
 10
81.11040000000001
 20
92.83800000000001
 30
0.0
 11
80.91720000000001
 21
92.69879999999999
 31
0.0
  0
LINE
  5
1FE
330
1F
100
AcDbEntity
  8
0
  6
CONTINUOUS
 62
   250
 48
12.0
100
AcDbLine
 10
80.9112
 20
92.9376
 30
0.0
 11
80.91720000000001
 21
92.69879999999999
 31
0.0
  0
LINE
  5
1FF
330
1F
100
AcDbEntity
  8
0
  6
CONTINUOUS
 62
   250
 48
12.0
100
AcDbLine
 10
81.31080000000001
 20
92.7396
 30
0.0
 11
81.11639999999998
 21
92.60040000000001
 31
0.0
  0
LINE
  5
200
330
1F
100
AcDbEntity
  8
0
  6
CONTINUOUS
 62
   250
 48
12.0
100
AcDbLine
 10
81.11040000000001
 20
92.83800000000001
 30
0.0
 11
81.11639999999998
 21
92.60040000000001
 31
0.0
  0
LINE
  5
201
330
1F
100
AcDbEntity
  8
0
  6
CONTINUOUS
 62
   250
 48
12.0
100
AcDbLine
 10
81.50999999999999
 20
92.64120000000001
 30
0.0
 11
81.31679999999999
 21
92.5008
 31
0.0
  0
LINE
  5
202
330
1F
100
AcDbEntity
  8
0
  6
CONTINUOUS
 62
   250
 48
12.0
100
AcDbLine
 10
81.31080000000001
 20
92.7396
 30
0.0
 11
81.31679999999999
 21
92.5008
 31
0.0
  0
LINE
  5
203
330
1F
100
AcDbEntity
  8
0
  6
CONTINUOUS
 62
   250
 48
12.0
100
AcDbLine
 10
81.7092
 20
92.5428
 30
0.0
 11
81.516
 21
92.40240000000001
 31
0.0
  0
LINE
  5
204
330
1F
100
AcDbEntity
  8
0
  6
CONTINUOUS
 62
   250
 48
12.0
100
AcDbLine
 10
81.50999999999999
 20
92.64120000000001
 30
0.0
 11
81.516
 21
92.40240000000001
 31
0.0
  0
LINE
  5
205
330
1F
100
AcDbEntity
  8
0
  6
CONTINUOUS
 62
   250
 48
12.0
100
AcDbLine
 10
81.9084
 20
92.4432
 30
0.0
 11
81.7152
 21
92.304
 31
0.0
  0
LINE
  5
206
330
1F
100
AcDbEntity
  8
0
  6
CONTINUOUS
 62
   250
 48
12.0
100
AcDbLine
 10
81.7092
 20
92.5428
 30
0.0
 11
81.7152
 21
92.304
 31
0.0
  0
LINE
  5
207
330
1F
100
AcDbEntity
  8
0
  6
CONTINUOUS
 62
   250
 48
12.0
100
AcDbLine
 10
82.1076
 20
92.3448
 30
0.0
 11
81.91440000000001
 21
92.2044
 31
0.0
  0
LINE
  5
208
330
1F
100
AcDbEntity
  8
0
  6
CONTINUOUS
 62
   250
 48
12.0
100
AcDbLine
 10
81.9084
 20
92.4432
 30
0.0
 11
81.91440000000001
 21
92.2044
 31
0.0
  0
LINE
  5
209
330
1F
100
AcDbEntity
  8
0
  6
CONTINUOUS
 62
   250
 48
12.0
100
AcDbLine
 10
82.3068
 20
92.24640000000001
 30
0.0
 11
82.11359999999999
 21
92.10600000000001
 31
0.0
  0
LINE
  5
20A
330
1F
100
AcDbEntity
  8
0
  6
CONTINUOUS
 62
   250
 48
12.0
100
AcDbLine
 10
82.1076
 20
92.3448
 30
0.0
 11
82.11359999999999
 21
92.10600000000001
 31
0.0
  0
LINE
  5
20B
330
1F
100
AcDbEntity
  8
0
  6
CONTINUOUS
 62
   250
 48
12.0
100
AcDbLine
 10
82.50599999999999
 20
92.1468
 30
0.0
 11
82.3128
 21
92.0076
 31
0.0
  0
LINE
  5
20C
330
1F
100
AcDbEntity
  8
0
  6
CONTINUOUS
 62
   250
 48
12.0
100
AcDbLine
 10
82.3068
 20
92.24640000000001
 30
0.0
 11
82.3128
 21
92.0076
 31
0.0
  0
LINE
  5
20D
330
1F
100
AcDbEntity
  8
0
  6
CONTINUOUS
 62
   250
 48
12.0
100
AcDbLine
 10
82.70639999999999
 20
92.0484
 30
0.0
 11
82.512
 21
91.90920000000001
 31
0.0
  0
LINE
  5
20E
330
1F
100
AcDbEntity
  8
0
  6
CONTINUOUS
 62
   250
 48
12.0
100
AcDbLine
 10
82.50599999999999
 20
92.1468
 30
0.0
 11
82.512
 21
91.90920000000001
 31
0.0
  0
LINE
  5
20F
330
1F
100
AcDbEntity
  8
0
  6
CONTINUOUS
 62
   250
 48
12.0
100
AcDbLine
 10
82.9056
 20
91.95
 30
0.0
 11
82.7124
 21
91.8096
 31
0.0
  0
LINE
  5
210
330
1F
100
AcDbEntity
  8
0
  6
CONTINUOUS
 62
   250
 48
12.0
100
AcDbLine
 10
82.70639999999999
 20
92.0484
 30
0.0
 11
82.7124
 21
91.8096
 31
0.0
  0
LINE
  5
211
330
1F
100
AcDbEntity
  8
0
  6
CONTINUOUS
 62
   250
 48
12.0
100
AcDbLine
 10
83.1048
 20
91.8516
 30
0.0
 11
82.9116
 21
91.7112
 31
0.0
  0
LINE
  5
212
330
1F
100
AcDbEntity
  8
0
  6
CONTINUOUS
 62
   250
 48
12.0
100
AcDbLine
 10
82.9056
 20
91.95
 30
0.0
 11
82.9116
 21
91.7112
 31
0.0
  0
LINE
  5
213
330
1F
100
AcDbEntity
  8
0
  6
CONTINUOUS
 62
   250
 48
12.0
100
AcDbLine
 10
83.30399999999999
 20
91.752
 30
0.0
 11
83.1108
 21
91.61280000000001
 31
0.0
  0
LINE
  5
214
330
1F
100
AcDbEntity
  8
0
  6
CONTINUOUS
 62
   250
 48
12.0
100
AcDbLine
 10
83.1048
 20
91.8516
 30
0.0
 11
83.1108
 21
91.61280000000001
 31
0.0
  0
LINE
  5
215
330
1F
100
AcDbEntity
  8
0
  6
CONTINUOUS
 62
   250
 48
12.0
100
AcDbLine
 10
83.50319999999999
 20
91.6536
 30
0.0
 11
83.30999999999999
 21
91.5132
 31
0.0
  0
LINE
  5
216
330
1F
100
AcDbEntity
  8
0
  6
CONTINUOUS
 62
   250
 48
12.0
100
AcDbLine
 10
83.30399999999999
 20
91.752
 30
0.0
 11
83.30999999999999
 21
91.5132
 31
0.0
  0
LINE
  5
217
330
1F
100
AcDbEntity
  8
0
  6
CONTINUOUS
 62
   250
 48
12.0
100
AcDbLine
 10
83.7024
 20
91.5552
 30
0.0
 11
83.5092
 21
91.4148
 31
0.0
  0
LINE
  5
218
330
1F
100
AcDbEntity
  8
0
  6
CONTINUOUS
 62
   250
 48
12.0
100
AcDbLine
 10
83.50319999999999
 20
91.6536
 30
0.0
 11
83.5092
 21
91.4148
 31
0.0
  0
LINE
  5
219
330
1F
100
AcDbEntity
  8
0
  6
CONTINUOUS
 62
   250
 48
12.0
100
AcDbLine
 10
83.9016
 20
91.4568
 30
0.0
 11
83.7084
 21
91.3164
 31
0.0
  0
LINE
  5
21A
330
1F
100
AcDbEntity
  8
0
  6
CONTINUOUS
 62
   250
 48
12.0
100
AcDbLine
 10
83.7024
 20
91.5552
 30
0.0
 11
83.7084
 21
91.3164
 31
0.0
  0
LINE
  5
21B
330
1F
100
AcDbEntity
  8
0
  6
CONTINUOUS
 62
   250
 48
12.0
100
AcDbLine
 10
84.102
 20
91.3572
 30
0.0
 11
83.90759999999999
 21
91.218
 31
0.0
  0
LINE
  5
21C
330
1F
100
AcDbEntity
  8
0
  6
CONTINUOUS
 62
   250
 48
12.0
100
AcDbLine
 10
83.9016
 20
91.4568
 30
0.0
 11
83.90759999999999
 21
91.218
 31
0.0
  0
LINE
  5
21D
330
1F
100
AcDbEntity
  8
0
  6
CONTINUOUS
 62
   250
 48
12.0
100
AcDbLine
 10
84.30120000000001
 20
91.25880000000001
 30
0.0
 11
84.10679999999999
 21
91.11840000000001
 31
0.0
  0
LINE
  5
21E
330
1F
100
AcDbEntity
  8
0
  6
CONTINUOUS
 62
   250
 48
12.0
100
AcDbLine
 10
84.102
 20
91.3572
 30
0.0
 11
84.10679999999999
 21
91.11840000000001
 31
0.0
  0
LINE
  5
21F
330
1F
100
AcDbEntity
  8
0
  6
CONTINUOUS
 62
   250
 48
12.0
100
AcDbLine
 10
84.5004
 20
91.1604
 30
0.0
 11
84.3072
 21
91.02
 31
0.0
  0
LINE
  5
220
330
1F
100
AcDbEntity
  8
0
  6
CONTINUOUS
 62
   250
 48
12.0
100
AcDbLine
 10
84.30120000000001
 20
91.25880000000001
 30
0.0
 11
84.3072
 21
91.02
 31
0.0
  0
LINE
  5
221
330
1F
100
AcDbEntity
  8
0
  6
CONTINUOUS
 62
   250
 48
12.0
100
AcDbLine
 10
84.69959999999999
 20
91.0608
 30
0.0
 11
84.5064
 21
90.9216
 31
0.0
  0
LINE
  5
222
330
1F
100
AcDbEntity
  8
0
  6
CONTINUOUS
 62
   250
 48
12.0
100
AcDbLine
 10
84.5004
 20
91.1604
 30
0.0
 11
84.5064
 21
90.9216
 31
0.0
  0
LINE
  5
223
330
1F
100
AcDbEntity
  8
0
  6
CONTINUOUS
 62
   250
 48
12.0
100
AcDbLine
 10
84.89880000000001
 20
90.9624
 30
0.0
 11
84.7056
 21
90.822
 31
0.0
  0
LINE
  5
224
330
1F
100
AcDbEntity
  8
0
  6
CONTINUOUS
 62
   250
 48
12.0
100
AcDbLine
 10
84.69959999999999
 20
91.0608
 30
0.0
 11
84.7056
 21
90.822
 31
0.0
  0
LINE
  5
225
330
1F
100
AcDbEntity
  8
0
  6
CONTINUOUS
 62
   250
 48
12.0
100
AcDbLine
 10
85.098
 20
90.864
 30
0.0
 11
84.90480000000001
 21
90.7236
 31
0.0
  0
LINE
  5
226
330
1F
100
AcDbEntity
  8
0
  6
CONTINUOUS
 62
   250
 48
12.0
100
AcDbLine
 10
84.89880000000001
 20
90.9624
 30
0.0
 11
84.90480000000001
 21
90.7236
 31
0.0
  0
LINE
  5
227
330
1F
100
AcDbEntity
  8
0
  6
CONTINUOUS
 62
   250
 48
12.0
100
AcDbLine
 10
85.29719999999999
 20
90.7656
 30
0.0
 11
85.104
 21
90.6252
 31
0.0
  0
LINE
  5
228
330
1F
100
AcDbEntity
  8
0
  6
CONTINUOUS
 62
   250
 48
12.0
100
AcDbLine
 10
85.098
 20
90.864
 30
0.0
 11
85.104
 21
90.6252
 31
0.0
  0
LINE
  5
229
330
1F
100
AcDbEntity
  8
0
  6
CONTINUOUS
 62
   250
 48
12.0
100
AcDbLine
 10
85.49759999999999
 20
90.66600000000001
 30
0.0
 11
85.30319999999999
 21
90.52680000000001
 31
0.0
  0
LINE
  5
22A
330
1F
100
AcDbEntity
  8
0
  6
CONTINUOUS
 62
   250
 48
12.0
100
AcDbLine
 10
85.29719999999999
 20
90.7656
 30
0.0
 11
85.30319999999999
 21
90.52680000000001
 31
0.0
  0
LINE
  5
22B
330
1F
100
AcDbEntity
  8
0
  6
CONTINUOUS
 62
   250
 48
12.0
100
AcDbLine
 10
85.6968
 20
90.5676
 30
0.0
 11
85.50240000000001
 21
90.42720000000001
 31
0.0
  0
LINE
  5
22C
330
1F
100
AcDbEntity
  8
0
  6
CONTINUOUS
 62
   250
 48
12.0
100
AcDbLine
 10
85.49759999999999
 20
90.66600000000001
 30
0.0
 11
85.50240000000001
 21
90.42720000000001
 31
0.0
  0
LINE
  5
22D
330
1F
100
AcDbEntity
  8
0
  6
CONTINUOUS
 62
   250
 48
12.0
100
AcDbLine
 10
85.896
 20
90.4692
 30
0.0
 11
85.70280000000001
 21
90.3288
 31
0.0
  0
LINE
  5
22E
330
1F
100
AcDbEntity
  8
0
  6
CONTINUOUS
 62
   250
 48
12.0
100
AcDbLine
 10
85.6968
 20
90.5676
 30
0.0
 11
85.70280000000001
 21
90.3288
 31
0.0
  0
LINE
  5
22F
330
1F
100
AcDbEntity
  8
0
  6
CONTINUOUS
 62
   250
 48
12.0
100
AcDbLine
 10
86.0952
 20
90.3696
 30
0.0
 11
85.902
 21
90.2304
 31
0.0
  0
LINE
  5
230
330
1F
100
AcDbEntity
  8
0
  6
CONTINUOUS
 62
   250
 48
12.0
100
AcDbLine
 10
85.896
 20
90.4692
 30
0.0
 11
85.902
 21
90.2304
 31
0.0
  0
LINE
  5
231
330
1F
100
AcDbEntity
  8
0
  6
CONTINUOUS
 62
   250
 48
12.0
100
AcDbLine
 10
86.29439999999998
 20
90.27120000000001
 30
0.0
 11
86.10119999999999
 21
90.132
 31
0.0
  0
LINE
  5
232
330
1F
100
AcDbEntity
  8
0
  6
CONTINUOUS
 62
   250
 48
12.0
100
AcDbLine
 10
86.0952
 20
90.3696
 30
0.0
 11
86.10119999999999
 21
90.132
 31
0.0
  0
LINE
  5
233
330
1F
100
AcDbEntity
  8
0
  6
CONTINUOUS
 62
   250
 48
12.0
100
AcDbLine
 10
86.4936
 20
90.17280000000001
 30
0.0
 11
86.3004
 21
90.0324
 31
0.0
  0
LINE
  5
234
330
1F
100
AcDbEntity
  8
0
  6
CONTINUOUS
 62
   250
 48
12.0
100
AcDbLine
 10
86.29439999999998
 20
90.27120000000001
 30
0.0
 11
86.3004
 21
90.0324
 31
0.0
  0
LINE
  5
235
330
1F
100
AcDbEntity
  8
0
  6
CONTINUOUS
 62
   250
 48
12.0
100
AcDbLine
 10
86.69279999999999
 20
90.07440000000001
 30
0.0
 11
86.4996
 21
89.93400000000001
 31
0.0
  0
LINE
  5
236
330
1F
100
AcDbEntity
  8
0
  6
CONTINUOUS
 62
   250
 48
12.0
100
AcDbLine
 10
86.4936
 20
90.17280000000001
 30
0.0
 11
86.4996
 21
89.93400000000001
 31
0.0
  0
LINE
  5
237
330
1F
100
AcDbEntity
  8
0
  6
CONTINUOUS
 62
   250
 48
12.0
100
AcDbLine
 10
86.8932
 20
89.9748
 30
0.0
 11
86.6988
 21
89.8356
 31
0.0
  0
LINE
  5
238
330
1F
100
AcDbEntity
  8
0
  6
CONTINUOUS
 62
   250
 48
12.0
100
AcDbLine
 10
86.69279999999999
 20
90.07440000000001
 30
0.0
 11
86.6988
 21
89.8356
 31
0.0
  0
LINE
  5
239
330
1F
100
AcDbEntity
  8
0
  6
CONTINUOUS
 62
   250
 48
12.0
100
AcDbLine
 10
87.09240000000001
 20
89.8764
 30
0.0
 11
86.89799999999998
 21
89.736
 31
0.0
  0
LINE
  5
23A
330
1F
100
AcDbEntity
  8
0
  6
CONTINUOUS
 62
   250
 48
12.0
100
AcDbLine
 10
86.8932
 20
89.9748
 30
0.0
 11
86.89799999999998
 21
89.736
 31
0.0
  0
LINE
  5
23B
330
1F
100
AcDbEntity
  8
0
  6
CONTINUOUS
 62
   250
 48
12.0
100
AcDbLine
 10
87.29159999999999
 20
89.778
 30
0.0
 11
87.09839999999998
 21
89.6376
 31
0.0
  0
LINE
  5
23C
330
1F
100
AcDbEntity
  8
0
  6
CONTINUOUS
 62
   250
 48
12.0
100
AcDbLine
 10
87.09240000000001
 20
89.8764
 30
0.0
 11
87.09839999999998
 21
89.6376
 31
0.0
  0
LINE
  5
23D
330
1F
100
AcDbEntity
  8
0
  6
CONTINUOUS
 62
   250
 48
12.0
100
AcDbLine
 10
87.4908
 20
89.6784
 30
0.0
 11
87.2976
 21
89.53920000000001
 31
0.0
  0
LINE
  5
23E
330
1F
100
AcDbEntity
  8
0
  6
CONTINUOUS
 62
   250
 48
12.0
100
AcDbLine
 10
87.29159999999999
 20
89.778
 30
0.0
 11
87.2976
 21
89.53920000000001
 31
0.0
  0
LINE
  5
23F
330
1F
100
AcDbEntity
  8
0
  6
CONTINUOUS
 62
   250
 48
12.0
100
AcDbLine
 10
87.69000000000001
 20
89.58
 30
0.0
 11
87.4968
 21
89.44080000000001
 31
0.0
  0
LINE
  5
240
330
1F
100
AcDbEntity
  8
0
  6
CONTINUOUS
 62
   250
 48
12.0
100
AcDbLine
 10
87.4908
 20
89.6784
 30
0.0
 11
87.4968
 21
89.44080000000001
 31
0.0
  0
LINE
  5
241
330
1F
100
AcDbEntity
  8
0
  6
CONTINUOUS
 62
   250
 48
12.0
100
AcDbLine
 10
87.8892
 20
89.4816
 30
0.0
 11
87.69600000000001
 21
89.3412
 31
0.0
  0
LINE
  5
242
330
1F
100
AcDbEntity
  8
0
  6
CONTINUOUS
 62
   250
 48
12.0
100
AcDbLine
 10
87.69000000000001
 20
89.58
 30
0.0
 11
87.69600000000001
 21
89.3412
 31
0.0
  0
LINE
  5
243
330
1F
100
AcDbEntity
  8
0
  6
CONTINUOUS
 62
   250
 48
12.0
100
AcDbLine
 10
88.0884
 20
89.3832
 30
0.0
 11
87.8952
 21
89.2428
 31
0.0
  0
LINE
  5
244
330
1F
100
AcDbEntity
  8
0
  6
CONTINUOUS
 62
   250
 48
12.0
100
AcDbLine
 10
87.8892
 20
89.4816
 30
0.0
 11
87.8952
 21
89.2428
 31
0.0
  0
LINE
  5
245
330
1F
100
AcDbEntity
  8
0
  6
CONTINUOUS
 62
   250
 48
12.0
100
AcDbLine
 10
88.2888
 20
89.2836
 30
0.0
 11
88.0944
 21
89.1444
 31
0.0
  0
LINE
  5
246
330
1F
100
AcDbEntity
  8
0
  6
CONTINUOUS
 62
   250
 48
12.0
100
AcDbLine
 10
88.0884
 20
89.3832
 30
0.0
 11
88.0944
 21
89.1444
 31
0.0
  0
LINE
  5
247
330
1F
100
AcDbEntity
  8
0
  6
CONTINUOUS
 62
   250
 48
12.0
100
AcDbLine
 10
88.48799999999999
 20
89.1852
 30
0.0
 11
88.29359999999998
 21
89.0448
 31
0.0
  0
LINE
  5
248
330
1F
100
AcDbEntity
  8
0
  6
CONTINUOUS
 62
   250
 48
12.0
100
AcDbLine
 10
88.2888
 20
89.2836
 30
0.0
 11
88.29359999999998
 21
89.0448
 31
0.0
  0
LINE
  5
249
330
1F
100
AcDbEntity
  8
0
  6
CONTINUOUS
 62
   250
 48
12.0
100
AcDbLine
 10
88.6872
 20
89.08680000000001
 30
0.0
 11
88.49399999999999
 21
88.9464
 31
0.0
  0
LINE
  5
24A
330
1F
100
AcDbEntity
  8
0
  6
CONTINUOUS
 62
   250
 48
12.0
100
AcDbLine
 10
88.48799999999999
 20
89.1852
 30
0.0
 11
88.49399999999999
 21
88.9464
 31
0.0
  0
LINE
  5
24B
330
1F
100
AcDbEntity
  8
0
  6
CONTINUOUS
 62
   250
 48
12.0
100
AcDbLine
 10
88.8864
 20
88.9872
 30
0.0
 11
88.6932
 21
88.848
 31
0.0
  0
LINE
  5
24C
330
1F
100
AcDbEntity
  8
0
  6
CONTINUOUS
 62
   250
 48
12.0
100
AcDbLine
 10
88.6872
 20
89.08680000000001
 30
0.0
 11
88.6932
 21
88.848
 31
0.0
  0
LINE
  5
24D
330
1F
100
AcDbEntity
  8
0
  6
CONTINUOUS
 62
   250
 48
12.0
100
AcDbLine
 10
89.08560000000001
 20
88.8888
 30
0.0
 11
88.8924
 21
88.7496
 31
0.0
  0
LINE
  5
24E
330
1F
100
AcDbEntity
  8
0
  6
CONTINUOUS
 62
   250
 48
12.0
100
AcDbLine
 10
88.8864
 20
88.9872
 30
0.0
 11
88.8924
 21
88.7496
 31
0.0
  0
LINE
  5
24F
330
1F
100
AcDbEntity
  8
0
  6
CONTINUOUS
 62
   250
 48
12.0
100
AcDbLine
 10
89.28479999999998
 20
88.7904
 30
0.0
 11
89.09159999999999
 21
88.65
 31
0.0
  0
LINE
  5
250
330
1F
100
AcDbEntity
  8
0
  6
CONTINUOUS
 62
   250
 48
12.0
100
AcDbLine
 10
89.08560000000001
 20
88.8888
 30
0.0
 11
89.09159999999999
 21
88.65
 31
0.0
  0
LINE
  5
251
330
1F
100
AcDbEntity
  8
0
  6
HIDDEN
 62
   250
 48
12.0
100
AcDbLine
 10
80.622
 20
99.474
 30
0.0
 11
77.73119999999999
 21
97.80479999999999
 31
0.0
  0
LINE
  5
252
330
1F
100
AcDbEntity
  8
0
  6
HIDDEN
 62
   250
 48
12.0
100
AcDbLine
 10
81.534
 20
98.7816
 30
0.0
 11
78.7872
 21
97.19520000000001
 31
0.0
  0
LINE
  5
253
330
1F
100
AcDbEntity
  8
0
  6
HIDDEN
 62
   250
 48
12.0
100
AcDbLine
 10
82.3044
 20
98.17080000000001
 30
0.0
 11
79.7016
 21
96.6684
 31
0.0
  0
LINE
  5
254
330
1F
100
AcDbEntity
  8
0
  6
HIDDEN
 62
   250
 48
12.0
100
AcDbLine
 10
83.0808
 20
97.5648
 30
0.0
 11
80.61479999999999
 21
96.14040000000001
 31
0.0
  0
LINE
  5
255
330
1F
100
AcDbEntity
  8
0
  6
HIDDEN
 62
   250
 48
12.0
100
AcDbLine
 10
83.87039999999999
 20
96.96480000000001
 30
0.0
 11
81.52799999999999
 21
95.61240000000001
 31
0.0
  0
LINE
  5
256
330
1F
100
AcDbEntity
  8
0
  6
HIDDEN
 62
   250
 48
12.0
100
AcDbLine
 10
84.62999999999998
 20
96.348
 30
0.0
 11
82.44239999999999
 21
95.0856
 31
0.0
  0
LINE
  5
257
330
1F
100
AcDbEntity
  8
0
  6
HIDDEN
 62
   250
 48
12.0
100
AcDbLine
 10
85.44
 20
95.73960000000001
 30
0.0
 11
83.3748
 21
94.5468
 31
0.0
  0
LINE
  5
258
330
1F
100
AcDbEntity
  8
0
  6
CONTINUOUS
 62
   250
 48
12.0
100
AcDbLine
 10
83.3748
 20
91.56960000000001
 30
0.0
 11
83.3748
 21
88.6284
 31
0.0
  0
LINE
  5
259
330
1F
100
AcDbEntity
  8
0
  6
CONTINUOUS
 62
   250
 48
12.0
100
AcDbLine
 10
82.44239999999999
 20
92.10960000000001
 30
0.0
 11
82.44239999999999
 21
89.1672
 31
0.0
  0
LINE
  5
25A
330
1F
100
AcDbEntity
  8
0
  6
CONTINUOUS
 62
   250
 48
12.0
100
AcDbLine
 10
81.52799999999999
 20
92.4264
 30
0.0
 11
81.52799999999999
 21
89.69520000000001
 31
0.0
  0
LINE
  5
25B
330
1F
100
AcDbEntity
  8
0
  6
CONTINUOUS
 62
   250
 48
12.0
100
AcDbLine
 10
80.61479999999999
 20
92.96640000000001
 30
0.0
 11
80.61479999999999
 21
90.22200000000001
 31
0.0
  0
LINE
  5
25C
330
1F
100
AcDbEntity
  8
0
  6
CONTINUOUS
 62
   250
 48
12.0
100
AcDbLine
 10
79.7016
 20
93.28320000000001
 30
0.0
 11
79.7016
 21
90.75
 31
0.0
  0
LINE
  5
25D
330
1F
100
AcDbEntity
  8
0
  6
CONTINUOUS
 62
   250
 48
12.0
100
AcDbLine
 10
78.7872
 20
93.8328
 30
0.0
 11
78.7872
 21
91.27680000000001
 31
0.0
  0
LINE
  5
25E
330
1F
100
AcDbEntity
  8
0
  6
CONTINUOUS
 62
   250
 48
12.0
100
AcDbLine
 10
77.73119999999999
 20
94.296
 30
0.0
 11
77.73119999999999
 21
91.88640000000001
 31
0.0
  0
ARC
  5
25F
330
1F
100
AcDbEntity
  8
0
  6
CONTINUOUS
 62
   250
 48
12.0
100
AcDbCircle
 10
51.2304
 20
55.2372
 30
0.0
 40
5.431199999999999
100
AcDbArc
 50
359.9729999999907
 51
0.0269000000015955
  0
ARC
  5
260
330
1F
100
AcDbEntity
  8
0
  6
CONTINUOUS
 62
   250
 48
12.0
100
AcDbCircle
 10
48.4224
 20
55.61520000000001
 30
0.0
 40
8.247600000000002
100
AcDbArc
 50
340.3084000000001
 51
357.3550999999999
  0
ARC
  5
261
330
1F
100
AcDbEntity
  8
0
  6
CONTINUOUS
 62
   250
 48
12.0
100
AcDbCircle
 10
44.706
 20
56.9448
 30
0.0
 40
12.1956
100
AcDbArc
 50
326.3066999999999
 51
340.3086
  0
ARC
  5
262
330
1F
100
AcDbEntity
  8
0
  6
CONTINUOUS
 62
   250
 48
12.0
100
AcDbCircle
 10
44.706
 20
56.9448
 30
0.0
 40
12.1956
100
AcDbArc
 50
312.3046
 51
326.3065
  0
ARC
  5
263
330
1F
100
AcDbEntity
  8
0
  6
CONTINUOUS
 62
   250
 48
12.0
100
AcDbCircle
 10
47.3628
 20
54.02520000000001
 30
0.0
 40
8.2476
100
AcDbArc
 50
298.5706
 51
312.3047
  0
ARC
  5
264
330
1F
100
AcDbEntity
  8
0
  6
CONTINUOUS
 62
   250
 48
12.0
100
AcDbCircle
 10
52.296
 20
54.876
 30
0.0
 40
5.427599999999997
100
AcDbArc
 50
357.3553999999999
 51
8.60749999999998
  0
ARC
  5
265
330
1F
100
AcDbEntity
  8
0
  6
CONTINUOUS
 62
   250
 48
12.0
100
AcDbCircle
 10
49.47839999999999
 20
55.0056
 30
0.0
 40
8.247599999999998
100
AcDbArc
 50
340.3087
 51
357.3554999999998
  0
ARC
  5
266
330
1F
100
AcDbEntity
  8
0
  6
CONTINUOUS
 62
   250
 48
12.0
100
AcDbCircle
 10
45.76199999999999
 20
56.3352
 30
0.0
 40
12.1956
100
AcDbArc
 50
326.3064
 51
340.3083
  0
ARC
  5
267
330
1F
100
AcDbEntity
  8
0
  6
CONTINUOUS
 62
   250
 48
12.0
100
AcDbCircle
 10
45.76199999999999
 20
56.3352
 30
0.0
 40
12.1956
100
AcDbArc
 50
312.3049
 51
326.3068
  0
ARC
  5
268
330
1F
100
AcDbEntity
  8
0
  6
CONTINUOUS
 62
   250
 48
12.0
100
AcDbCircle
 10
48.4188
 20
53.41560000000001
 30
0.0
 40
8.2476
100
AcDbArc
 50
295.2579
 51
312.3047
  0
ARC
  5
269
330
1F
100
AcDbEntity
  8
0
  6
CONTINUOUS
 62
   250
 48
12.0
100
AcDbCircle
 10
49.62239999999999
 20
50.8656
 30
0.0
 40
5.427599999999999
100
AcDbArc
 50
288.7059
 51
295.2577000000001
  0
ARC
  5
26A
330
1F
100
AcDbEntity
  8
0
  6
CONTINUOUS
 62
   250
 48
12.0
100
AcDbCircle
 10
53.20919999999999
 20
54.348
 30
0.0
 40
5.427599999999998
100
AcDbArc
 50
357.3551
 51
16.43890000000005
  0
ARC
  5
26B
330
1F
100
AcDbEntity
  8
0
  6
CONTINUOUS
 62
   250
 48
12.0
100
AcDbCircle
 10
50.39159999999999
 20
54.47760000000001
 30
0.0
 40
8.247600000000002
100
AcDbArc
 50
340.3083
 51
357.3550999999999
  0
ARC
  5
26C
330
1F
100
AcDbEntity
  8
0
  6
CONTINUOUS
 62
   250
 48
12.0
100
AcDbCircle
 10
46.6752
 20
55.80840000000001
 30
0.0
 40
12.1956
100
AcDbArc
 50
326.3068
 51
340.3086
  0
ARC
  5
26D
330
1F
100
AcDbEntity
  8
0
  6
CONTINUOUS
 62
   250
 48
12.0
100
AcDbCircle
 10
46.6752
 20
55.80840000000001
 30
0.0
 40
12.1956
100
AcDbArc
 50
312.3047
 51
326.3065999999999
  0
ARC
  5
26E
330
1F
100
AcDbEntity
  8
0
  6
CONTINUOUS
 62
   250
 48
12.0
100
AcDbCircle
 10
49.33199999999999
 20
52.8888
 30
0.0
 40
8.247599999999997
100
AcDbArc
 50
295.2581
 51
312.3049
  0
ARC
  5
26F
330
1F
100
AcDbEntity
  8
0
  6
CONTINUOUS
 62
   250
 48
12.0
100
AcDbCircle
 10
50.5356
 20
50.33759999999999
 30
0.0
 40
5.427599999999999
100
AcDbArc
 50
280.4844
 51
295.2577000000001
  0
ARC
  5
270
330
1F
100
AcDbEntity
  8
0
  6
CONTINUOUS
 62
   250
 48
12.0
100
AcDbCircle
 10
56.60279999999999
 20
54.81120000000001
 30
0.0
 40
2.756399999999999
100
AcDbArc
 50
21.77970000000007
 51
24.77729999999998
  0
ARC
  5
271
330
1F
100
AcDbEntity
  8
0
  6
CONTINUOUS
 62
   250
 48
12.0
100
AcDbCircle
 10
54.12239999999999
 20
53.82000000000001
 30
0.0
 40
5.427599999999997
100
AcDbArc
 50
357.3552999999999
 51
21.77710000000005
  0
ARC
  5
272
330
1F
100
AcDbEntity
  8
0
  6
CONTINUOUS
 62
   250
 48
12.0
100
AcDbCircle
 10
51.30599999999999
 20
53.95080000000001
 30
0.0
 40
8.247600000000002
100
AcDbArc
 50
340.3084000000001
 51
357.3552
  0
ARC
  5
273
330
1F
100
AcDbEntity
  8
0
  6
CONTINUOUS
 62
   250
 48
12.0
100
AcDbCircle
 10
47.58959999999999
 20
55.2804
 30
0.0
 40
12.1956
100
AcDbArc
 50
326.3066999999999
 51
340.3085
  0
ARC
  5
274
330
1F
100
AcDbEntity
  8
0
  6
CONTINUOUS
 62
   250
 48
12.0
100
AcDbCircle
 10
47.58959999999999
 20
55.2804
 30
0.0
 40
12.1956
100
AcDbArc
 50
312.3046
 51
326.3066
  0
ARC
  5
275
330
1F
100
AcDbEntity
  8
0
  6
CONTINUOUS
 62
   250
 48
12.0
100
AcDbCircle
 10
50.24639999999999
 20
52.3608
 30
0.0
 40
8.2476
100
AcDbArc
 50
295.2579
 51
312.3047
  0
ARC
  5
276
330
1F
100
AcDbEntity
  8
0
  6
CONTINUOUS
 62
   250
 48
12.0
100
AcDbCircle
 10
51.45
 20
49.8108
 30
0.0
 40
5.427600000000004
100
AcDbArc
 50
273.1298
 51
295.2578
  0
ARC
  5
277
330
1F
100
AcDbEntity
  8
0
  6
CONTINUOUS
 62
   250
 48
12.0
100
AcDbCircle
 10
57.5172
 20
54.2832
 30
0.0
 40
2.756399999999995
100
AcDbArc
 50
21.77609999999996
 51
37.24790000000005
  0
ARC
  5
278
330
1F
100
AcDbEntity
  8
0
  6
CONTINUOUS
 62
   250
 48
12.0
100
AcDbCircle
 10
55.03679999999999
 20
53.29320000000001
 30
0.0
 40
5.4276
100
AcDbArc
 50
357.3555
 51
21.77729999999999
  0
ARC
  5
279
330
1F
100
AcDbEntity
  8
0
  6
CONTINUOUS
 62
   250
 48
12.0
100
AcDbCircle
 10
52.21919999999999
 20
53.4228
 30
0.0
 40
8.2476
100
AcDbArc
 50
340.3085
 51
357.3552
  0
ARC
  5
27A
330
1F
100
AcDbEntity
  8
0
  6
CONTINUOUS
 62
   250
 48
12.0
100
AcDbCircle
 10
48.50279999999999
 20
54.75360000000001
 30
0.0
 40
12.1956
100
AcDbArc
 50
326.3066
 51
340.3086
  0
ARC
  5
27B
330
1F
100
AcDbEntity
  8
0
  6
CONTINUOUS
 62
   250
 48
12.0
100
AcDbCircle
 10
48.50279999999999
 20
54.75360000000001
 30
0.0
 40
12.1956
100
AcDbArc
 50
312.3046
 51
326.3065
  0
ARC
  5
27C
330
1F
100
AcDbEntity
  8
0
  6
CONTINUOUS
 62
   250
 48
12.0
100
AcDbCircle
 10
51.15959999999999
 20
51.834
 30
0.0
 40
8.2476
100
AcDbArc
 50
295.2579
 51
312.3047
  0
ARC
  5
27D
330
1F
100
AcDbEntity
  8
0
  6
CONTINUOUS
 62
   250
 48
12.0
100
AcDbCircle
 10
52.36319999999999
 20
49.28280000000001
 30
0.0
 40
5.427600000000001
100
AcDbArc
 50
270.8364
 51
295.2581
  0
ARC
  5
27E
330
1F
100
AcDbEntity
  8
0
  6
CONTINUOUS
 62
   250
 48
12.0
100
AcDbCircle
 10
52.40159999999999
 20
46.6128
 30
0.0
 40
2.756399999999997
100
AcDbArc
 50
262.7516000000001
 51
270.8368
  0
ARC
  5
27F
330
1F
100
AcDbEntity
  8
0
  6
CONTINUOUS
 62
   250
 48
12.0
100
AcDbCircle
 10
58.4304
 20
53.7564
 30
0.0
 40
2.756400000000003
100
AcDbArc
 50
21.77710000000005
 51
48.73509999999999
  0
ARC
  5
280
330
1F
100
AcDbEntity
  8
0
  6
CONTINUOUS
 62
   250
 48
12.0
100
AcDbCircle
 10
55.95
 20
52.7652
 30
0.0
 40
5.427599999999997
100
AcDbArc
 50
357.3552999999999
 51
21.77710000000005
  0
ARC
  5
281
330
1F
100
AcDbEntity
  8
0
  6
CONTINUOUS
 62
   250
 48
12.0
100
AcDbCircle
 10
53.13359999999999
 20
52.8948
 30
0.0
 40
8.247599999999998
100
AcDbArc
 50
340.3087
 51
357.3554999999998
  0
ARC
  5
282
330
1F
100
AcDbEntity
  8
0
  6
CONTINUOUS
 62
   250
 48
12.0
100
AcDbCircle
 10
49.416
 20
54.22560000000001
 30
0.0
 40
12.1956
100
AcDbArc
 50
326.3066
 51
340.3085
  0
ARC
  5
283
330
1F
100
AcDbEntity
  8
0
  6
CONTINUOUS
 62
   250
 48
12.0
100
AcDbCircle
 10
49.41719999999999
 20
54.22560000000001
 30
0.0
 40
12.1956
100
AcDbArc
 50
312.3047
 51
326.3066
  0
ARC
  5
284
330
1F
100
AcDbEntity
  8
0
  6
CONTINUOUS
 62
   250
 48
12.0
100
AcDbCircle
 10
52.07399999999999
 20
51.306
 30
0.0
 40
8.247599999999997
100
AcDbArc
 50
295.2581
 51
312.3049
  0
ARC
  5
285
330
1F
100
AcDbEntity
  8
0
  6
CONTINUOUS
 62
   250
 48
12.0
100
AcDbCircle
 10
53.27759999999999
 20
48.75600000000001
 30
0.0
 40
5.427599999999997
100
AcDbArc
 50
270.8361
 51
295.2577000000001
  0
ARC
  5
286
330
1F
100
AcDbEntity
  8
0
  6
CONTINUOUS
 62
   250
 48
12.0
100
AcDbCircle
 10
53.316
 20
46.0848
 30
0.0
 40
2.756400000000002
100
AcDbArc
 50
251.2653000000001
 51
270.837
  0
LINE
  5
287
330
1F
100
AcDbEntity
  8
0
  6
CONTINUOUS
 62
   250
 48
12.0
100
AcDbLine
 10
86.9016
 20
101.88
 30
0.0
 11
81.534
 21
98.7816
 31
0.0
  0
LINE
  5
288
330
1F
100
AcDbEntity
  8
0
  6
HIDDEN
 62
   250
 48
12.0
100
AcDbLine
 10
78.7872
 20
97.19520000000001
 30
0.0
 11
78.7872
 21
93.8328
 31
0.0
  0
LINE
  5
289
330
1F
100
AcDbEntity
  8
0
  6
CONTINUOUS
 62
   250
 48
12.0
100
AcDbLine
 10
78.7872
 20
91.27680000000001
 30
0.0
 11
74.7684
 21
88.9572
 31
0.0
  0
LINE
  5
28A
330
1F
100
AcDbEntity
  8
0
  6
CONTINUOUS
 62
   250
 48
12.0
100
AcDbLine
 10
70.1808
 20
92.154
 30
0.0
 11
42.53999999999999
 21
76.19520000000001
 31
0.0
  0
LINE
  5
28B
330
1F
100
AcDbEntity
  8
0
  6
CONTINUOUS
 62
   250
 48
12.0
100
AcDbLine
 10
42.53999999999999
 20
76.19520000000001
 30
0.0
 11
42.53999999999999
 21
58.38599999999999
 31
0.0
  0
LINE
  5
28C
330
1F
100
AcDbEntity
  8
0
  6
CONTINUOUS
 62
   250
 48
12.0
100
AcDbLine
 10
42.53999999999999
 20
58.38599999999999
 30
0.0
 11
40.38720000000001
 21
57.1428
 31
0.0
  0
LINE
  5
28D
330
1F
100
AcDbEntity
  8
0
  6
CONTINUOUS
 62
   250
 48
12.0
100
AcDbLine
 10
40.38720000000001
 20
57.1428
 30
0.0
 11
45.0108
 21
52.242
 31
0.0
  0
LINE
  5
28E
330
1F
100
AcDbEntity
  8
0
  6
CONTINUOUS
 62
   250
 48
12.0
100
AcDbLine
 10
45.0108
 20
52.242
 30
0.0
 11
42.53999999999999
 21
50.81639999999999
 31
0.0
  0
LINE
  5
28F
330
1F
100
AcDbEntity
  8
0
  6
CONTINUOUS
 62
   250
 48
12.0
100
AcDbLine
 10
42.53999999999999
 20
50.81639999999999
 30
0.0
 11
42.53999999999999
 21
31.398
 31
0.0
  0
LINE
  5
290
330
1F
100
AcDbEntity
  8
0
  6
CONTINUOUS
 62
   250
 48
12.0
100
AcDbLine
 10
87.8148
 20
101.3532
 30
0.0
 11
82.3044
 21
98.17080000000001
 31
0.0
  0
LINE
  5
291
330
1F
100
AcDbEntity
  8
0
  6
HIDDEN
 62
   250
 48
12.0
100
AcDbLine
 10
79.7016
 20
96.6684
 30
0.0
 11
79.7016
 21
93.28320000000001
 31
0.0
  0
LINE
  5
292
330
1F
100
AcDbEntity
  8
0
  6
CONTINUOUS
 62
   250
 48
12.0
100
AcDbLine
 10
79.7016
 20
90.75
 30
0.0
 11
74.7684
 21
87.9012
 31
0.0
  0
LINE
  5
293
330
1F
100
AcDbEntity
  8
0
  6
CONTINUOUS
 62
   250
 48
12.0
100
AcDbLine
 10
71.09400000000001
 20
91.626
 30
0.0
 11
43.45439999999999
 21
75.6684
 31
0.0
  0
LINE
  5
294
330
1F
100
AcDbEntity
  8
0
  6
CONTINUOUS
 62
   250
 48
12.0
100
AcDbLine
 10
43.45439999999999
 20
75.6684
 30
0.0
 11
43.45439999999999
 21
57.858
 31
0.0
  0
LINE
  5
295
330
1F
100
AcDbEntity
  8
0
  6
CONTINUOUS
 62
   250
 48
12.0
100
AcDbLine
 10
43.45439999999999
 20
57.858
 30
0.0
 11
41.30159999999999
 21
56.6148
 31
0.0
  0
LINE
  5
296
330
1F
100
AcDbEntity
  8
0
  6
CONTINUOUS
 62
   250
 48
12.0
100
AcDbLine
 10
41.30159999999999
 20
56.6148
 30
0.0
 11
45.92399999999999
 21
51.7152
 31
0.0
  0
LINE
  5
297
330
1F
100
AcDbEntity
  8
0
  6
CONTINUOUS
 62
   250
 48
12.0
100
AcDbLine
 10
45.92399999999999
 20
51.7152
 30
0.0
 11
43.45439999999999
 21
50.2884
 31
0.0
  0
LINE
  5
298
330
1F
100
AcDbEntity
  8
0
  6
CONTINUOUS
 62
   250
 48
12.0
100
AcDbLine
 10
43.45439999999999
 20
50.2884
 30
0.0
 11
43.45439999999999
 21
30.8712
 31
0.0
  0
LINE
  5
299
330
1F
100
AcDbEntity
  8
0
  6
CONTINUOUS
 62
   250
 48
12.0
100
AcDbLine
 10
88.7292
 20
100.8252
 30
0.0
 11
83.0808
 21
97.5648
 31
0.0
  0
LINE
  5
29A
330
1F
100
AcDbEntity
  8
0
  6
HIDDEN
 62
   250
 48
12.0
100
AcDbLine
 10
80.61479999999999
 20
96.14040000000001
 30
0.0
 11
80.61479999999999
 21
92.96640000000001
 31
0.0
  0
LINE
  5
29B
330
1F
100
AcDbEntity
  8
0
  6
CONTINUOUS
 62
   250
 48
12.0
100
AcDbLine
 10
80.61479999999999
 20
90.22200000000001
 30
0.0
 11
74.7684
 21
86.8464
 31
0.0
  0
LINE
  5
29C
330
1F
100
AcDbEntity
  8
0
  6
CONTINUOUS
 62
   250
 48
12.0
100
AcDbLine
 10
72.00840000000001
 20
91.098
 30
0.0
 11
44.3676
 21
75.1404
 31
0.0
  0
LINE
  5
29D
330
1F
100
AcDbEntity
  8
0
  6
CONTINUOUS
 62
   250
 48
12.0
100
AcDbLine
 10
44.3676
 20
75.1404
 30
0.0
 11
44.3676
 21
57.32999999999999
 31
0.0
  0
LINE
  5
29E
330
1F
100
AcDbEntity
  8
0
  6
CONTINUOUS
 62
   250
 48
12.0
100
AcDbLine
 10
44.3676
 20
57.32999999999999
 30
0.0
 11
42.2148
 21
56.0868
 31
0.0
  0
LINE
  5
29F
330
1F
100
AcDbEntity
  8
0
  6
CONTINUOUS
 62
   250
 48
12.0
100
AcDbLine
 10
42.2148
 20
56.0868
 30
0.0
 11
46.83839999999999
 21
51.1872
 31
0.0
  0
LINE
  5
2A0
330
1F
100
AcDbEntity
  8
0
  6
CONTINUOUS
 62
   250
 48
12.0
100
AcDbLine
 10
46.83839999999999
 20
51.1872
 30
0.0
 11
44.3676
 21
49.7604
 31
0.0
  0
LINE
  5
2A1
330
1F
100
AcDbEntity
  8
0
  6
CONTINUOUS
 62
   250
 48
12.0
100
AcDbLine
 10
44.3676
 20
49.7604
 30
0.0
 11
44.3676
 21
30.3432
 31
0.0
  0
LINE
  5
2A2
330
1F
100
AcDbEntity
  8
0
  6
CONTINUOUS
 62
   250
 48
12.0
100
AcDbLine
 10
89.6424
 20
100.2972
 30
0.0
 11
83.87039999999999
 21
96.96480000000001
 31
0.0
  0
LINE
  5
2A3
330
1F
100
AcDbEntity
  8
0
  6
HIDDEN
 62
   250
 48
12.0
100
AcDbLine
 10
81.52799999999999
 20
95.61240000000001
 30
0.0
 11
81.52799999999999
 21
92.4264
 31
0.0
  0
LINE
  5
2A4
330
1F
100
AcDbEntity
  8
0
  6
CONTINUOUS
 62
   250
 48
12.0
100
AcDbLine
 10
81.52799999999999
 20
89.69520000000001
 30
0.0
 11
74.7684
 21
85.7916
 31
0.0
  0
LINE
  5
2A5
330
1F
100
AcDbEntity
  8
0
  6
CONTINUOUS
 62
   250
 48
12.0
100
AcDbLine
 10
72.9216
 20
90.5712
 30
0.0
 11
45.282
 21
74.61240000000001
 31
0.0
  0
LINE
  5
2A6
330
1F
100
AcDbEntity
  8
0
  6
CONTINUOUS
 62
   250
 48
12.0
100
AcDbLine
 10
45.282
 20
74.61240000000001
 30
0.0
 11
45.282
 21
56.8032
 31
0.0
  0
LINE
  5
2A7
330
1F
100
AcDbEntity
  8
0
  6
CONTINUOUS
 62
   250
 48
12.0
100
AcDbLine
 10
45.282
 20
56.8032
 30
0.0
 11
43.128
 21
55.56
 31
0.0
  0
LINE
  5
2A8
330
1F
100
AcDbEntity
  8
0
  6
CONTINUOUS
 62
   250
 48
12.0
100
AcDbLine
 10
43.128
 20
55.56
 30
0.0
 11
47.7516
 21
50.6592
 31
0.0
  0
LINE
  5
2A9
330
1F
100
AcDbEntity
  8
0
  6
CONTINUOUS
 62
   250
 48
12.0
100
AcDbLine
 10
47.7516
 20
50.6592
 30
0.0
 11
45.282
 21
49.2336
 31
0.0
  0
LINE
  5
2AA
330
1F
100
AcDbEntity
  8
0
  6
CONTINUOUS
 62
   250
 48
12.0
100
AcDbLine
 10
45.282
 20
49.2336
 30
0.0
 11
45.282
 21
29.8152
 31
0.0
  0
LINE
  5
2AB
330
1F
100
AcDbEntity
  8
0
  6
CONTINUOUS
 62
   250
 48
12.0
100
AcDbLine
 10
90.5568
 20
99.7704
 30
0.0
 11
84.62999999999998
 21
96.348
 31
0.0
  0
LINE
  5
2AC
330
1F
100
AcDbEntity
  8
0
  6
HIDDEN
 62
   250
 48
12.0
100
AcDbLine
 10
82.44239999999999
 20
95.0856
 30
0.0
 11
82.44239999999999
 21
92.10960000000001
 31
0.0
  0
LINE
  5
2AD
330
1F
100
AcDbEntity
  8
0
  6
CONTINUOUS
 62
   250
 48
12.0
100
AcDbLine
 10
82.44239999999999
 20
89.1672
 30
0.0
 11
74.7684
 21
84.7368
 31
0.0
  0
LINE
  5
2AE
330
1F
100
AcDbEntity
  8
0
  6
CONTINUOUS
 62
   250
 48
12.0
100
AcDbLine
 10
73.836
 20
90.0432
 30
0.0
 11
46.1952
 21
74.0856
 31
0.0
  0
LINE
  5
2AF
330
1F
100
AcDbEntity
  8
0
  6
CONTINUOUS
 62
   250
 48
12.0
100
AcDbLine
 10
46.1952
 20
74.0856
 30
0.0
 11
46.1952
 21
56.2752
 31
0.0
  0
LINE
  5
2B0
330
1F
100
AcDbEntity
  8
0
  6
CONTINUOUS
 62
   250
 48
12.0
100
AcDbLine
 10
46.1952
 20
56.2752
 30
0.0
 11
44.0424
 21
55.032
 31
0.0
  0
LINE
  5
2B1
330
1F
100
AcDbEntity
  8
0
  6
CONTINUOUS
 62
   250
 48
12.0
100
AcDbLine
 10
44.0424
 20
55.032
 30
0.0
 11
48.666
 21
50.1324
 31
0.0
  0
LINE
  5
2B2
330
1F
100
AcDbEntity
  8
0
  6
CONTINUOUS
 62
   250
 48
12.0
100
AcDbLine
 10
48.666
 20
50.1324
 30
0.0
 11
46.1952
 21
48.7056
 31
0.0
  0
LINE
  5
2B3
330
1F
100
AcDbEntity
  8
0
  6
CONTINUOUS
 62
   250
 48
12.0
100
AcDbLine
 10
46.1952
 20
48.7056
 30
0.0
 11
46.1952
 21
29.2884
 31
0.0
  0
ARC
  5
2B4
330
1F
100
AcDbEntity
  8
0
  6
CONTINUOUS
 62
   250
 48
12.0
100
AcDbCircle
 10
54.2484
 20
45.54599999999999
 30
0.0
 40
2.756400000000004
100
AcDbArc
 50
201.7776
 51
236.307
  0
ARC
  5
2B5
330
1F
100
AcDbEntity
  8
0
  6
CONTINUOUS
 62
   250
 48
12.0
100
AcDbCircle
 10
56.7288
 20
46.5372
 30
0.0
 40
5.427599999999997
100
AcDbArc
 50
177.3552999999999
 51
201.7769999999999
  0
ARC
  5
2B6
330
1F
100
AcDbEntity
  8
0
  6
CONTINUOUS
 62
   250
 48
12.0
100
AcDbCircle
 10
59.5464
 20
46.4076
 30
0.0
 40
8.247599999999998
100
AcDbArc
 50
160.3085
 51
177.3552
  0
ARC
  5
2B7
330
1F
100
AcDbEntity
  8
0
  6
CONTINUOUS
 62
   250
 48
12.0
100
AcDbCircle
 10
63.2628
 20
45.0768
 30
0.0
 40
12.1956
100
AcDbArc
 50
146.3066
 51
160.3086
  0
ARC
  5
2B8
330
1F
100
AcDbEntity
  8
0
  6
CONTINUOUS
 62
   250
 48
12.0
100
AcDbCircle
 10
63.2628
 20
45.0768
 30
0.0
 40
12.1956
100
AcDbArc
 50
132.3047
 51
146.3066
  0
ARC
  5
2B9
330
1F
100
AcDbEntity
  8
0
  6
CONTINUOUS
 62
   250
 48
12.0
100
AcDbCircle
 10
60.606
 20
47.9964
 30
0.0
 40
8.2476
100
AcDbArc
 50
115.2579
 51
132.3047
  0
ARC
  5
2BA
330
1F
100
AcDbEntity
  8
0
  6
CONTINUOUS
 62
   250
 48
12.0
100
AcDbCircle
 10
59.40239999999999
 20
50.5476
 30
0.0
 40
5.427600000000001
100
AcDbArc
 50
90.83639999999998
 51
115.2581
  0
ARC
  5
2BB
330
1F
100
AcDbEntity
  8
0
  6
CONTINUOUS
 62
   250
 48
12.0
100
AcDbCircle
 10
59.3628
 20
53.2176
 30
0.0
 40
2.756400000000001
100
AcDbArc
 50
56.30630000000006
 51
90.83589999999994
  0
ARC
  5
2BC
330
1F
100
AcDbEntity
  8
0
  6
CONTINUOUS
 62
   250
 48
12.0
100
AcDbCircle
 10
59.364
 20
53.2176
 30
0.0
 40
2.756400000000002
100
AcDbArc
 50
21.77739999999998
 51
56.30690000000002
  0
ARC
  5
2BD
330
1F
100
AcDbEntity
  8
0
  6
CONTINUOUS
 62
   250
 48
12.0
100
AcDbCircle
 10
56.88359999999999
 20
52.2264
 30
0.0
 40
5.427599999999998
100
AcDbArc
 50
357.3551
 51
21.77679999999995
  0
ARC
  5
2BE
330
1F
100
AcDbEntity
  8
0
  6
CONTINUOUS
 62
   250
 48
12.0
100
AcDbCircle
 10
54.066
 20
52.35720000000001
 30
0.0
 40
8.2476
100
AcDbArc
 50
340.3085
 51
357.3552
  0
ARC
  5
2BF
330
1F
100
AcDbEntity
  8
0
  6
CONTINUOUS
 62
   250
 48
12.0
100
AcDbCircle
 10
50.3496
 20
53.68680000000001
 30
0.0
 40
12.1956
100
AcDbArc
 50
326.3066999999999
 51
340.3086
  0
ARC
  5
2C0
330
1F
100
AcDbEntity
  8
0
  6
CONTINUOUS
 62
   250
 48
12.0
100
AcDbCircle
 10
50.3496
 20
53.68680000000001
 30
0.0
 40
12.1956
100
AcDbArc
 50
312.3046
 51
326.3066
  0
ARC
  5
2C1
330
1F
100
AcDbEntity
  8
0
  6
CONTINUOUS
 62
   250
 48
12.0
100
AcDbCircle
 10
53.00639999999999
 20
50.7672
 30
0.0
 40
8.2476
100
AcDbArc
 50
295.2579
 51
312.3046
  0
ARC
  5
2C2
330
1F
100
AcDbEntity
  8
0
  6
CONTINUOUS
 62
   250
 48
12.0
100
AcDbCircle
 10
54.20999999999999
 20
48.21720000000001
 30
0.0
 40
5.4276
100
AcDbArc
 50
270.8363000000001
 51
295.258
  0
ARC
  5
2C3
330
1F
100
AcDbEntity
  8
0
  6
CONTINUOUS
 62
   250
 48
12.0
100
AcDbCircle
 10
54.2484
 20
45.54599999999999
 30
0.0
 40
2.756399999999995
100
AcDbArc
 50
236.3062999999999
 51
270.8358999999999
  0
LINE
  5
2C4
330
1F
100
AcDbEntity
  8
0
  6
CONTINUOUS
 62
   250
 48
12.0
100
AcDbLine
 10
91.4892
 20
67.85040000000001
 30
0.0
 11
110.7336
 21
56.73959999999999
 31
0.0
  0
LINE
  5
2C5
330
1F
100
AcDbEntity
  8
0
  6
CONTINUOUS
 62
   250
 48
12.0
100
AcDbLine
 10
47.4552
 20
80.25240000000001
 30
0.0
 11
37.6896
 21
85.89120000000001
 31
0.0
  0
LINE
  5
2C6
330
1F
100
AcDbEntity
  8
0
  6
CONTINUOUS
 62
   250
 48
12.0
100
AcDbLine
 10
41.48399999999999
 20
76.6236
 30
0.0
 11
37.6896
 21
78.8148
 31
0.0
  0
LINE
  5
2C7
330
1F
100
AcDbEntity
  8
0
  6
CONTINUOUS
 62
   250
 48
12.0
100
AcDbLine
 10
41.48399999999999
 20
70.212
 30
0.0
 11
37.6896
 21
72.402
 31
0.0
  0
LINE
  5
2C8
330
1F
100
AcDbEntity
  8
0
  6
CONTINUOUS
 62
   250
 48
12.0
100
AcDbLine
 10
41.48399999999999
 20
32.0076
 30
0.0
 11
47.12759999999999
 21
28.7496
 31
0.0
  0
LINE
  5
2C9
330
1F
100
AcDbEntity
  8
0
  6
CONTINUOUS
 62
   250
 48
12.0
100
AcDbLine
 10
41.48399999999999
 20
51.42599999999999
 30
0.0
 11
47.12759999999999
 21
48.1668
 31
0.0
  0
LINE
  5
2CA
330
1F
100
AcDbEntity
  8
0
  6
CONTINUOUS
 62
   250
 48
12.0
100
AcDbLine
 10
43.95480000000001
 20
52.8516
 30
0.0
 11
49.5984
 21
49.5936
 31
0.0
  0
LINE
  5
2CB
330
1F
100
AcDbEntity
  8
0
  6
CONTINUOUS
 62
   250
 48
12.0
100
AcDbLine
 10
39.33120000000001
 20
57.7524
 30
0.0
 11
44.9748
 21
54.49319999999999
 31
0.0
  0
LINE
  5
2CC
330
1F
100
AcDbEntity
  8
0
  6
CONTINUOUS
 62
   250
 48
12.0
100
AcDbLine
 10
41.48399999999999
 20
58.9956
 30
0.0
 11
47.12759999999999
 21
55.7364
 31
0.0
  0
LINE
  5
2CD
330
1F
100
AcDbEntity
  8
0
  6
CONTINUOUS
 62
   250
 48
12.0
100
AcDbLine
 10
41.48399999999999
 20
76.8048
 30
0.0
 11
47.12759999999999
 21
73.5468
 31
0.0
  0
LINE
  5
2CE
330
1F
100
AcDbEntity
  8
0
  6
CONTINUOUS
 62
   250
 48
12.0
100
AcDbLine
 10
69.1248
 20
92.76360000000001
 30
0.0
 11
74.7684
 21
89.5056
 31
0.0
  0
LINE
  5
2CF
330
1F
100
AcDbEntity
  8
0
  6
CONTINUOUS
 62
   250
 48
12.0
100
AcDbLine
 10
77.73119999999999
 20
91.88640000000001
 30
0.0
 11
83.3748
 21
88.6284
 31
0.0
  0
LINE
  5
2D0
330
1F
100
AcDbEntity
  8
0
  6
HIDDEN
 62
   250
 48
12.0
100
AcDbLine
 10
77.73119999999999
 20
97.80479999999999
 30
0.0
 11
83.3748
 21
94.5468
 31
0.0
  0
LINE
  5
2D1
330
1F
100
AcDbEntity
  8
0
  6
CONTINUOUS
 62
   250
 48
12.0
100
AcDbLine
 10
85.84559999999999
 20
102.4896
 30
0.0
 11
91.4892
 21
99.2316
 31
0.0
  0
LINE
  5
2D2
330
1F
100
AcDbEntity
  8
0
  6
CONTINUOUS
 62
   250
 48
12.0
100
AcDbLine
 10
85.84559999999999
 20
102.4896
 30
0.0
 11
80.622
 21
99.474
 31
0.0
  0
LINE
  5
2D3
330
1F
100
AcDbEntity
  8
0
  6
HIDDEN
 62
   250
 48
12.0
100
AcDbLine
 10
77.73119999999999
 20
97.80479999999999
 30
0.0
 11
77.73119999999999
 21
94.296
 31
0.0
  0
LINE
  5
2D4
330
1F
100
AcDbEntity
  8
0
  6
CONTINUOUS
 62
   250
 48
12.0
100
AcDbLine
 10
77.73119999999999
 20
91.88640000000001
 30
0.0
 11
74.1876
 21
89.8404
 31
0.0
  0
LINE
  5
2D5
330
1F
100
AcDbEntity
  8
0
  6
CONTINUOUS
 62
   250
 48
12.0
100
AcDbLine
 10
69.1248
 20
92.76360000000001
 30
0.0
 11
41.48399999999999
 21
76.8048
 31
0.0
  0
LINE
  5
2D6
330
1F
100
AcDbEntity
  8
0
  6
CONTINUOUS
 62
   250
 48
12.0
100
AcDbLine
 10
41.48399999999999
 20
76.8048
 30
0.0
 11
41.48399999999999
 21
58.9956
 31
0.0
  0
LINE
  5
2D7
330
1F
100
AcDbEntity
  8
0
  6
CONTINUOUS
 62
   250
 48
12.0
100
AcDbLine
 10
41.48399999999999
 20
58.9956
 30
0.0
 11
39.33120000000001
 21
57.7524
 31
0.0
  0
LINE
  5
2D8
330
1F
100
AcDbEntity
  8
0
  6
CONTINUOUS
 62
   250
 48
12.0
100
AcDbLine
 10
39.33120000000001
 20
57.7524
 30
0.0
 11
43.95480000000001
 21
52.8516
 31
0.0
  0
LINE
  5
2D9
330
1F
100
AcDbEntity
  8
0
  6
CONTINUOUS
 62
   250
 48
12.0
100
AcDbLine
 10
43.95480000000001
 20
52.8516
 30
0.0
 11
41.48399999999999
 21
51.42599999999999
 31
0.0
  0
LINE
  5
2DA
330
1F
100
AcDbEntity
  8
0
  6
CONTINUOUS
 62
   250
 48
12.0
100
AcDbLine
 10
41.48399999999999
 20
51.42599999999999
 30
0.0
 11
41.48399999999999
 21
32.0076
 31
0.0
  0
LWPOLYLINE
  5
2DB
330
1F
100
AcDbEntity
  8
0
  6
CONTINUOUS
 62
   250
 48
12.0
100
AcDbPolyline
 90
        3
 70
     0
 43
0.0
 10
91.4892
 20
67.85040000000001
 10
80.2128
 20
61.3404
 10
80.2128
 20
47.8512
  0
LWPOLYLINE
  5
2DC
330
1F
100
AcDbEntity
  8
0
  6
CONTINUOUS
 62
   250
 48
12.0
100
AcDbPolyline
 90
       10
 70
     0
 43
0.0
 10
83.3748
 20
88.6284
 10
74.7684
 20
83.65920000000001
 10
74.7684
 20
89.5056
 10
47.12759999999999
 20
73.5468
 10
47.12759999999999
 20
55.7364
 10
44.9748
 20
54.49319999999999
 10
49.5984
 20
49.5936
 10
47.12759999999999
 20
48.1668
 10
47.12759999999999
 20
28.7496
 10
80.2128
 20
47.8512
  0
LINE
  5
2DD
330
1F
100
AcDbEntity
  8
0
  6
HIDDEN
 62
   250
 48
12.0
100
AcDbLine
 10
83.3748
 20
94.5468
 30
0.0
 11
83.3748
 21
91.56960000000001
 31
0.0
  0
LWPOLYLINE
  5
2DE
330
1F
100
AcDbEntity
  8
0
  6
CONTINUOUS
 62
   250
 48
12.0
100
AcDbPolyline
 90
        3
 70
     0
 43
0.0
 10
91.4892
 20
67.85040000000001
 10
91.4892
 20
99.2316
 10
85.44
 20
95.73960000000001
  0
LINE
  5
2DF
330
1F
100
AcDbEntity
  8
0
  6
CONTINUOUS
 62
   250
 48
12.0
100
AcDbLine
 10
78.88080000000001
 20
100.8492
 30
0.0
 11
79.1424
 21
101.0472
 31
0.0
  0
ARC
  5
2E0
330
1F
100
AcDbEntity
  8
0
  6
CONTINUOUS
 62
   250
 48
12.0
100
AcDbCircle
 10
53.45999999999999
 20
111.1764
 30
0.0
 40
1.2324
100
AcDbArc
 50
194.4911999999997
 51
241.5916000000001
  0
ARC
  5
2E1
330
1F
100
AcDbEntity
  8
0
  6
CONTINUOUS
 62
   250
 48
12.0
100
AcDbCircle
 10
56.27399999999999
 20
111.9036
 30
0.0
 40
4.138799999999999
100
AcDbArc
 50
172.2768
 51
194.4908999999999
  0
ARC
  5
2E2
330
1F
100
AcDbEntity
  8
0
  6
CONTINUOUS
 62
   250
 48
12.0
100
AcDbCircle
 10
58.48079999999998
 20
111.6036
 30
0.0
 40
6.364800000000001
100
AcDbArc
 50
146.8513
 51
172.2768000000001
  0
ARC
  5
2E3
330
1F
100
AcDbEntity
  8
0
  6
CONTINUOUS
 62
   250
 48
12.0
100
AcDbCircle
 10
55.8696
 20
113.3088
 30
0.0
 40
3.247200000000003
100
AcDbArc
 50
108.7506000000001
 51
146.8515999999999
  0
ARC
  5
2E4
330
1F
100
AcDbEntity
  8
0
  6
CONTINUOUS
 62
   250
 48
12.0
100
AcDbCircle
 10
55.0992
 20
115.578
 30
0.0
 40
0.8520000000000054
100
AcDbArc
 50
85.60450000000012
 51
108.7519
  0
ARC
  5
2E5
330
1F
100
AcDbEntity
  8
0
  6
CONTINUOUS
 62
   250
 48
12.0
100
AcDbCircle
 10
59.5836
 20
114.2028
 30
0.0
 40
0.2591999999999979
100
AcDbArc
 50
221.2488999999995
 51
250.6904999999997
  0
ARC
  5
2E6
330
1F
100
AcDbEntity
  8
0
  6
CONTINUOUS
 62
   250
 48
12.0
100
AcDbCircle
 10
59.6724
 20
114.2808
 30
0.0
 40
0.3791999999999984
100
AcDbArc
 50
196.9584999999996
 51
221.2457999999995
  0
ARC
  5
2E7
330
1F
100
AcDbEntity
  8
0
  6
CONTINUOUS
 62
   250
 48
12.0
100
AcDbCircle
 10
59.7828
 20
114.3144
 30
0.0
 40
0.4932000000000026
100
AcDbArc
 50
177.5952000000005
 51
196.9570999999998
  0
ARC
  5
2E8
330
1F
100
AcDbEntity
  8
0
  6
CONTINUOUS
 62
   250
 48
12.0
100
AcDbCircle
 10
59.9352
 20
114.3084
 30
0.0
 40
0.6467999999999947
100
AcDbArc
 50
160.6935000000004
 51
177.6005999999996
  0
ARC
  5
2E9
330
1F
100
AcDbEntity
  8
0
  6
CONTINUOUS
 62
   250
 48
12.0
100
AcDbCircle
 10
59.9352
 20
114.3084
 30
0.0
 40
0.645599999999996
100
AcDbArc
 50
143.7824000000001
 51
160.6889999999997
  0
ARC
  5
2EA
330
1F
100
AcDbEntity
  8
0
  6
CONTINUOUS
 62
   250
 48
12.0
100
AcDbCircle
 10
59.81159999999999
 20
114.3984
 30
0.0
 40
0.4932000000000045
100
AcDbArc
 50
124.4171999999997
 51
143.7812000000004
  0
ARC
  5
2EB
330
1F
100
AcDbEntity
  8
0
  6
CONTINUOUS
 62
   250
 48
12.0
100
AcDbCircle
 10
59.7468
 20
114.4932
 30
0.0
 40
0.3792000000000021
100
AcDbArc
 50
100.1337000000001
 51
124.4200000000005
  0
ARC
  5
2EC
330
1F
100
AcDbEntity
  8
0
  6
CONTINUOUS
 62
   250
 48
12.0
100
AcDbCircle
 10
59.72640000000001
 20
114.6108
 30
0.0
 40
0.2591999999999948
100
AcDbArc
 50
70.68969999999979
 51
100.1325000000002
  0
ARC
  5
2ED
330
1F
100
AcDbEntity
  8
0
  6
CONTINUOUS
 62
   250
 48
12.0
100
AcDbCircle
 10
59.72640000000001
 20
114.6108
 30
0.0
 40
0.2591999999999967
100
AcDbArc
 50
41.24910000000028
 51
70.69369999999905
  0
ARC
  5
2EE
330
1F
100
AcDbEntity
  8
0
  6
CONTINUOUS
 62
   250
 48
12.0
100
AcDbCircle
 10
59.6364
 20
114.5316
 30
0.0
 40
0.379199999999997
100
AcDbArc
 50
16.96179999999982
 51
41.2472999999997
  0
ARC
  5
2EF
330
1F
100
AcDbEntity
  8
0
  6
CONTINUOUS
 62
   250
 48
12.0
100
AcDbCircle
 10
59.5272
 20
114.498
 30
0.0
 40
0.4932000000000026
100
AcDbArc
 50
357.5939000000008
 51
16.95969999999936
  0
ARC
  5
2F0
330
1F
100
AcDbEntity
  8
0
  6
CONTINUOUS
 62
   250
 48
12.0
100
AcDbCircle
 10
59.37479999999999
 20
114.504
 30
0.0
 40
0.6467999999999947
100
AcDbArc
 50
340.6935000000004
 51
357.5986000000004
  0
ARC
  5
2F1
330
1F
100
AcDbEntity
  8
0
  6
CONTINUOUS
 62
   250
 48
12.0
100
AcDbCircle
 10
59.37479999999999
 20
114.5052
 30
0.0
 40
0.6456000000000006
100
AcDbArc
 50
323.7786999999997
 51
340.6864000000004
  0
ARC
  5
2F2
330
1F
100
AcDbEntity
  8
0
  6
CONTINUOUS
 62
   250
 48
12.0
100
AcDbCircle
 10
59.4972
 20
114.414
 30
0.0
 40
0.4931999999999944
100
AcDbArc
 50
304.4184000000004
 51
323.7830999999999
  0
ARC
  5
2F3
330
1F
100
AcDbEntity
  8
0
  6
CONTINUOUS
 62
   250
 48
12.0
100
AcDbCircle
 10
59.562
 20
114.3204
 30
0.0
 40
0.3792000000000055
100
AcDbArc
 50
280.1334000000003
 51
304.4180999999994
  0
ARC
  5
2F4
330
1F
100
AcDbEntity
  8
0
  6
CONTINUOUS
 62
   250
 48
12.0
100
AcDbCircle
 10
59.5836
 20
114.2028
 30
0.0
 40
0.2591999999999962
100
AcDbArc
 50
250.6817
 51
280.1274999999994
  0
ARC
  5
2F5
330
1F
100
AcDbEntity
  8
0
  6
CONTINUOUS
 62
   250
 48
12.0
100
AcDbCircle
 10
57.0384
 20
114.0108
 30
0.0
 40
0.2591999999999965
100
AcDbArc
 50
221.2449
 51
250.6880000000004
  0
ARC
  5
2F6
330
1F
100
AcDbEntity
  8
0
  6
CONTINUOUS
 62
   250
 48
12.0
100
AcDbCircle
 10
57.12840000000001
 20
114.0888
 30
0.0
 40
0.3791999999999976
100
AcDbArc
 50
196.9650999999992
 51
221.2495999999996
  0
ARC
  5
2F7
330
1F
100
AcDbEntity
  8
0
  6
CONTINUOUS
 62
   250
 48
12.0
100
AcDbCircle
 10
57.23760000000001
 20
114.1224
 30
0.0
 40
0.4932000000000009
100
AcDbArc
 50
177.5939999999997
 51
196.9614000000001
  0
ARC
  5
2F8
330
1F
100
AcDbEntity
  8
0
  6
CONTINUOUS
 62
   250
 48
12.0
100
AcDbCircle
 10
57.38999999999999
 20
114.1164
 30
0.0
 40
0.6455999999999954
100
AcDbArc
 50
160.6903000000005
 51
177.5943999999996
  0
ARC
  5
2F9
330
1F
100
AcDbEntity
  8
0
  6
CONTINUOUS
 62
   250
 48
12.0
100
AcDbCircle
 10
57.38999999999999
 20
114.1164
 30
0.0
 40
0.6456000000000036
100
AcDbArc
 50
143.7809999999998
 51
160.6899000000002
  0
ARC
  5
2FA
330
1F
100
AcDbEntity
  8
0
  6
CONTINUOUS
 62
   250
 48
12.0
100
AcDbCircle
 10
57.26759999999999
 20
114.2064
 30
0.0
 40
0.4932000000000059
100
AcDbArc
 50
124.4194999999997
 51
143.7816999999994
  0
ARC
  5
2FB
330
1F
100
AcDbEntity
  8
0
  6
CONTINUOUS
 62
   250
 48
12.0
100
AcDbCircle
 10
57.2028
 20
114.3012
 30
0.0
 40
0.3792000000000049
100
AcDbArc
 50
100.1357000000005
 51
124.4214999999999
  0
ARC
  5
2FC
330
1F
100
AcDbEntity
  8
0
  6
CONTINUOUS
 62
   250
 48
12.0
100
AcDbCircle
 10
57.18119999999998
 20
114.4188
 30
0.0
 40
0.2591999999999965
100
AcDbArc
 50
70.68650000000025
 51
100.1299999999995
  0
ARC
  5
2FD
330
1F
100
AcDbEntity
  8
0
  6
CONTINUOUS
 62
   250
 48
12.0
100
AcDbCircle
 10
57.18119999999998
 20
114.4188
 30
0.0
 40
0.2591999999999965
100
AcDbArc
 50
41.24339999999975
 51
70.6889000000001
  0
ARC
  5
2FE
330
1F
100
AcDbEntity
  8
0
  6
CONTINUOUS
 62
   250
 48
12.0
100
AcDbCircle
 10
57.09120000000001
 20
114.3396
 30
0.0
 40
0.3791999999999986
100
AcDbArc
 50
16.96080000000083
 51
41.2484000000005
  0
ARC
  5
2FF
330
1F
100
AcDbEntity
  8
0
  6
CONTINUOUS
 62
   250
 48
12.0
100
AcDbCircle
 10
56.98200000000001
 20
114.306
 30
0.0
 40
0.4931999999999987
100
AcDbArc
 50
357.5978999999994
 51
16.95930000000025
  0
ARC
  5
300
330
1F
100
AcDbEntity
  8
0
  6
CONTINUOUS
 62
   250
 48
12.0
100
AcDbCircle
 10
56.82959999999999
 20
114.312
 30
0.0
 40
0.6468000000000018
100
AcDbArc
 50
340.6886999999995
 51
357.5956000000006
  0
ARC
  5
301
330
1F
100
AcDbEntity
  8
0
  6
CONTINUOUS
 62
   250
 48
12.0
100
AcDbCircle
 10
56.82959999999999
 20
114.312
 30
0.0
 40
0.6455999999999962
100
AcDbArc
 50
323.7832000000003
 51
340.6903000000005
  0
ARC
  5
302
330
1F
100
AcDbEntity
  8
0
  6
CONTINUOUS
 62
   250
 48
12.0
100
AcDbCircle
 10
56.95319999999999
 20
114.222
 30
0.0
 40
0.493200000000007
100
AcDbArc
 50
304.4201999999997
 51
323.7846000000006
  0
ARC
  5
303
330
1F
100
AcDbEntity
  8
0
  6
CONTINUOUS
 62
   250
 48
12.0
100
AcDbCircle
 10
57.01800000000001
 20
114.1284
 30
0.0
 40
0.3792000000000024
100
AcDbArc
 50
280.1325000000001
 51
304.4160999999993
  0
ARC
  5
304
330
1F
100
AcDbEntity
  8
0
  6
CONTINUOUS
 62
   250
 48
12.0
100
AcDbCircle
 10
57.0384
 20
114.0108
 30
0.0
 40
0.2591999999999991
100
AcDbArc
 50
250.6856000000001
 51
280.1325000000002
  0
ARC
  5
305
330
1F
100
AcDbEntity
  8
0
  6
CONTINUOUS
 62
   250
 48
12.0
100
AcDbCircle
 10
56.64959999999999
 20
110.7948
 30
0.0
 40
0.2591999999999979
100
AcDbArc
 50
221.2488999999995
 51
250.6928999999997
  0
ARC
  5
306
330
1F
100
AcDbEntity
  8
0
  6
CONTINUOUS
 62
   250
 48
12.0
100
AcDbCircle
 10
56.73959999999999
 20
110.8728
 30
0.0
 40
0.379199999999997
100
AcDbArc
 50
196.9617999999998
 51
221.2484000000005
  0
ARC
  5
307
330
1F
100
AcDbEntity
  8
0
  6
CONTINUOUS
 62
   250
 48
12.0
100
AcDbCircle
 10
56.84879999999999
 20
110.9064
 30
0.0
 40
0.4932000000000007
100
AcDbArc
 50
177.5993000000008
 51
196.9614000000001
  0
ARC
  5
308
330
1F
100
AcDbEntity
  8
0
  6
CONTINUOUS
 62
   250
 48
12.0
100
AcDbCircle
 10
57.0012
 20
110.9004
 30
0.0
 40
0.6456000000000007
100
AcDbArc
 50
160.6914999999996
 51
177.6002999999996
  0
ARC
  5
309
330
1F
100
AcDbEntity
  8
0
  6
CONTINUOUS
 62
   250
 48
12.0
100
AcDbCircle
 10
57.0012
 20
110.9004
 30
0.0
 40
0.6467999999999984
100
AcDbArc
 50
143.7849999999999
 51
160.6913
  0
ARC
  5
30A
330
1F
100
AcDbEntity
  8
0
  6
CONTINUOUS
 62
   250
 48
12.0
100
AcDbCircle
 10
56.87879999999999
 20
110.9904
 30
0.0
 40
0.493200000000004
100
AcDbArc
 50
124.4201000000001
 51
143.7848999999999
  0
ARC
  5
30B
330
1F
100
AcDbEntity
  8
0
  6
CONTINUOUS
 62
   250
 48
12.0
100
AcDbCircle
 10
56.81399999999999
 20
111.0852
 30
0.0
 40
0.3791999999999999
100
AcDbArc
 50
100.1319999999998
 51
124.4152000000002
  0
ARC
  5
30C
330
1F
100
AcDbEntity
  8
0
  6
CONTINUOUS
 62
   250
 48
12.0
100
AcDbCircle
 10
56.79239999999999
 20
111.2028
 30
0.0
 40
0.2591999999999952
100
AcDbArc
 50
70.69450000000036
 51
100.1374999999992
  0
ARC
  5
30D
330
1F
100
AcDbEntity
  8
0
  6
CONTINUOUS
 62
   250
 48
12.0
100
AcDbCircle
 10
56.79239999999999
 20
111.2028
 30
0.0
 40
0.2591999999999987
100
AcDbArc
 50
41.24369999999882
 51
70.68969999999979
  0
ARC
  5
30E
330
1F
100
AcDbEntity
  8
0
  6
CONTINUOUS
 62
   250
 48
12.0
100
AcDbCircle
 10
56.70359999999999
 20
111.1236
 30
0.0
 40
0.3792000000000004
100
AcDbArc
 50
16.96279999999926
 51
41.2481000000008
  0
ARC
  5
30F
330
1F
100
AcDbEntity
  8
0
  6
CONTINUOUS
 62
   250
 48
12.0
100
AcDbCircle
 10
56.59319999999999
 20
111.09
 30
0.0
 40
0.4932000000000007
100
AcDbArc
 50
357.5993000000008
 51
16.96399999999984
  0
ARC
  5
310
330
1F
100
AcDbEntity
  8
0
  6
CONTINUOUS
 62
   250
 48
12.0
100
AcDbCircle
 10
56.44079999999999
 20
111.096
 30
0.0
 40
0.6467999999999947
100
AcDbArc
 50
340.6935000000004
 51
357.6005999999996
  0
ARC
  5
311
330
1F
100
AcDbEntity
  8
0
  6
CONTINUOUS
 62
   250
 48
12.0
100
AcDbCircle
 10
56.44079999999999
 20
111.0972
 30
0.0
 40
0.6455999999999994
100
AcDbArc
 50
323.7774999999997
 51
340.6853999999998
  0
ARC
  5
312
330
1F
100
AcDbEntity
  8
0
  6
CONTINUOUS
 62
   250
 48
12.0
100
AcDbCircle
 10
56.5644
 20
111.006
 30
0.0
 40
0.4931999999999969
100
AcDbArc
 50
304.4216999999998
 51
323.7869999999997
  0
ARC
  5
313
330
1F
100
AcDbEntity
  8
0
  6
CONTINUOUS
 62
   250
 48
12.0
100
AcDbCircle
 10
56.62919999999999
 20
110.9124
 30
0.0
 40
0.3792000000000057
100
AcDbArc
 50
280.1299999999996
 51
304.4138000000002
  0
ARC
  5
314
330
1F
100
AcDbEntity
  8
0
  6
CONTINUOUS
 62
   250
 48
12.0
100
AcDbCircle
 10
56.64959999999999
 20
110.7948
 30
0.0
 40
0.2592000000000014
100
AcDbArc
 50
250.6928999999997
 51
280.1340999999996
  0
ARC
  5
315
330
1F
100
AcDbEntity
  8
0
  6
CONTINUOUS
 62
   250
 48
12.0
100
AcDbCircle
 10
54.32279999999999
 20
109.0476
 30
0.0
 40
0.2591999999999958
100
AcDbArc
 50
221.2457999999988
 51
250.6865999999997
  0
ARC
  5
316
330
1F
100
AcDbEntity
  8
0
  6
CONTINUOUS
 62
   250
 48
12.0
100
AcDbCircle
 10
54.41159999999999
 20
109.1268
 30
0.0
 40
0.3791999999999989
100
AcDbArc
 50
196.9600999999992
 51
221.2479000000005
  0
ARC
  5
317
330
1F
100
AcDbEntity
  8
0
  6
CONTINUOUS
 62
   250
 48
12.0
100
AcDbCircle
 10
54.52199999999999
 20
109.1604
 30
0.0
 40
0.4932000000000012
100
AcDbArc
 50
177.5967000000002
 51
196.9599999999993
  0
ARC
  5
318
330
1F
100
AcDbEntity
  8
0
  6
CONTINUOUS
 62
   250
 48
12.0
100
AcDbCircle
 10
54.6744
 20
109.1532
 30
0.0
 40
0.6456000000000008
100
AcDbArc
 50
160.6912999999997
 51
177.5982999999998
  0
ARC
  5
319
330
1F
100
AcDbEntity
  8
0
  6
CONTINUOUS
 62
   250
 48
12.0
100
AcDbCircle
 10
54.6744
 20
109.1532
 30
0.0
 40
0.6468000000000023
100
AcDbArc
 50
143.7856000000001
 51
160.6913000000002
  0
ARC
  5
31A
330
1F
100
AcDbEntity
  8
0
  6
CONTINUOUS
 62
   250
 48
12.0
100
AcDbCircle
 10
54.5508
 20
109.2432
 30
0.0
 40
0.4931999999999984
100
AcDbArc
 50
124.4158999999999
 51
143.7812
  0
ARC
  5
31B
330
1F
100
AcDbEntity
  8
0
  6
CONTINUOUS
 62
   250
 48
12.0
100
AcDbCircle
 10
54.48599999999999
 20
109.338
 30
0.0
 40
0.3792000000000024
100
AcDbArc
 50
100.1325000000001
 51
124.4173999999993
  0
ARC
  5
31C
330
1F
100
AcDbEntity
  8
0
  6
CONTINUOUS
 62
   250
 48
12.0
100
AcDbCircle
 10
54.46559999999999
 20
109.4556
 30
0.0
 40
0.2592000000000014
100
AcDbArc
 50
70.69289999999975
 51
100.1375000000008
  0
ARC
  5
31D
330
1F
100
AcDbEntity
  8
0
  6
CONTINUOUS
 62
   250
 48
12.0
100
AcDbCircle
 10
54.46559999999999
 20
109.4556
 30
0.0
 40
0.2592000000000047
100
AcDbArc
 50
41.24390000000072
 51
70.6846000000005
  0
ARC
  5
31E
330
1F
100
AcDbEntity
  8
0
  6
CONTINUOUS
 62
   250
 48
12.0
100
AcDbCircle
 10
54.37559999999999
 20
109.3776
 30
0.0
 40
0.379199999999997
100
AcDbArc
 50
16.96339999999938
 51
41.24860000000045
  0
ARC
  5
31F
330
1F
100
AcDbEntity
  8
0
  6
CONTINUOUS
 62
   250
 48
12.0
100
AcDbCircle
 10
54.26639999999999
 20
109.344
 30
0.0
 40
0.4931999999999978
100
AcDbArc
 50
357.5979999999993
 51
16.96140000000009
  0
ARC
  5
320
330
1F
100
AcDbEntity
  8
0
  6
CONTINUOUS
 62
   250
 48
12.0
100
AcDbCircle
 10
54.114
 20
109.35
 30
0.0
 40
0.6456000000000011
100
AcDbArc
 50
340.6924999999999
 51
357.6005
  0
ARC
  5
321
330
1F
100
AcDbEntity
  8
0
  6
CONTINUOUS
 62
   250
 48
12.0
100
AcDbCircle
 10
54.114
 20
109.35
 30
0.0
 40
0.6456000000000033
100
AcDbArc
 50
323.7817999999999
 51
340.6874
  0
ARC
  5
322
330
1F
100
AcDbEntity
  8
0
  6
CONTINUOUS
 62
   250
 48
12.0
100
AcDbCircle
 10
54.2364
 20
109.26
 30
0.0
 40
0.4932000000000035
100
AcDbArc
 50
304.4175999999996
 51
323.7843000000003
  0
ARC
  5
323
330
1F
100
AcDbEntity
  8
0
  6
CONTINUOUS
 62
   250
 48
12.0
100
AcDbCircle
 10
54.30119999999999
 20
109.1652
 30
0.0
 40
0.3792000000000057
100
AcDbArc
 50
280.1299999999996
 51
304.4165
  0
ARC
  5
324
330
1F
100
AcDbEntity
  8
0
  6
CONTINUOUS
 62
   250
 48
12.0
100
AcDbCircle
 10
54.32279999999999
 20
109.0476
 30
0.0
 40
0.2591999999999968
100
AcDbArc
 50
250.6984999999994
 51
280.1399000000003
  0
ARC
  5
325
330
1F
100
AcDbEntity
  8
0
  6
CONTINUOUS
 62
   250
 48
12.0
100
AcDbCircle
 10
59.0388
 20
114.2136
 30
0.0
 40
2.193599999999997
100
AcDbArc
 50
39.25919999999994
 51
77.23719999999994
  0
LINE
  5
326
330
1F
100
AcDbEntity
  8
0
  6
CONTINUOUS
 62
   250
 48
12.0
100
AcDbLine
 10
60.93599999999999
 20
112.1916
 30
0.0
 11
61.50599999999999
 21
113.8932
 31
0.0
  0
LWPOLYLINE
  5
327
330
1F
100
AcDbEntity
  8
0
  6
CONTINUOUS
 62
   250
 48
12.0
100
AcDbPolyline
 90
        3
 70
     0
 43
0.0
 10
60.73799999999999
 20
115.602
 10
62.12160000000002
 20
114.1596
 10
61.6536
 20
114.3348
  0
LINE
  5
328
330
1F
100
AcDbEntity
  8
0
  6
CONTINUOUS
 62
   250
 48
12.0
100
AcDbLine
 10
61.27200000000001
 20
114.4584
 30
0.0
 11
61.6536
 21
114.3348
 31
0.0
  0
LINE
  5
329
330
1F
100
AcDbEntity
  8
0
  6
CONTINUOUS
 62
   250
 48
12.0
100
AcDbLine
 10
60.55559999999998
 20
112.3152
 30
0.0
 11
60.93599999999999
 21
112.1916
 31
0.0
  0
ARC
  5
32A
330
1F
100
AcDbEntity
  8
0
  6
CONTINUOUS
 62
   250
 48
12.0
100
AcDbCircle
 10
59.6088
 20
111.8904
 30
0.0
 40
1.086000000000001
100
AcDbArc
 50
82.62499999999994
 51
138.8670000000003
  0
ARC
  5
32B
330
1F
100
AcDbEntity
  8
0
  6
CONTINUOUS
 62
   250
 48
12.0
100
AcDbCircle
 10
59.772
 20
111.7476
 30
0.0
 40
1.303200000000001
100
AcDbArc
 50
138.8684
 51
180.7188
  0
ARC
  5
32C
330
1F
100
AcDbEntity
  8
0
  6
CONTINUOUS
 62
   250
 48
12.0
100
AcDbCircle
 10
53.20559999999999
 20
111.6648
 30
0.0
 40
5.263199999999995
100
AcDbArc
 50
348.1538
 51
0.7184999999995649
  0
ARC
  5
32D
330
1F
100
AcDbEntity
  8
0
  6
CONTINUOUS
 62
   250
 48
12.0
100
AcDbCircle
 10
56.0232
 20
111.0744
 30
0.0
 40
2.3856
100
AcDbArc
 50
293.8624
 51
348.1537999999999
  0
ARC
  5
32E
330
1F
100
AcDbEntity
  8
0
  6
CONTINUOUS
 62
   250
 48
12.0
100
AcDbCircle
 10
57.87840000000001
 20
106.8792
 30
0.0
 40
2.202000000000001
100
AcDbArc
 50
113.8622000000001
 51
146.6236000000002
  0
ARC
  5
32F
330
1F
100
AcDbEntity
  8
0
  6
CONTINUOUS
 62
   250
 48
12.0
100
AcDbCircle
 10
261.5663999999999
 20
-27.2988
 30
0.0
 40
246.1128
100
AcDbArc
 50
146.6253
 51
146.7163
  0
ARC
  5
330
330
1F
100
AcDbEntity
  8
0
  6
CONTINUOUS
 62
   250
 48
12.0
100
AcDbCircle
 10
54.9192
 20
108.3588
 30
0.0
 40
1.0848
100
AcDbArc
 50
244.9460999999998
 51
326.7142000000001
  0
ARC
  5
331
330
1F
100
AcDbEntity
  8
0
  6
CONTINUOUS
 62
   250
 48
12.0
100
AcDbCircle
 10
57.48959999999999
 20
113.856
 30
0.0
 40
7.152000000000002
100
AcDbArc
 50
244.3436
 51
244.9323
  0
ARC
  5
332
330
1F
100
AcDbEntity
  8
0
  6
CONTINUOUS
 62
   250
 48
12.0
100
AcDbCircle
 10
52.90799999999999
 20
110.6904
 30
0.0
 40
0.5999999999999963
100
AcDbArc
 50
254.2735999999996
 51
339.6609999999995
  0
ARC
  5
333
330
1F
100
AcDbEntity
  8
0
  6
CONTINUOUS
 62
   250
 48
12.0
100
AcDbCircle
 10
53.07959999999999
 20
111.3
 30
0.0
 40
1.232400000000001
100
AcDbArc
 50
194.4914999999999
 51
254.2727999999999
  0
ARC
  5
334
330
1F
100
AcDbEntity
  8
0
  6
CONTINUOUS
 62
   250
 48
12.0
100
AcDbCircle
 10
55.89239999999999
 20
112.0272
 30
0.0
 40
4.138800000000002
100
AcDbArc
 50
172.277
 51
194.4910999999999
  0
ARC
  5
335
330
1F
100
AcDbEntity
  8
0
  6
CONTINUOUS
 62
   250
 48
12.0
100
AcDbCircle
 10
58.0992
 20
111.7284
 30
0.0
 40
6.3648
100
AcDbArc
 50
146.8519
 51
172.2774
  0
ARC
  5
336
330
1F
100
AcDbEntity
  8
0
  6
CONTINUOUS
 62
   250
 48
12.0
100
AcDbCircle
 10
55.48799999999999
 20
113.4336
 30
0.0
 40
3.247200000000002
100
AcDbArc
 50
108.7504
 51
146.8515000000001
  0
ARC
  5
337
330
1F
100
AcDbEntity
  8
0
  6
CONTINUOUS
 62
   250
 48
12.0
100
AcDbCircle
 10
54.71879999999999
 20
115.7016
 30
0.0
 40
0.8520000000000005
100
AcDbArc
 50
58.77489999999988
 51
108.7501999999998
  0
ARC
  5
338
330
1F
100
AcDbEntity
  8
0
  6
CONTINUOUS
 62
   250
 48
12.0
100
AcDbCircle
 10
54.52079999999999
 20
115.3752
 30
0.0
 40
1.233600000000001
100
AcDbArc
 50
343.3668999999998
 51
58.77509999999992
  0
ARC
  5
339
330
1F
100
AcDbEntity
  8
0
  6
CONTINUOUS
 62
   250
 48
12.0
100
AcDbCircle
 10
55.78390081474958
 20
113.9127267061094
 30
0.0
 40
1.112020137640948
100
AcDbArc
 50
94.21450085926462
 51
203.5635991407347
  0
ARC
  5
33A
330
1F
100
AcDbEntity
  8
0
  6
CONTINUOUS
 62
   250
 48
12.0
100
AcDbCircle
 10
56.57639999999999
 20
111.6192
 30
0.0
 40
2.589599999999998
100
AcDbArc
 50
134.4104
 51
168.9205
  0
ARC
  5
33B
330
1F
100
AcDbEntity
  8
0
  6
CONTINUOUS
 62
   250
 48
12.0
100
AcDbCircle
 10
48.4452
 20
113.2116
 30
0.0
 40
5.696399999999997
100
AcDbArc
 50
336.4792
 51
348.9204
  0
LINE
  5
33C
330
1F
100
AcDbEntity
  8
0
  6
CONTINUOUS
 62
   250
 48
12.0
100
AcDbLine
 10
53.4696
 20
110.4816
 30
0.0
 11
53.6688
 21
110.9376
 31
0.0
  0
ARC
  5
33D
330
1F
100
AcDbEntity
  8
0
  6
CONTINUOUS
 62
   250
 48
12.0
100
AcDbCircle
 10
66.73200000000001
 20
120.2592
 30
0.0
 40
10.0632
100
AcDbArc
 50
227.6931
 51
232.1343
  0
ARC
  5
33E
330
1F
100
AcDbEntity
  8
0
  6
CONTINUOUS
 62
   250
 48
12.0
100
AcDbCircle
 10
59.22719999999999
 20
112.014
 30
0.0
 40
1.086000000000005
100
AcDbArc
 50
47.69370000000024
 51
138.8682999999998
  0
ARC
  5
33F
330
1F
100
AcDbEntity
  8
0
  6
CONTINUOUS
 62
   250
 48
12.0
100
AcDbCircle
 10
59.39039999999999
 20
111.8712
 30
0.0
 40
1.303199999999999
100
AcDbArc
 50
138.8680000000001
 51
180.7178000000003
  0
ARC
  5
340
330
1F
100
AcDbEntity
  8
0
  6
CONTINUOUS
 62
   250
 48
12.0
100
AcDbCircle
 10
52.82519999999999
 20
111.7896
 30
0.0
 40
5.2632
100
AcDbArc
 50
348.1544999999999
 51
0.7190999999998984
  0
ARC
  5
341
330
1F
100
AcDbEntity
  8
0
  6
CONTINUOUS
 62
   250
 48
12.0
100
AcDbCircle
 10
55.64159999999999
 20
111.198
 30
0.0
 40
2.385599999999997
100
AcDbArc
 50
293.8619000000001
 51
348.1537000000001
  0
ARC
  5
342
330
1F
100
AcDbEntity
  8
0
  6
CONTINUOUS
 62
   250
 48
12.0
100
AcDbCircle
 10
57.498
 20
107.0028
 30
0.0
 40
2.202000000000001
100
AcDbArc
 50
113.8627
 51
146.6238000000002
  0
ARC
  5
343
330
1F
100
AcDbEntity
  8
0
  6
CONTINUOUS
 62
   250
 48
12.0
100
AcDbCircle
 10
261.1776
 20
-27.1824
 30
0.0
 40
246.1104
100
AcDbArc
 50
146.6229
 51
146.7139000000001
  0
ARC
  5
344
330
1F
100
AcDbEntity
  8
0
  6
CONTINUOUS
 62
   250
 48
12.0
100
AcDbCircle
 10
54.5376
 20
108.4836
 30
0.0
 40
1.084800000000004
100
AcDbArc
 50
244.9462
 51
326.7142000000002
  0
ARC
  5
345
330
1F
100
AcDbEntity
  8
0
  6
CONTINUOUS
 62
   250
 48
12.0
100
AcDbCircle
 10
57.10679999999999
 20
113.9784
 30
0.0
 40
7.149599999999999
100
AcDbArc
 50
232.331
 51
244.9459999999999
  0
ARC
  5
346
330
1F
100
AcDbEntity
  8
0
  6
CONTINUOUS
 62
   250
 48
12.0
100
AcDbCircle
 10
50.35319999999999
 20
105.2304
 30
0.0
 40
3.9012
100
AcDbArc
 50
52.33060000000003
 51
83.14669999999998
  0
ARC
  5
347
330
1F
100
AcDbEntity
  8
0
  6
CONTINUOUS
 62
   250
 48
12.0
100
AcDbCircle
 10
51.2352
 20
112.5684
 30
0.0
 40
3.489599999999996
100
AcDbArc
 50
231.359
 51
263.1469
  0
ARC
  5
348
330
1F
100
AcDbEntity
  8
0
  6
CONTINUOUS
 62
   250
 48
12.0
100
AcDbCircle
 10
49.36319999999999
 20
110.2272
 30
0.0
 40
0.4919999999999987
100
AcDbArc
 50
132.9337000000002
 51
231.3598
  0
ARC
  5
349
330
1F
100
AcDbEntity
  8
0
  6
CONTINUOUS
 62
   250
 48
12.0
100
AcDbCircle
 10
50.5416
 20
108.96
 30
0.0
 40
2.223599999999997
100
AcDbArc
 50
116.2415
 51
132.9328
  0
ARC
  5
34A
330
1F
100
AcDbEntity
  8
0
  6
CONTINUOUS
 62
   250
 48
12.0
100
AcDbCircle
 10
49.16399999999999
 20
111.756
 30
0.0
 40
0.8927999999999993
100
AcDbArc
 50
296.2396999999999
 51
14.17949999999995
  0
ARC
  5
34B
330
1F
100
AcDbEntity
  8
0
  6
CONTINUOUS
 62
   250
 48
12.0
100
AcDbCircle
 10
55.42199999999999
 20
113.3364
 30
0.0
 40
5.562000000000002
100
AcDbArc
 50
137.0422
 51
194.1794
  0
ARC
  5
34C
330
1F
100
AcDbEntity
  8
0
  6
CONTINUOUS
 62
   250
 48
12.0
100
AcDbCircle
 10
50.78639999999999
 20
117.654
 30
0.0
 40
0.7728000000000033
100
AcDbArc
 50
317.0432999999998
 51
21.36309999999969
  0
ARC
  5
34D
330
1F
100
AcDbEntity
  8
0
  6
CONTINUOUS
 62
   250
 48
12.0
100
AcDbCircle
 10
48.7944
 20
116.8752
 30
0.0
 40
2.9112
100
AcDbArc
 50
21.3641000000001
 51
38.69260000000005
  0
ARC
  5
34E
330
1F
100
AcDbEntity
  8
0
  6
CONTINUOUS
 62
   250
 48
12.0
100
AcDbCircle
 10
51.39599999999999
 20
118.9584
 30
0.0
 40
0.4212000000000025
100
AcDbArc
 50
117.3454999999998
 51
218.6927999999994
  0
ARC
  5
34F
330
1F
100
AcDbEntity
  8
0
  6
CONTINUOUS
 62
   250
 48
12.0
100
AcDbCircle
 10
52.1748
 20
117.4536
 30
0.0
 40
2.115599999999998
100
AcDbArc
 50
100.2446000000001
 51
117.3470000000001
  0
ARC
  5
350
330
1F
100
AcDbEntity
  8
0
  6
CONTINUOUS
 62
   250
 48
12.0
100
AcDbCircle
 10
52.0476
 20
118.1592
 30
0.0
 40
1.3992
100
AcDbArc
 50
51.2271000000001
 51
100.2436
  0
LINE
  5
351
330
1F
100
AcDbEntity
  8
0
  6
CONTINUOUS
 62
   250
 48
12.0
100
AcDbLine
 10
54.37439999999999
 20
118.0836
 30
0.0
 11
52.92360000000001
 21
119.25
 31
0.0
  0
ARC
  5
352
330
1F
100
AcDbEntity
  8
0
  6
CONTINUOUS
 62
   250
 48
12.0
100
AcDbCircle
 10
55.46879999999999
 20
119.556
 30
0.0
 40
1.834799999999997
100
AcDbArc
 50
233.3632999999999
 51
261.8926999999999
  0
ARC
  5
353
330
1F
100
AcDbEntity
  8
0
  6
CONTINUOUS
 62
   250
 48
12.0
100
AcDbCircle
 10
54.7116
 20
114.2376
 30
0.0
 40
3.5376
100
AcDbArc
 50
50.63890000000005
 51
81.8923
  0
ARC
  5
354
330
1F
100
AcDbEntity
  8
0
  6
CONTINUOUS
 62
   250
 48
12.0
100
AcDbCircle
 10
58.2456
 20
118.5468
 30
0.0
 40
2.035200000000003
100
AcDbArc
 50
230.639
 51
275.5909
  0
ARC
  5
355
330
1F
100
AcDbEntity
  8
0
  6
CONTINUOUS
 62
   250
 48
12.0
100
AcDbCircle
 10
58.65839999999999
 20
114.3372
 30
0.0
 40
2.193600000000004
100
AcDbArc
 50
35.69030000000011
 51
95.58970000000001
  0
LWPOLYLINE
  5
356
330
1F
100
AcDbEntity
  8
0
  6
CONTINUOUS
 62
   250
 48
12.0
100
AcDbPolyline
 90
        3
 70
     0
 43
0.0
 10
60.55559999999998
 20
112.3152
 10
61.27200000000001
 20
114.4584
 10
60.43920000000001
 20
115.6176
  0
LINE
  5
357
330
1F
100
AcDbEntity
  8
0
  6
CONTINUOUS
 62
   250
 48
12.0
100
AcDbLine
 10
53.7972
 20
106.3656
 30
0.0
 11
54.0864
 21
107.4972
 31
0.0
  0
LWPOLYLINE
  5
358
330
1F
100
AcDbEntity
  8
0
  6
CONTINUOUS
 62
   250
 48
12.0
100
AcDbPolyline
 90
        3
 70
     0
 43
0.0
 10
61.65239999999999
 20
114.3324
 10
91.38119999999999
 20
91.0656
 10
89.28479999999998
 20
88.7904
  0
LWPOLYLINE
  5
359
330
1F
100
AcDbEntity
  8
0
  6
CONTINUOUS
 62
   250
 48
12.0
100
AcDbPolyline
 90
        3
 70
     0
 43
0.0
 10
89.28479999999998
 20
88.7904
 10
91.09680000000002
 20
90.828
 10
61.50599999999999
 20
113.8932
  0
LINE
  5
35A
330
1F
100
AcDbEntity
  8
0
  6
CONTINUOUS
 62
   250
 48
12.0
100
AcDbLine
 10
48.9648
 20
92.4012
 30
0.0
 11
58.7316
 21
86.7624
 31
0.0
  0
LINE
  5
35B
330
1F
100
AcDbEntity
  8
0
  6
CONTINUOUS
 62
   250
 48
12.0
100
AcDbLine
 10
102.9744
 20
52.26
 30
0.0
 11
102.9744
 21
38.77079999999999
 31
0.0
  0
LINE
  5
35C
330
1F
100
AcDbEntity
  8
0
  6
CONTINUOUS
 62
   250
 48
12.0
100
AcDbLine
 10
99.45720000000001
 20
50.2296
 30
0.0
 11
99.45720000000001
 21
36.74039999999999
 31
0.0
  0
LINE
  5
35D
330
1F
100
AcDbEntity
  8
0
  6
CONTINUOUS
 62
   250
 48
12.0
100
AcDbLine
 10
110.7336
 20
56.73959999999999
 30
0.0
 11
110.7336
 21
43.2516
 31
0.0
  0
LINE
  5
35E
330
1F
100
AcDbEntity
  8
0
  6
CONTINUOUS
 62
   250
 48
12.0
100
AcDbLine
 10
109.2504
 20
53.1564
 30
0.0
 11
109.2504
 21
39.66719999999999
 31
0.0
  0
LINE
  5
35F
330
1F
100
AcDbEntity
  8
0
  6
CONTINUOUS
 62
   250
 48
12.0
100
AcDbLine
 10
45.11999999999999
 20
90.1812
 30
0.0
 11
45.11999999999999
 21
88.88040000000001
 31
0.0
  0
LINE
  5
360
330
1F
100
AcDbEntity
  8
0
  6
CONTINUOUS
 62
   250
 48
12.0
100
AcDbLine
 10
39.2736
 20
89.03760000000001
 30
0.0
 11
39.2736
 21
86.8068
 31
0.0
  0
LINE
  5
361
330
1F
100
AcDbEntity
  8
0
  6
CONTINUOUS
 62
   250
 48
12.0
100
AcDbLine
 10
37.6896
 20
85.89120000000001
 30
0.0
 11
37.6896
 21
72.402
 31
0.0
  0
LINE
  5
362
330
1F
100
AcDbEntity
  8
0
  6
CONTINUOUS
 62
   250
 48
12.0
100
AcDbLine
 10
110.7336
 20
43.2516
 30
0.0
 11
109.2504
 21
42.3948
 31
0.0
  0
LINE
  5
363
330
1F
100
AcDbEntity
  8
0
  6
CONTINUOUS
 62
   250
 48
12.0
100
AcDbLine
 10
102.9744
 20
38.77079999999999
 30
0.0
 11
99.45720000000001
 21
36.74039999999999
 31
0.0
  0
LINE
  5
364
330
1F
100
AcDbEntity
  8
0
  6
CONTINUOUS
 62
   250
 48
12.0
100
AcDbLine
 10
109.2504
 20
39.66719999999999
 30
0.0
 11
102.9744
 21
39.83519999999999
 31
0.0
  0
LINE
  5
365
330
1F
100
AcDbEntity
  8
0
  6
CONTINUOUS
 62
   250
 48
12.0
100
AcDbLine
 10
99.45720000000001
 20
36.74039999999999
 30
0.0
 11
80.2128
 21
47.8512
 31
0.0
  0
LINE
  5
366
330
1F
100
AcDbEntity
  8
0
  6
CONTINUOUS
 62
   250
 48
12.0
100
AcDbLine
 10
110.7336
 20
49.6632
 30
0.0
 11
109.2504
 21
48.8064
 31
0.0
  0
LINE
  5
367
330
1F
100
AcDbEntity
  8
0
  6
CONTINUOUS
 62
   250
 48
12.0
100
AcDbLine
 10
102.9744
 20
45.1836
 30
0.0
 11
99.45720000000001
 21
43.1532
 31
0.0
  0
LINE
  5
368
330
1F
100
AcDbEntity
  8
0
  6
CONTINUOUS
 62
   250
 48
12.0
100
AcDbLine
 10
109.2504
 20
46.07879999999999
 30
0.0
 11
102.9744
 21
46.2468
 31
0.0
  0
LINE
  5
369
330
1F
100
AcDbEntity
  8
0
  6
CONTINUOUS
 62
   250
 48
12.0
100
AcDbLine
 10
99.45720000000001
 20
43.1532
 30
0.0
 11
80.2128
 21
54.2628
 31
0.0
  0
LINE
  5
36A
330
1F
100
AcDbEntity
  8
0
  6
CONTINUOUS
 62
   250
 48
12.0
100
AcDbLine
 10
48.9648
 20
92.4012
 30
0.0
 11
45.11999999999999
 21
90.1812
 31
0.0
  0
LINE
  5
36B
330
1F
100
AcDbEntity
  8
0
  6
CONTINUOUS
 62
   250
 48
12.0
100
AcDbLine
 10
45.11999999999999
 20
90.1812
 30
0.0
 11
47.4828
 21
88.818
 31
0.0
  0
LINE
  5
36C
330
1F
100
AcDbEntity
  8
0
  6
CONTINUOUS
 62
   250
 48
12.0
100
AcDbLine
 10
39.2736
 20
89.03760000000001
 30
0.0
 11
41.2068
 21
87.9216
 31
0.0
  0
LINE
  5
36D
330
1F
100
AcDbEntity
  8
0
  6
CONTINUOUS
 62
   250
 48
12.0
100
AcDbLine
 10
41.2068
 20
87.9216
 30
0.0
 11
37.6896
 21
85.89120000000001
 31
0.0
  0
LINE
  5
36E
330
1F
100
AcDbEntity
  8
0
  6
CONTINUOUS
 62
   250
 48
12.0
100
AcDbLine
 10
47.4828
 20
88.818
 30
0.0
 11
39.2736
 21
89.03760000000001
 31
0.0
  0
LWPOLYLINE
  5
36F
330
1F
100
AcDbEntity
  8
0
  6
CONTINUOUS
 62
   250
 48
12.0
100
AcDbPolyline
 90
        5
 70
     0
 43
0.0
 10
106.8888
 20
54.5196
 10
109.2504
 20
53.1564
 10
101.0424
 20
53.376
 10
102.9744
 20
52.26
 10
99.45720000000001
 20
50.2296
  0
LINE
  5
370
330
1F
100
AcDbEntity
  8
0
  6
CONTINUOUS
 62
   250
 48
12.0
100
AcDbLine
 10
99.45720000000001
 20
50.2296
 30
0.0
 11
80.2128
 21
61.3404
 31
0.0
  0
LINE
  5
371
330
1F
100
AcDbEntity
  8
0
  6
CONTINUOUS
 62
   250
 48
12.0
100
AcDbLine
 10
110.7336
 20
56.73959999999999
 30
0.0
 11
106.8888
 21
54.5196
 31
0.0
  0
LWPOLYLINE
  5
372
330
1F
100
AcDbEntity
  8
0
  6
CONTINUOUS
 62
   250
 48
12.0
100
AcDbPolyline
 90
        4
 70
     1
 43
0.0
 10
0.0
 20
0.0
 10
0.0
 20
145.098
 10
145.2132
 20
145.098
 10
145.2132
 20
0.0
  0
TEXT
  5
37A
330
1F
100
AcDbEntity
  8
0
 62
   250
100
AcDbText
 10
2.101562500000001
 20
138.1435879467414
 30
0.0
 40
5.0
  1
R9
 41
0.7936507936507936
  7
LPDETAILTEXT
 11
2.101562500000001
 21
136.125
 31
0.0
100
AcDbText
 73
     1
  0
TEXT
  5
37B
330
1F
100
AcDbEntity
  8
0
 62
   250
100
AcDbText
 10
4.28125
 20
21.20608794674142
 30
0.0
 40
5.0
  1
Exception:
 41
0.7936507936507936
  7
LPDETAILTEXT
 11
4.28125
 21
19.1875
 31
0.0
100
AcDbText
 73
     1
  0
TEXT
  5
37C
330
1F
100
AcDbEntity
  8
0
 62
   250
100
AcDbText
 10
16.1875
 20
137.4375
 30
0.0
 40
5.0
  1
DON’T bore holes or notch unless
 41
0.7936507936507936
  7
LPDETAILTEXT
 11
16.1875
 21
142.4375
 31
0.0
100
AcDbText
 73
     3
  0
TEXT
  5
37D
330
1F
100
AcDbEntity
  8
0
 62
   250
100
AcDbText
 10
16.1875
 20
129.5625
 30
0.0
 40
5.0
  1
reviewed by a design professional.
 41
0.7936507936507936
  7
LPDETAILTEXT
 11
16.1875
 21
134.5625
 31
0.0
100
AcDbText
 73
     3
  0
TEXT
  5
37E
330
1F
100
AcDbEntity
  8
0
 62
   250
100
AcDbText
 10
4.1875
 20
12.51858794674142
 30
0.0
 40
5.0
  1
Small holes may be drilled in 
 41
0.7936507936507936
  7
LPDETAILTEXT
 11
4.1875
 21
10.5
 31
0.0
100
AcDbText
 73
     1
  0
TEXT
  5
37F
330
1F
100
AcDbEntity
  8
0
 62
   250
100
AcDbText
 10
4.1875
 20
4.643587946741415
 30
0.0
 40
5.0
  1
accordance with the Beam Hole Details.
 41
0.7936507936507936
  7
LPDETAILTEXT
 11
4.1875
 21
2.625
 31
0.0
100
AcDbText
 73
     1
  0
INSERT
  5
380
330
1F
100
AcDbEntity
  8
0
  6
BYBLOCK
 62
   250
100
AcDbBlockReference
  2
MACRO_0_F96CC7A6-F908-44CB
 10
86.11814789348544
 20
64.7627433687189
 30
0.0
 41
12.0
 42
12.0
 50
22.00759998298566
  0
INSERT
  5
381
330
1F
100
AcDbEntity
  8
0
  6
BYBLOCK
 62
   250
100
AcDbBlockReference
  2
MACRO_1_F1547F08-0579-4F60
 10
5.817355950844247
 20
7.151707215917665
 30
0.0
 41
10.8
 42
10.8
  0
INSERT
  5
382
330
1F
100
AcDbEntity
  8
0
  6
BYBLOCK
 62
   250
100
AcDbBlockReference
  2
HATCH_2_BB7EEA32-C9A8-41EC
 10
0.0
 20
0.0
 30
0.0
  0
INSERT
  5
383
330
1F
100
AcDbEntity
  8
0
  6
BYBLOCK
 62
   250
100
AcDbBlockReference
  2
HATCH_3_6B1B8D76-8DB4-456B
 10
0.0
 20
0.0
 30
0.0
  0
INSERT
  5
384
330
1F
100
AcDbEntity
  8
0
  6
BYBLOCK
 62
   250
100
AcDbBlockReference
  2
HATCH_4_C0D07722-D80D-4A96
 10
0.0
 20
0.0
 30
0.0
  0
INSERT
  5
385
330
1F
100
AcDbEntity
  8
0
  6
BYBLOCK
 62
   250
100
AcDbBlockReference
  2
HATCH_5_8619D120-026A-4953
 10
0.0
 20
0.0
 30
0.0
  0
INSERT
  5
386
330
1F
100
AcDbEntity
  8
0
  6
BYBLOCK
 62
   250
100
AcDbBlockReference
  2
HATCH_6_9CB0B357-7323-4C80
 10
0.0
 20
0.0
 30
0.0
  0
INSERT
  5
387
330
1F
100
AcDbEntity
  8
0
  6
BYBLOCK
 62
   250
100
AcDbBlockReference
  2
HATCH_7_902249D3-E2C7-4163
 10
0.0
 20
0.0
 30
0.0
  0
ENDSEC
  0
SECTION
  2
OBJECTS
  0
DICTIONARY
  5
C
330
0
100
AcDbDictionary
  3
ACAD_GROUP
350
D
  3
ACAD_LAYOUT
350
1A
  3
ACAD_MATERIAL
350
3B
  3
ACAD_MLEADERSTYLE
350
3AA
  3
ACAD_MLINESTYLE
350
17
  3
ACAD_PLOTSETTINGS
350
19
  3
ACAD_VISUALSTYLE
350
2A
  3
ACDBHEADERROUNDTRIPXREC
350
388
  3
ACDBVARIABLEDICTIONARY
350
3A8
  0
DICTIONARY
  5
D
102
{ACAD_REACTORS
330
C
102
}
330
C
100
AcDbDictionary
  0
DICTIONARY
  5
1A
102
{ACAD_REACTORS
330
C
102
}
330
C
100
AcDbDictionary
  0
DICTIONARY
  5
3B
102
{ACAD_REACTORS
330
C
102
}
330
C
100
AcDbDictionary
  3
BYBLOCK
350
3D
  3
BYLAYER
350
3C
  3
GLOBAL
350
3E
  0
DICTIONARY
  5
3AA
102
{ACAD_REACTORS
330
C
102
}
330
C
100
AcDbDictionary
  0
DICTIONARY
  5
17
102
{ACAD_REACTORS
330
C
102
}
330
C
100
AcDbDictionary
  3
STANDARD
350
18
  0
DICTIONARY
  5
19
102
{ACAD_REACTORS
330
C
102
}
330
C
100
AcDbDictionary
  0
DICTIONARY
  5
2A
102
{ACAD_REACTORS
330
C
102
}
330
C
100
AcDbDictionary
  3
2DWIREFRAME
350
2F
  3
3D_HIDDEN
350
31
  3
3DWIREFRAME
350
30
  3
BASIC
350
32
  3
BRIGHTEN
350
36
  3
COLORCHANGE
350
3A
  3
CONCEPTUAL
350
34
  3
DIM
350
35
  3
FACEPATTERN
350
39
  3
FLAT
350
2B
  3
FLATWITHEDGES
350
2C
  3
GOURAUD
350
2D
  3
GOURAUDWITHEDGES
350
2E
  3
LINEPATTERN
350
38
  3
REALISTIC
350
33
  3
THICKEN
350
37
  0
DICTIONARY
  5
388
102
{ACAD_REACTORS
330
C
102
}
330
C
100
AcDbDictionary
  3
CEPSNTYPE
350
391
  3
DIMSTYLEDATA
350
3A7
  3
FINGERPRINTGUID
350
392
  3
HYPERLINKBASE
350
38B
  3
INSUNITS
350
390
  3
LAYOUTDICT
350
38D
  3
LWETCUNION
350
38F
  3
PLOTSETDICT
350
38E
  3
PSVPSCALE
350
394
  3
PUCSBASE
350
397
  3
PUCSORGBACK
350
39D
  3
PUCSORGBOTTOM
350
399
  3
PUCSORGFRONT
350
39C
  3
PUCSORGLEFT
350
39A
  3
PUCSORGRIGHT
350
39B
  3
PUCSORGTOP
350
398
  3
PUCSORTHOREF
350
395
  3
PUCSORTHOVIEW
350
396
  3
STYLESHEET
350
38C
  3
TSTACKALIGN
350
389
  3
TSTACKSIZE
350
38A
  3
UCSBASE
350
3A0
  3
UCSORGBACK
350
3A6
  3
UCSORGBOTTOM
350
3A2
  3
UCSORGFRONT
350
3A5
  3
UCSORGLEFT
350
3A3
  3
UCSORGRIGHT
350
3A4
  3
UCSORGTOP
350
3A1
  3
UCSORTHOREF
350
39E
  3
UCSORTHOVIEW
350
39F
  3
VERSIONGUID
350
393
  0
DICTIONARY
  5
3A8
102
{ACAD_REACTORS
330
C
102
}
330
C
100
AcDbDictionary
  3
DIMASSOC
350
3AB
  3
HIDETEXT
350
3AC
  0
MATERIAL
  5
3D
102
{ACAD_REACTORS
330
3B
102
}
102
{ACAD_XDICTIONARY
360
3AF
102
}
330
3B
100
AcDbMaterial
  1
ByBlock
  0
MATERIAL
  5
3C
102
{ACAD_REACTORS
330
3B
102
}
102
{ACAD_XDICTIONARY
360
3AD
102
}
330
3B
100
AcDbMaterial
  1
ByLayer
  0
MATERIAL
  5
3E
102
{ACAD_REACTORS
330
3B
102
}
102
{ACAD_XDICTIONARY
360
3B1
102
}
330
3B
100
AcDbMaterial
  1
Global
  0
MLINESTYLE
  5
18
102
{ACAD_REACTORS
330
17
102
}
330
17
100
AcDbMlineStyle
  2
Standard
 70
     0
  3

 62
   256
 51
90.0
 52
90.0
 71
     2
 49
0.5
 62
   256
  6
BYLAYER
 49
-0.5
 62
   256
  6
BYLAYER
  0
ACAD_PROXY_OBJECT
  5
2F
102
{ACAD_REACTORS
330
2A
102
}
330
2A
100
AcDbProxyObject
 90
      499
 91
      501
 93
      436
310
42CC9915DA5C99599C985B595049028333333333333E3BF0000000000000FB0107901411070040501600405405064090741402480A0340
1001
ACAD
1000
AcDbSavedByObjectVersion
1070
     0
  0
ACAD_PROXY_OBJECT
  5
31
102
{ACAD_REACTORS
330
2A
102
}
330
2A
100
AcDbProxyObject
 90
      499
 91
      501
 93
      500
310
424CD108121A5919195B90640502408333333333333E3BF0000000000000FB01079024090700405020000000000001110200405405064090740C02480A0340
1001
ACAD
1000
AcDbSavedByObjectVersion
1070
     0
  0
ACAD_PROXY_OBJECT
  5
30
102
{ACAD_REACTORS
330
2A
102
}
330
2A
100
AcDbProxyObject
 90
      499
 91
      501
 93
      436
310
42CCD915DA5C99599C985B595059028333333333333E3BF0000000000000FB0107901411070040501600405405064090741402480A0340
1001
ACAD
1000
AcDbSavedByObjectVersion
1070
     0
  0
ACAD_PROXY_OBJECT
  5
32
102
{ACAD_REACTORS
330
2A
102
}
330
2A
100
AcDbProxyObject
 90
      499
 91
      501
 93
      388
310
4150985CDA58D07406404333333333333E3BF0000000000000FB0107A41107004050150841D405064090741402480A0350
1001
ACAD
1000
AcDbSavedByObjectVersion
1070
     0
  0
ACAD_PROXY_OBJECT
  5
36
102
{ACAD_REACTORS
330
2A
102
}
330
2A
100
AcDbProxyObject
 90
      499
 91
      501
 93
      428
310
42109C9A59DA1D195B90C409028333333333333E3BF0000000000000FB010790141107004050150841D405064090741402480A029950
1001
ACAD
1000
AcDbSavedByObjectVersion
1070
     0
  0
ACAD_PROXY_OBJECT
  5
3A
102
{ACAD_REACTORS
330
2A
102
}
330
2A
100
AcDbProxyObject
 90
      499
 91
      501
 93
      452
310
42D0DBDB1BDC90DA185B99D95104090240C333333333333E3BF0000000000000FB0108901411070040501508421405064090741402480A0350
1001
ACAD
1000
AcDbSavedByObjectVersion
1070
     0
  0
ACAD_PROXY_OBJECT
  5
34
102
{ACAD_REACTORS
330
2A
102
}
330
2A
100
AcDbProxyObject
 90
      499
 91
      501
 93
      500
310
4290DBDB98D95C1D1D585B10940D028333333333333E3BF0000000000000FB0107902409070040501000000000000111010841D405064090740C02480A0340
1001
ACAD
1000
AcDbSavedByObjectVersion
1070
     0
  0
ACAD_PROXY_OBJECT
  5
35
102
{ACAD_REACTORS
330
2A
102
}
330
2A
100
AcDbProxyObject
 90
      499
 91
      501
 93
      412
310
40D11A5B50B409028333333333333E3BF0000000000000FB010790141107004050150841D405064090741402480A02677FFFFFD0
1001
ACAD
1000
AcDbSavedByObjectVersion
1070
     0
  0
ACAD_PROXY_OBJECT
  5
39
102
{ACAD_REACTORS
330
2A
102
}
330
2A
100
AcDbProxyObject
 90
      499
 91
      501
 93
      444
310
42D19858D95C185D1D195C9B90F409028333333333333E3BF0000000000000FB010790141107004050150841D405064090741402480A0350
1001
ACAD
1000
AcDbSavedByObjectVersion
1070
     0
  0
ACAD_PROXY_OBJECT
  5
2B
102
{ACAD_REACTORS
330
2A
102
}
330
2A
100
AcDbProxyObject
 90
      499
 91
      501
 93
      388
310
41119B185D240901404333333333333E3BF0000000000000F9010740A41107004050150841D405064090741402480A1B50
1001
ACAD
1000
AcDbSavedByObjectVersion
1070
     0
  0
ACAD_PROXY_OBJECT
  5
2C
102
{ACAD_REACTORS
330
2A
102
}
330
2A
100
AcDbProxyObject
 90
      499
 91
      501
 93
      476
310
43519B185D15DA5D1A115919D95CD0140901404333333333333E3BF0000000000000F9010740901411070040501600405405064090741402480A1B50
1001
ACAD
1000
AcDbSavedByObjectVersion
1070
     0
  0
ACAD_PROXY_OBJECT
  5
2D
102
{ACAD_REACTORS
330
2A
102
}
330
2A
100
AcDbProxyObject
 90
      499
 91
      501
 93
      412
310
41D1DBDD5C985D5910240902404333333333333E3BF0000000000000F9010740A411070040501641D405064090741402480A1B50
1001
ACAD
1000
AcDbSavedByObjectVersion
1070
     0
  0
ACAD_PROXY_OBJECT
  5
2E
102
{ACAD_REACTORS
330
2A
102
}
330
2A
100
AcDbProxyObject
 90
      499
 91
      501
 93
      500
310
4411DBDD5C985D5915DA5D1A115919D95CD0340902404333333333333E3BF0000000000000F9010740901411070040501600405405064090741402480A1B50
1001
ACAD
1000
AcDbSavedByObjectVersion
1070
     0
  0
ACAD_PROXY_OBJECT
  5
38
102
{ACAD_REACTORS
330
2A
102
}
330
2A
100
AcDbProxyObject
 90
      499
 91
      501
 93
      444
310
42D31A5B995C185D1D195C9B90E409028333333333333E3BF0000000000000FB010790141107004050750841D405064090741402483A0350
1001
ACAD
1000
AcDbSavedByObjectVersion
1070
     0
  0
ACAD_PROXY_OBJECT
  5
33
102
{ACAD_REACTORS
330
2A
102
}
330
2A
100
AcDbProxyObject
 90
      499
 91
      501
 93
      420
310
425499585B1A5CDD1A58D08409028333333333333E3BF0000000000000FB01079019070040501508421405064090741402480A1B40
1001
ACAD
1000
AcDbSavedByObjectVersion
1070
     0
  0
ACAD_PROXY_OBJECT
  5
37
102
{ACAD_REACTORS
330
2A
102
}
330
2A
100
AcDbProxyObject
 90
      499
 91
      501
 93
      412
310
41D51A1A58DAD95B90D409028333333333333E3BF0000000000000FB010790141107004050150C41D405064090741402480A0350
1001
ACAD
1000
AcDbSavedByObjectVersion
1070
     0
  0
XRECORD
  5
391
102
{ACAD_REACTORS
330
388
102
}
330
388
100
AcDbXrecord
 90
        0
  0
XRECORD
  5
3A7
102
{ACAD_REACTORS
330
388
102
}
330
388
100
AcDbXrecord
1000
DSTYLE
1002
{
1070
   340
340
11
1002
}
  0
XRECORD
  5
392
102
{ACAD_REACTORS
330
388
102
}
330
388
100
AcDbXrecord
  1
{318AD9AF-B321-49D2-BAEF-B7321D5CBC69}
  0
XRECORD
  5
38B
102
{ACAD_REACTORS
330
388
102
}
330
388
100
AcDbXrecord
  1

  0
XRECORD
  5
390
102
{ACAD_REACTORS
330
388
102
}
330
388
100
AcDbXrecord
 90
        4
  0
XRECORD
  5
38D
102
{ACAD_REACTORS
330
388
102
}
330
388
100
AcDbXrecord
340
1A
  0
XRECORD
  5
38F
102
{ACAD_REACTORS
330
388
102
}
330
388
100
AcDbXrecord
 90
    10781
  0
XRECORD
  5
38E
102
{ACAD_REACTORS
330
388
102
}
330
388
100
AcDbXrecord
340
19
  0
XRECORD
  5
394
102
{ACAD_REACTORS
330
388
102
}
330
388
100
AcDbXrecord
 40
0.0
  0
XRECORD
  5
397
102
{ACAD_REACTORS
330
388
102
}
330
388
100
AcDbXrecord
340
0
  0
XRECORD
  5
39D
102
{ACAD_REACTORS
330
388
102
}
330
388
100
AcDbXrecord
 10
0.0
 20
0.0
 30
0.0
  0
XRECORD
  5
399
102
{ACAD_REACTORS
330
388
102
}
330
388
100
AcDbXrecord
 10
0.0
 20
0.0
 30
0.0
  0
XRECORD
  5
39C
102
{ACAD_REACTORS
330
388
102
}
330
388
100
AcDbXrecord
 10
0.0
 20
0.0
 30
0.0
  0
XRECORD
  5
39A
102
{ACAD_REACTORS
330
388
102
}
330
388
100
AcDbXrecord
 10
0.0
 20
0.0
 30
0.0
  0
XRECORD
  5
39B
102
{ACAD_REACTORS
330
388
102
}
330
388
100
AcDbXrecord
 10
0.0
 20
0.0
 30
0.0
  0
XRECORD
  5
398
102
{ACAD_REACTORS
330
388
102
}
330
388
100
AcDbXrecord
 10
0.0
 20
0.0
 30
0.0
  0
XRECORD
  5
395
102
{ACAD_REACTORS
330
388
102
}
330
388
100
AcDbXrecord
340
0
  0
XRECORD
  5
396
102
{ACAD_REACTORS
330
388
102
}
330
388
100
AcDbXrecord
 70
     0
  0
XRECORD
  5
38C
102
{ACAD_REACTORS
330
388
102
}
330
388
100
AcDbXrecord
  1

  0
XRECORD
  5
389
102
{ACAD_REACTORS
330
388
102
}
330
388
100
AcDbXrecord
 90
        1
  0
XRECORD
  5
38A
102
{ACAD_REACTORS
330
388
102
}
330
388
100
AcDbXrecord
 90
       70
  0
XRECORD
  5
3A0
102
{ACAD_REACTORS
330
388
102
}
330
388
100
AcDbXrecord
340
0
  0
XRECORD
  5
3A6
102
{ACAD_REACTORS
330
388
102
}
330
388
100
AcDbXrecord
 10
0.0
 20
0.0
 30
0.0
  0
XRECORD
  5
3A2
102
{ACAD_REACTORS
330
388
102
}
330
388
100
AcDbXrecord
 10
0.0
 20
0.0
 30
0.0
  0
XRECORD
  5
3A5
102
{ACAD_REACTORS
330
388
102
}
330
388
100
AcDbXrecord
 10
0.0
 20
0.0
 30
0.0
  0
XRECORD
  5
3A3
102
{ACAD_REACTORS
330
388
102
}
330
388
100
AcDbXrecord
 10
0.0
 20
0.0
 30
0.0
  0
XRECORD
  5
3A4
102
{ACAD_REACTORS
330
388
102
}
330
388
100
AcDbXrecord
 10
0.0
 20
0.0
 30
0.0
  0
XRECORD
  5
3A1
102
{ACAD_REACTORS
330
388
102
}
330
388
100
AcDbXrecord
 10
0.0
 20
0.0
 30
0.0
  0
XRECORD
  5
39E
102
{ACAD_REACTORS
330
388
102
}
330
388
100
AcDbXrecord
340
0
  0
XRECORD
  5
39F
102
{ACAD_REACTORS
330
388
102
}
330
388
100
AcDbXrecord
 70
     0
  0
XRECORD
  5
393
102
{ACAD_REACTORS
330
388
102
}
330
388
100
AcDbXrecord
  1
{FAEB1C32-E019-11D5-929B-00C0DF256EC4}
  0
DICTIONARYVAR
  5
3AB
102
{ACAD_REACTORS
330
3A8
102
}
330
3A8
100
DictionaryVariables
280
     0
  1
2
  0
DICTIONARYVAR
  5
3AC
102
{ACAD_REACTORS
330
3A8
102
}
330
3A8
100
DictionaryVariables
280
     0
  1
1
  0
DICTIONARY
  5
3AF
330
3D
100
AcDbDictionary
280
     1
  3
ACAD_XREC_ROUNDTRIP
360
3B0
  0
DICTIONARY
  5
3AD
330
3C
100
AcDbDictionary
280
     1
  3
ACAD_XREC_ROUNDTRIP
360
3AE
  0
DICTIONARY
  5
3B1
330
3E
100
AcDbDictionary
280
     1
  3
ACAD_XREC_ROUNDTRIP
360
3B2
  0
XRECORD
  5
3B0
102
{ACAD_REACTORS
330
3AF
102
}
330
3AF
100
AcDbXrecord
102
MATERIAL
148
0.0
149
0.0
149
0.0
 93
        0
 94
      127
282
     0
 72
     1
 77
     1
171
     1
175
     1
179
     1
273
     0
  0
XRECORD
  5
3AE
102
{ACAD_REACTORS
330
3AD
102
}
330
3AD
100
AcDbXrecord
102
MATERIAL
148
0.0
149
0.0
149
0.0
 93
        0
 94
      127
282
     0
 72
     1
 77
     1
171
     1
175
     1
179
     1
273
     0
  0
XRECORD
  5
3B2
102
{ACAD_REACTORS
330
3B1
102
}
330
3B1
100
AcDbXrecord
102
MATERIAL
148
0.0
149
0.0
149
0.0
 93
        0
 94
      127
282
     0
 72
     1
 77
     1
171
     1
175
     1
179
     1
273
     0
  0
ENDSEC
  0
EOF
