  0
SECTION
  2
HEADER
  9
$ACADVER
  1
AC1015
  9
$ACADMAINTVER
 70
     6
  9
$DWGCODEPAGE
  3
ANSI_1252
  9
$INSBASE
 10
0.0
 20
0.0
 30
0.0
  9
$EXTMIN
 10
-2.640239096859542
 20
-2.638146951660838
 30
0.0
  9
$EXTMAX
 10
55.44504032228762
 20
55.40105246794692
 30
0.0
  9
$LIMMIN
 10
-2.640239096859542
 20
-2.638146951660838
  9
$LIMMAX
 10
55.44504032228762
 20
55.40105246794692
  9
$ORTHOMODE
 70
     0
  9
$REGENMODE
 70
     1
  9
$FILLMODE
 70
     1
  9
$QTEXTMODE
 70
     0
  9
$MIRRTEXT
 70
     1
  9
$LTSCALE
 40
1.0
  9
$ATTMODE
 70
     1
  9
$TEXTSIZE
 40
0.2
  9
$TRACEWID
 40
0.05
  9
$TEXTSTYLE
  7
Standard
  9
$CLAYER
  8
0
  9
$CELTYPE
  6
ByLayer
  9
$CECOLOR
 62
   256
  9
$CELTSCALE
 40
1.0
  9
$DISPSILH
 70
     0
  9
$DIMSCALE
 40
1.0
  9
$DIMASZ
 40
0.18
  9
$DIMEXO
 40
0.0625
  9
$DIMDLI
 40
0.38
  9
$DIMRND
 40
0.0
  9
$DIMDLE
 40
0.0
  9
$DIMEXE
 40
0.18
  9
$DIMTP
 40
0.0
  9
$DIMTM
 40
0.0
  9
$DIMTXT
 40
0.18
  9
$DIMCEN
 40
0.09
  9
$DIMTSZ
 40
0.0
  9
$DIMTOL
 70
     0
  9
$DIMLIM
 70
     0
  9
$DIMTIH
 70
     1
  9
$DIMTOH
 70
     1
  9
$DIMSE1
 70
     0
  9
$DIMSE2
 70
     0
  9
$DIMTAD
 70
     0
  9
$DIMZIN
 70
     0
  9
$DIMBLK
  1

  9
$DIMASO
 70
     1
  9
$DIMSHO
 70
     1
  9
$DIMPOST
  1

  9
$DIMAPOST
  1

  9
$DIMALT
 70
     0
  9
$DIMALTD
 70
     2
  9
$DIMALTF
 40
25.4
  9
$DIMLFAC
 40
1.0
  9
$DIMTOFL
 70
     0
  9
$DIMTVP
 40
0.0
  9
$DIMTIX
 70
     0
  9
$DIMSOXD
 70
     0
  9
$DIMSAH
 70
     0
  9
$DIMBLK1
  1

  9
$DIMBLK2
  1

  9
$DIMSTYLE
  2
Standard
  9
$DIMCLRD
 70
     0
  9
$DIMCLRE
 70
     0
  9
$DIMCLRT
 70
     0
  9
$DIMTFAC
 40
1.0
  9
$DIMGAP
 40
0.09
  9
$DIMJUST
 70
     0
  9
$DIMSD1
 70
     0
  9
$DIMSD2
 70
     0
  9
$DIMTOLJ
 70
     1
  9
$DIMTZIN
 70
     0
  9
$DIMALTZ
 70
     0
  9
$DIMALTTZ
 70
     0
  9
$DIMUPT
 70
     0
  9
$DIMDEC
 70
     4
  9
$DIMTDEC
 70
     4
  9
$DIMALTU
 70
     2
  9
$DIMALTTD
 70
     2
  9
$DIMTXSTY
  7
Standard
  9
$DIMAUNIT
 70
     0
  9
$DIMADEC
 70
     0
  9
$DIMALTRND
 40
0.0
  9
$DIMAZIN
 70
     0
  9
$DIMDSEP
 70
    46
  9
$DIMATFIT
 70
     3
  9
$DIMFRAC
 70
     0
  9
$DIMLDRBLK
  1

  9
$DIMLUNIT
 70
     2
  9
$DIMLWD
 70
    -2
  9
$DIMLWE
 70
    -2
  9
$DIMTMOVE
 70
     0
  9
$LUNITS
 70
     2
  9
$LUPREC
 70
     4
  9
$SKETCHINC
 40
0.1
  9
$FILLETRAD
 40
0.5
  9
$AUNITS
 70
     0
  9
$AUPREC
 70
     0
  9
$MENU
  1
.
  9
$ELEVATION
 40
0.0
  9
$PELEVATION
 40
0.0
  9
$THICKNESS
 40
0.0
  9
$LIMCHECK
 70
     0
  9
$CHAMFERA
 40
0.5
  9
$CHAMFERB
 40
0.5
  9
$CHAMFERC
 40
1.0
  9
$CHAMFERD
 40
0.0
  9
$SKPOLY
 70
     0
  9
$TDCREATE
 40
2456097.706074109
  9
$TDUCREATE
 40
2456097.956074109
  9
$TDUPDATE
 40
2456097.70607412
  9
$TDUUPDATE
 40
2456097.95607412
  9
$TDINDWG
 40
0.0000000116
  9
$TDUSRTIMER
 40
0.0000000116
  9
$USRTIMER
 70
     1
  9
$ANGBASE
 50
0.0
  9
$ANGDIR
 70
     0
  9
$PDMODE
 70
     0
  9
$PDSIZE
 40
0.0
  9
$PLINEWID
 40
0.0
  9
$SPLFRAME
 70
     0
  9
$SPLINETYPE
 70
     6
  9
$SPLINESEGS
 70
     8
  9
$HANDSEED
  5
51C
  9
$SURFTAB1
 70
     6
  9
$SURFTAB2
 70
     6
  9
$SURFTYPE
 70
     6
  9
$SURFU
 70
     6
  9
$SURFV
 70
     6
  9
$UCSBASE
  2

  9
$UCSNAME
  2

  9
$UCSORG
 10
0.0
 20
0.0
 30
0.0
  9
$UCSXDIR
 10
1.0
 20
0.0
 30
0.0
  9
$UCSYDIR
 10
0.0
 20
1.0
 30
0.0
  9
$UCSORTHOREF
  2

  9
$UCSORTHOVIEW
 70
     0
  9
$UCSORGTOP
 10
0.0
 20
0.0
 30
0.0
  9
$UCSORGBOTTOM
 10
0.0
 20
0.0
 30
0.0
  9
$UCSORGLEFT
 10
0.0
 20
0.0
 30
0.0
  9
$UCSORGRIGHT
 10
0.0
 20
0.0
 30
0.0
  9
$UCSORGFRONT
 10
0.0
 20
0.0
 30
0.0
  9
$UCSORGBACK
 10
0.0
 20
0.0
 30
0.0
  9
$PUCSBASE
  2

  9
$PUCSNAME
  2

  9
$PUCSORG
 10
0.0
 20
0.0
 30
0.0
  9
$PUCSXDIR
 10
1.0
 20
0.0
 30
0.0
  9
$PUCSYDIR
 10
0.0
 20
1.0
 30
0.0
  9
$PUCSORTHOREF
  2

  9
$PUCSORTHOVIEW
 70
     0
  9
$PUCSORGTOP
 10
0.0
 20
0.0
 30
0.0
  9
$PUCSORGBOTTOM
 10
0.0
 20
0.0
 30
0.0
  9
$PUCSORGLEFT
 10
0.0
 20
0.0
 30
0.0
  9
$PUCSORGRIGHT
 10
0.0
 20
0.0
 30
0.0
  9
$PUCSORGFRONT
 10
0.0
 20
0.0
 30
0.0
  9
$PUCSORGBACK
 10
0.0
 20
0.0
 30
0.0
  9
$USERI1
 70
     0
  9
$USERI2
 70
     0
  9
$USERI3
 70
     0
  9
$USERI4
 70
     0
  9
$USERI5
 70
     0
  9
$USERR1
 40
0.0
  9
$USERR2
 40
0.0
  9
$USERR3
 40
0.0
  9
$USERR4
 40
0.0
  9
$USERR5
 40
0.0
  9
$WORLDVIEW
 70
     1
  9
$SHADEDGE
 70
     3
  9
$SHADEDIF
 70
    70
  9
$TILEMODE
 70
     1
  9
$MAXACTVP
 70
    64
  9
$PINSBASE
 10
0.0
 20
0.0
 30
0.0
  9
$PLIMCHECK
 70
     0
  9
$PEXTMIN
 10
1.000000000000000E+20
 20
1.000000000000000E+20
 30
1.000000000000000E+20
  9
$PEXTMAX
 10
-1.000000000000000E+20
 20
-1.000000000000000E+20
 30
-1.000000000000000E+20
  9
$PLIMMIN
 10
0.0
 20
0.0
  9
$PLIMMAX
 10
12.0
 20
9.0
  9
$UNITMODE
 70
     0
  9
$VISRETAIN
 70
     1
  9
$PLINEGEN
 70
     0
  9
$PSLTSCALE
 70
     1
  9
$TREEDEPTH
 70
  3020
  9
$CMLSTYLE
  2
Standard
  9
$CMLJUST
 70
     0
  9
$CMLSCALE
 40
1.0
  9
$PROXYGRAPHICS
 70
     1
  9
$MEASUREMENT
 70
     0
  9
$CELWEIGHT
370
    -1
  9
$ENDCAPS
280
     0
  9
$JOINSTYLE
280
     0
  9
$LWDISPLAY
290
     0
  9
$INSUNITS
 70
     4
  9
$HYPERLINKBASE
  1

  9
$STYLESHEET
  1

  9
$XEDIT
290
     1
  9
$CEPSNTYPE
380
     0
  9
$PSTYLEMODE
290
     1
  9
$FINGERPRINTGUID
  2
{715651A9-BB4D-4C5A-B176-DB835AF8FCE8}
  9
$VERSIONGUID
  2
{FAEB1C32-E019-11D5-929B-00C0DF256EC4}
  9
$EXTNAMES
290
     1
  9
$PSVPSCALE
 40
0.0
  9
$OLESTARTUP
290
     0
  0
ENDSEC
  0
SECTION
  2
CLASSES
  0
CLASS
  1
ACDBDICTIONARYWDFLT
  2
AcDbDictionaryWithDefault
  3
ObjectDBX Classes
 90
        0
280
     0
281
     0
  0
CLASS
  1
VISUALSTYLE
  2
AcDbVisualStyle
  3
ObjectDBX Classes
 90
     4095
280
     0
281
     0
  0
CLASS
  1
MATERIAL
  2
AcDbMaterial
  3
ObjectDBX Classes
 90
     1153
280
     0
281
     0
  0
CLASS
  1
DICTIONARYVAR
  2
AcDbDictionaryVar
  3
ObjectDBX Classes
 90
        0
280
     0
281
     0
  0
CLASS
  1
ACDBPLACEHOLDER
  2
AcDbPlaceHolder
  3
ObjectDBX Classes
 90
        0
280
     0
281
     0
  0
CLASS
  1
LAYOUT
  2
AcDbLayout
  3
ObjectDBX Classes
 90
        0
280
     0
281
     0
  0
ENDSEC
  0
SECTION
  2
TABLES
  0
TABLE
  2
VPORT
  5
8
330
0
100
AcDbSymbolTable
 70
     1
  0
VPORT
  5
29
330
8
100
AcDbSymbolTableRecord
100
AcDbViewportTableRecord
  2
*Active
 70
     0
 10
0.0
 20
0.0
 11
1.0
 21
1.0
 12
-2.640239096859542
 22
26.38145275814304
 13
0.0
 23
0.0
 14
0.5
 24
0.5
 15
0.5
 25
0.5
 16
0.0
 26
0.0
 36
1.0
 17
0.0
 27
0.0
 37
0.0
 40
58.03919941960775
 41
0.3059442055235186
 42
50.0
 43
0.0
 44
0.0
 50
0.0
 51
0.0
 71
     0
 72
   100
 73
     1
 74
     3
 75
     0
 76
     0
 77
     0
 78
     0
281
     0
 65
     1
110
0.0
120
0.0
130
0.0
111
1.0
121
0.0
131
0.0
112
0.0
122
1.0
132
0.0
 79
     0
146
0.0
  0
ENDTAB
  0
TABLE
  2
LTYPE
  5
5
330
0
100
AcDbSymbolTable
 70
    10
  0
LTYPE
  5
14
330
5
100
AcDbSymbolTableRecord
100
AcDbLinetypeTableRecord
  2
ByBlock
 70
     0
  3

 72
    65
 73
     0
 40
0.0
  0
LTYPE
  5
15
330
5
100
AcDbSymbolTableRecord
100
AcDbLinetypeTableRecord
  2
ByLayer
 70
     0
  3

 72
    65
 73
     0
 40
0.0
  0
LTYPE
  5
16
330
5
100
AcDbSymbolTableRecord
100
AcDbLinetypeTableRecord
  2
Continuous
 70
     0
  3
Solid line
 72
    65
 73
     0
 40
0.0
  0
LTYPE
  5
53
330
5
100
AcDbSymbolTableRecord
100
AcDbLinetypeTableRecord
  2
ZIGZAG
 70
     0
  3
/\/\/\/\/\/\/\/\
 72
    65
 73
     4
 40
20.32254
 49
0.00254
 74
     0
 49
-5.08
 74
     4
 75
   131
340
52
 46
5.08
 50
0.0
 44
-5.08
 45
0.0
 49
-10.16
 74
     4
 75
   131
340
52
 46
5.08
 50
180.0
 44
5.08
 45
0.0
 49
-5.08
 74
     0
  0
LTYPE
  5
54
330
5
100
AcDbSymbolTableRecord
100
AcDbLinetypeTableRecord
  2
BATTING
 70
     0
  3
 SSSSSSSSSSSSSSSSSSSSSS
 72
    65
 73
     4
 40
10.16254
 49
0.00254
 74
     0
 49
-2.54
 74
     4
 75
   134
340
52
 46
2.54
 50
0.0
 44
-2.54
 45
0.0
 49
-5.08
 74
     4
 75
   134
340
52
 46
2.54
 50
180.0
 44
2.54
 45
0.0
 49
-2.54
 74
     0
  0
LTYPE
  5
55
330
5
100
AcDbSymbolTableRecord
100
AcDbLinetypeTableRecord
  2
DASHDOT
 70
     0
  3
DASHDOT
 72
    65
 73
     4
 40
1.0
 49
0.5
 74
     0
 49
-0.25
 74
     0
 49
0.0001
 74
     0
 49
-0.25
 74
     0
  0
LTYPE
  5
56
330
5
100
AcDbSymbolTableRecord
100
AcDbLinetypeTableRecord
  2
DASHDOTX2
 70
     0
  3
DASHDOTX2
 72
    65
 73
     4
 40
1.0
 49
1.0
 74
     0
 49
-0.5
 74
     0
 49
0.0002
 74
     0
 49
-0.5
 74
     0
  0
LTYPE
  5
57
330
5
100
AcDbSymbolTableRecord
100
AcDbLinetypeTableRecord
  2
DASHED
 70
     0
  3
DASHED
 72
    65
 73
     2
 40
0.75
 49
0.5
 74
     0
 49
-0.25
 74
     0
  0
LTYPE
  5
58
330
5
100
AcDbSymbolTableRecord
100
AcDbLinetypeTableRecord
  2
TRACKS
 70
     0
  3
TRACKS
 72
    65
 73
     2
 40
7.62
 49
3.81
 74
     0
 49
3.81
 74
     0
  0
LTYPE
  5
59
330
5
100
AcDbSymbolTableRecord
100
AcDbLinetypeTableRecord
  2
DOT
 70
     0
  3
DOT
 72
    65
 73
     2
 40
0.25
 49
0.0001
 74
     0
 49
-0.25
 74
     0
  0
LTYPE
  5
5A
330
5
100
AcDbSymbolTableRecord
100
AcDbLinetypeTableRecord
  2
DIVIDE
 70
     0
  3
DIVIDE
 72
    65
 73
     6
 40
1.25
 49
0.5
 74
     0
 49
-0.25
 74
     0
 49
0.0001
 74
     0
 49
-0.25
 74
     0
 49
0.0001
 74
     0
 49
-0.25
 74
     0
  0
LTYPE
  5
5B
330
5
100
AcDbSymbolTableRecord
100
AcDbLinetypeTableRecord
  2
PHANTOM
 70
     0
  3
PHANTOM
 72
    65
 73
     6
 40
2.5
 49
1.25
 74
     0
 49
-0.25
 74
     0
 49
0.25
 74
     0
 49
-0.25
 74
     0
 49
0.25
 74
     0
 49
-0.25
 74
     0
  0
ENDTAB
  0
TABLE
  2
LAYER
  5
2
330
0
100
AcDbSymbolTable
 70
   249
  0
LAYER
  5
10
330
2
100
AcDbSymbolTableRecord
100
AcDbLayerTableRecord
  2
0
 70
     0
 62
     7
  6
Continuous
370
    35
390
F
  0
LAYER
  5
5C
330
2
100
AcDbSymbolTableRecord
100
AcDbLayerTableRecord
  2
DETAILS
 70
     0
 62
     7
  6
Continuous
370
    35
390
F
  0
LAYER
  5
5D
330
2
100
AcDbSymbolTableRecord
100
AcDbLayerTableRecord
  2
2 Drafting Aux Lines
 70
     0
 62
     7
  6
Continuous
370
    35
390
F
  0
LAYER
  5
5E
330
2
100
AcDbSymbolTableRecord
100
AcDbLayerTableRecord
  2
3 Texts
 70
     0
 62
     7
  6
Continuous
370
    35
390
F
  0
LAYER
  5
5F
330
2
100
AcDbSymbolTableRecord
100
AcDbLayerTableRecord
  2
4 Dimensions
 70
     0
 62
     7
  6
Continuous
370
    35
390
F
  0
LAYER
  5
60
330
2
100
AcDbSymbolTableRecord
100
AcDbLayerTableRecord
  2
5 Hatches
 70
     0
 62
     7
  6
Continuous
370
    35
390
F
  0
LAYER
  5
61
330
2
100
AcDbSymbolTableRecord
100
AcDbLayerTableRecord
  2
6 Drawing Origin Marker
 70
     0
 62
     7
  6
Continuous
370
    35
390
F
  0
LAYER
  5
62
330
2
100
AcDbSymbolTableRecord
100
AcDbLayerTableRecord
  2
7 Sheet
 70
     0
 62
     7
  6
Continuous
370
    35
390
F
  0
LAYER
  5
63
330
2
100
AcDbSymbolTableRecord
100
AcDbLayerTableRecord
  2
8 Other
 70
     0
 62
     7
  6
Continuous
370
    35
390
F
  0
LAYER
  5
64
330
2
100
AcDbSymbolTableRecord
100
AcDbLayerTableRecord
  2
9 Never-Hiding Lines
 70
     0
 62
     7
  6
Continuous
370
    35
390
F
  0
LAYER
  5
65
330
2
100
AcDbSymbolTableRecord
100
AcDbLayerTableRecord
  2
10 Raster Images
 70
     0
 62
     7
  6
Continuous
370
    35
390
F
  0
LAYER
  5
66
330
2
100
AcDbSymbolTableRecord
100
AcDbLayerTableRecord
  2
11 Wall Rough Frame
 70
     0
 62
     7
  6
Continuous
370
    35
390
F
  0
LAYER
  5
67
330
2
100
AcDbSymbolTableRecord
100
AcDbLayerTableRecord
  2
12 Wall Ext Surface
 70
     0
 62
     7
  6
Continuous
370
    35
390
F
  0
LAYER
  5
68
330
2
100
AcDbSymbolTableRecord
100
AcDbLayerTableRecord
  2
13 Wall Int Surface
 70
     0
 62
     7
  6
Continuous
370
    35
390
F
  0
LAYER
  5
69
330
2
100
AcDbSymbolTableRecord
100
AcDbLayerTableRecord
  2
14 Wall Other Lines
 70
     0
 62
     7
  6
Continuous
370
    35
390
F
  0
LAYER
  5
6A
330
2
100
AcDbSymbolTableRecord
100
AcDbLayerTableRecord
  2
16 Wall Insulation
 70
     0
 62
     7
  6
Continuous
370
    35
390
F
  0
LAYER
  5
6B
330
2
100
AcDbSymbolTableRecord
100
AcDbLayerTableRecord
  2
17 Wall Framing Lines
 70
     0
 62
     7
  6
Continuous
370
    35
390
F
  0
LAYER
  5
6C
330
2
100
AcDbSymbolTableRecord
100
AcDbLayerTableRecord
  2
18 Wall Bottom Plate
 70
     0
 62
     7
  6
Continuous
370
    35
390
F
  0
LAYER
  5
6D
330
2
100
AcDbSymbolTableRecord
100
AcDbLayerTableRecord
  2
19 Wall Hatch Patterns
 70
     0
 62
     7
  6
Continuous
370
    35
390
F
  0
LAYER
  5
6E
330
2
100
AcDbSymbolTableRecord
100
AcDbLayerTableRecord
  2
20 Wall_ Space Divider
 70
     0
 62
     7
  6
Continuous
370
    35
390
F
  0
LAYER
  5
6F
330
2
100
AcDbSymbolTableRecord
100
AcDbLayerTableRecord
  2
21 Foundation
 70
     0
 62
     7
  6
Continuous
370
    35
390
F
  0
LAYER
  5
70
330
2
100
AcDbSymbolTableRecord
100
AcDbLayerTableRecord
  2
22 Fill (Color)
 70
     0
 62
     7
  6
Continuous
370
    35
390
F
  0
LAYER
  5
71
330
2
100
AcDbSymbolTableRecord
100
AcDbLayerTableRecord
  2
23 Foundation Hatch
 70
     0
 62
     7
  6
Continuous
370
    35
390
F
  0
LAYER
  5
72
330
2
100
AcDbSymbolTableRecord
100
AcDbLayerTableRecord
  2
24 Module lines (grid)
 70
     0
 62
     7
  6
Continuous
370
    35
390
F
  0
LAYER
  5
73
330
2
100
AcDbSymbolTableRecord
100
AcDbLayerTableRecord
  2
25 Opening Labels
 70
     0
 62
     7
  6
Continuous
370
    35
390
F
  0
LAYER
  5
74
330
2
100
AcDbSymbolTableRecord
100
AcDbLayerTableRecord
  2
26 Openings Windows
 70
     0
 62
     7
  6
Continuous
370
    35
390
F
  0
LAYER
  5
75
330
2
100
AcDbSymbolTableRecord
100
AcDbLayerTableRecord
  2
27 Openings Doors
 70
     0
 62
     7
  6
Continuous
370
    35
390
F
  0
LAYER
  5
76
330
2
100
AcDbSymbolTableRecord
100
AcDbLayerTableRecord
  2
28 Openings Other
 70
     0
 62
     7
  6
Continuous
370
    35
390
F
  0
LAYER
  5
77
330
2
100
AcDbSymbolTableRecord
100
AcDbLayerTableRecord
  2
31 Wall Color Fill
 70
     0
 62
     7
  6
Continuous
370
    35
390
F
  0
LAYER
  5
78
330
2
100
AcDbSymbolTableRecord
100
AcDbLayerTableRecord
  2
32 Wall Center Line
 70
     0
 62
     7
  6
Continuous
370
    35
390
F
  0
LAYER
  5
79
330
2
100
AcDbSymbolTableRecord
100
AcDbLayerTableRecord
  2
33 Opening Sheet Labels
 70
     0
 62
    -7
  6
Continuous
370
    35
390
F
  0
LAYER
  5
7A
330
2
100
AcDbSymbolTableRecord
100
AcDbLayerTableRecord
  2
34 Outdoor Components
 70
     0
 62
     7
  6
Continuous
370
    35
390
F
  0
LAYER
  5
7B
330
2
100
AcDbSymbolTableRecord
100
AcDbLayerTableRecord
  2
35 Lawn Furniture
 70
     0
 62
     7
  6
Continuous
370
    35
390
F
  0
LAYER
  5
7C
330
2
100
AcDbSymbolTableRecord
100
AcDbLayerTableRecord
  2
36 Furniture
 70
     0
 62
     7
  6
Continuous
370
    35
390
F
  0
LAYER
  5
7D
330
2
100
AcDbSymbolTableRecord
100
AcDbLayerTableRecord
  2
37 Extra Materials
 70
     0
 62
     7
  6
Continuous
370
    35
390
F
  0
LAYER
  5
7E
330
2
100
AcDbSymbolTableRecord
100
AcDbLayerTableRecord
  2
38 Furniture markings
 70
     0
 62
     7
  6
Continuous
370
    35
390
F
  0
LAYER
  5
7F
330
2
100
AcDbSymbolTableRecord
100
AcDbLayerTableRecord
  2
39 Furniture labels
 70
     0
 62
     7
  6
Continuous
370
    35
390
F
  0
LAYER
  5
80
330
2
100
AcDbSymbolTableRecord
100
AcDbLayerTableRecord
  2
40 Floor Shape Lines
 70
     0
 62
     7
  6
Continuous
370
    35
390
F
  0
LAYER
  5
81
330
2
100
AcDbSymbolTableRecord
100
AcDbLayerTableRecord
  2
41 Surface Hatch
 70
     0
 62
     7
  6
Continuous
370
    35
390
F
  0
LAYER
  5
82
330
2
100
AcDbSymbolTableRecord
100
AcDbLayerTableRecord
  2
42 Framing Pieces
 70
     0
 62
     7
  6
Continuous
370
    35
390
F
  0
LAYER
  5
83
330
2
100
AcDbSymbolTableRecord
100
AcDbLayerTableRecord
  2
43 Piece Labels
 70
     0
 62
     7
  6
Continuous
370
    35
390
F
  0
LAYER
  5
84
330
2
100
AcDbSymbolTableRecord
100
AcDbLayerTableRecord
  2
44 Piece Schedules
 70
     0
 62
     7
  6
Continuous
370
    35
390
F
  0
LAYER
  5
85
330
2
100
AcDbSymbolTableRecord
100
AcDbLayerTableRecord
  2
45 Pan.Layout Center Lns
 70
     0
 62
     7
  6
Continuous
370
    35
390
F
  0
LAYER
  5
86
330
2
100
AcDbSymbolTableRecord
100
AcDbLayerTableRecord
  2
46 2nd Pan.CL
 70
     0
 62
     7
  6
Continuous
370
    35
390
F
  0
LAYER
  5
87
330
2
100
AcDbSymbolTableRecord
100
AcDbLayerTableRecord
  2
47 Outlines
 70
     0
 62
     7
  6
Continuous
370
    35
390
F
  0
LAYER
  5
88
330
2
100
AcDbSymbolTableRecord
100
AcDbLayerTableRecord
  2
48 Labels
 70
     0
 62
     7
  6
Continuous
370
    35
390
F
  0
LAYER
  5
89
330
2
100
AcDbSymbolTableRecord
100
AcDbLayerTableRecord
  2
49 Assembly
 70
     0
 62
     7
  6
Continuous
370
    35
390
F
  0
LAYER
  5
8A
330
2
100
AcDbSymbolTableRecord
100
AcDbLayerTableRecord
  2
50 Ceiling Shape Lines
 70
     0
 62
     7
  6
Continuous
370
    35
390
F
  0
LAYER
  5
8B
330
2
100
AcDbSymbolTableRecord
100
AcDbLayerTableRecord
  2
51 Surface Hatch
 70
     0
 62
     7
  6
Continuous
370
    35
390
F
  0
LAYER
  5
8C
330
2
100
AcDbSymbolTableRecord
100
AcDbLayerTableRecord
  2
52 Framing Pieces
 70
     0
 62
     7
  6
Continuous
370
    35
390
F
  0
LAYER
  5
8D
330
2
100
AcDbSymbolTableRecord
100
AcDbLayerTableRecord
  2
53 Piece Labels
 70
     0
 62
     7
  6
Continuous
370
    35
390
F
  0
LAYER
  5
8E
330
2
100
AcDbSymbolTableRecord
100
AcDbLayerTableRecord
  2
54 Structural Design Labels
 70
     0
 62
     7
  6
Continuous
370
    35
390
F
  0
LAYER
  5
8F
330
2
100
AcDbSymbolTableRecord
100
AcDbLayerTableRecord
  2
55 Room Labels
 70
     0
 62
     7
  6
Continuous
370
    35
390
F
  0
LAYER
  5
90
330
2
100
AcDbSymbolTableRecord
100
AcDbLayerTableRecord
  2
56 Room Hatch
 70
     0
 62
    -7
  6
Continuous
370
    35
390
F
  0
LAYER
  5
91
330
2
100
AcDbSymbolTableRecord
100
AcDbLayerTableRecord
  2
57 Floor Area
 70
     0
 62
     7
  6
Continuous
370
    35
390
F
  0
LAYER
  5
92
330
2
100
AcDbSymbolTableRecord
100
AcDbLayerTableRecord
  2
58 Total Floor Area
 70
     0
 62
     7
  6
Continuous
370
    35
390
F
  0
LAYER
  5
93
330
2
100
AcDbSymbolTableRecord
100
AcDbLayerTableRecord
  2
59 Component color fill
 70
     0
 62
     7
  6
Continuous
370
    35
390
F
  0
LAYER
  5
94
330
2
100
AcDbSymbolTableRecord
100
AcDbLayerTableRecord
  2
60 Electrical Symbols
 70
     0
 62
     7
  6
Continuous
370
    35
390
F
  0
LAYER
  5
95
330
2
100
AcDbSymbolTableRecord
100
AcDbLayerTableRecord
  2
61 Cables
 70
     0
 62
     7
  6
Continuous
370
    35
390
F
  0
LAYER
  5
96
330
2
100
AcDbSymbolTableRecord
100
AcDbLayerTableRecord
  2
62 Legend
 70
     0
 62
     7
  6
Continuous
370
    35
390
F
  0
LAYER
  5
97
330
2
100
AcDbSymbolTableRecord
100
AcDbLayerTableRecord
  2
63 Text & Dimensions
 70
     0
 62
     7
  6
Continuous
370
    35
390
F
  0
LAYER
  5
98
330
2
100
AcDbSymbolTableRecord
100
AcDbLayerTableRecord
  2
64 Ceiling Lights
 70
     0
 62
     7
  6
Continuous
370
    35
390
F
  0
LAYER
  5
99
330
2
100
AcDbSymbolTableRecord
100
AcDbLayerTableRecord
  2
65 HVAC Symbols
 70
     0
 62
     7
  6
Continuous
370
    35
390
F
  0
LAYER
  5
9A
330
2
100
AcDbSymbolTableRecord
100
AcDbLayerTableRecord
  2
66 Piping
 70
     0
 62
     7
  6
Continuous
370
    35
390
F
  0
LAYER
  5
9B
330
2
100
AcDbSymbolTableRecord
100
AcDbLayerTableRecord
  2
67 Legend
 70
     0
 62
     7
  6
Continuous
370
    35
390
F
  0
LAYER
  5
9C
330
2
100
AcDbSymbolTableRecord
100
AcDbLayerTableRecord
  2
68 Text & Dimensions
 70
     0
 62
     7
  6
Continuous
370
    35
390
F
  0
LAYER
  5
9D
330
2
100
AcDbSymbolTableRecord
100
AcDbLayerTableRecord
  2
69 HVAC fittings and furnitures
 70
     0
 62
     7
  6
Continuous
370
    35
390
F
  0
LAYER
  5
9E
330
2
100
AcDbSymbolTableRecord
100
AcDbLayerTableRecord
  2
70 Plumbing Symbols
 70
     0
 62
     7
  6
Continuous
370
    35
390
F
  0
LAYER
  5
9F
330
2
100
AcDbSymbolTableRecord
100
AcDbLayerTableRecord
  2
71 Piping
 70
     0
 62
     7
  6
Continuous
370
    35
390
F
  0
LAYER
  5
A0
330
2
100
AcDbSymbolTableRecord
100
AcDbLayerTableRecord
  2
72 Legend
 70
     0
 62
     7
  6
Continuous
370
    35
390
F
  0
LAYER
  5
A1
330
2
100
AcDbSymbolTableRecord
100
AcDbLayerTableRecord
  2
73 Text & Dimensions
 70
     0
 62
     7
  6
Continuous
370
    35
390
F
  0
LAYER
  5
A2
330
2
100
AcDbSymbolTableRecord
100
AcDbLayerTableRecord
  2
74 Texts of the Stairs
 70
     0
 62
     7
  6
Continuous
370
    35
390
F
  0
LAYER
  5
A3
330
2
100
AcDbSymbolTableRecord
100
AcDbLayerTableRecord
  2
75 Appliances
 70
     0
 62
     7
  6
Continuous
370
    35
390
F
  0
LAYER
  5
A4
330
2
100
AcDbSymbolTableRecord
100
AcDbLayerTableRecord
  2
76 Cabinets & Vanities
 70
     0
 62
     7
  6
Continuous
370
    35
390
F
  0
LAYER
  5
A5
330
2
100
AcDbSymbolTableRecord
100
AcDbLayerTableRecord
  2
77 Texts
 70
     0
 62
     7
  6
Continuous
370
    35
390
F
  0
LAYER
  5
A6
330
2
100
AcDbSymbolTableRecord
100
AcDbLayerTableRecord
  2
78 Dimensions
 70
     0
 62
     7
  6
Continuous
370
    35
390
F
  0
LAYER
  5
A7
330
2
100
AcDbSymbolTableRecord
100
AcDbLayerTableRecord
  2
79 Hardware
 70
     0
 62
     7
  6
Continuous
370
    35
390
F
  0
LAYER
  5
A8
330
2
100
AcDbSymbolTableRecord
100
AcDbLayerTableRecord
  2
80 Countertop
 70
     0
 62
     7
  6
Continuous
370
    35
390
F
  0
LAYER
  5
A9
330
2
100
AcDbSymbolTableRecord
100
AcDbLayerTableRecord
  2
81 Countertop Hatch
 70
     0
 62
    -7
  6
Continuous
370
    35
390
F
  0
LAYER
  5
AA
330
2
100
AcDbSymbolTableRecord
100
AcDbLayerTableRecord
  2
82 Stairs
 70
     0
 62
     7
  6
Continuous
370
    35
390
F
  0
LAYER
  5
AB
330
2
100
AcDbSymbolTableRecord
100
AcDbLayerTableRecord
  2
83 Railings
 70
     0
 62
     7
  6
Continuous
370
    35
390
F
  0
LAYER
  5
AC
330
2
100
AcDbSymbolTableRecord
100
AcDbLayerTableRecord
  2
84 Fireplaces
 70
     0
 62
     7
  6
Continuous
370
    35
390
F
  0
LAYER
  5
AD
330
2
100
AcDbSymbolTableRecord
100
AcDbLayerTableRecord
  2
85 Bulkheads
 70
     0
 62
     7
  6
Continuous
370
    35
390
F
  0
LAYER
  5
AE
330
2
100
AcDbSymbolTableRecord
100
AcDbLayerTableRecord
  2
86 Closet Shelving
 70
     0
 62
     7
  6
Continuous
370
    35
390
F
  0
LAYER
  5
AF
330
2
100
AcDbSymbolTableRecord
100
AcDbLayerTableRecord
  2
87 Chimneys
 70
     0
 62
     7
  6
Continuous
370
    35
390
F
  0
LAYER
  5
B0
330
2
100
AcDbSymbolTableRecord
100
AcDbLayerTableRecord
  2
88 Additional components_ decorations etc
 70
     0
 62
     7
  6
Continuous
370
    35
390
F
  0
LAYER
  5
B1
330
2
100
AcDbSymbolTableRecord
100
AcDbLayerTableRecord
  2
89 Constr.Det.Macros
 70
     0
 62
     7
  6
Continuous
370
    35
390
F
  0
LAYER
  5
B2
330
2
100
AcDbSymbolTableRecord
100
AcDbLayerTableRecord
  2
90 Section marks
 70
     0
 62
     7
  6
Continuous
370
    35
390
F
  0
LAYER
  5
B3
330
2
100
AcDbSymbolTableRecord
100
AcDbLayerTableRecord
  2
91 Profile Detailing
 70
     0
 62
     7
  6
Continuous
370
    35
390
F
  0
LAYER
  5
B4
330
2
100
AcDbSymbolTableRecord
100
AcDbLayerTableRecord
  2
92 Dimension Constraints
 70
     0
 62
     7
  6
Continuous
370
    35
390
F
  0
LAYER
  5
B5
330
2
100
AcDbSymbolTableRecord
100
AcDbLayerTableRecord
  2
93 Dashing Ground Line
 70
     0
 62
     7
  6
Continuous
370
    35
390
F
  0
LAYER
  5
B6
330
2
100
AcDbSymbolTableRecord
100
AcDbLayerTableRecord
  2
94 Clipping Ground Line
 70
     0
 62
     7
  6
Continuous
370
    35
390
F
  0
LAYER
  5
B7
330
2
100
AcDbSymbolTableRecord
100
AcDbLayerTableRecord
  2
95 Shadows
 70
     0
 62
     7
  6
Continuous
370
    35
390
F
  0
LAYER
  5
B8
330
2
100
AcDbSymbolTableRecord
100
AcDbLayerTableRecord
  2
96 Elev. Color Fill
 70
     0
 62
     7
  6
Continuous
370
    35
390
F
  0
LAYER
  5
B9
330
2
100
AcDbSymbolTableRecord
100
AcDbLayerTableRecord
  2
97 Simplifying lines
 70
     0
 62
     7
  6
Continuous
370
    35
390
F
  0
LAYER
  5
BA
330
2
100
AcDbSymbolTableRecord
100
AcDbLayerTableRecord
  2
98 Floor Area Text
 70
     0
 62
     7
  6
Continuous
370
    35
390
F
  0
LAYER
  5
BB
330
2
100
AcDbSymbolTableRecord
100
AcDbLayerTableRecord
  2
099
 70
     0
 62
    -7
  6
Continuous
370
    35
390
F
  0
LAYER
  5
BC
330
2
100
AcDbSymbolTableRecord
100
AcDbLayerTableRecord
  2
100
 70
     0
 62
    -7
  6
Continuous
370
    35
390
F
  0
LAYER
  5
BD
330
2
100
AcDbSymbolTableRecord
100
AcDbLayerTableRecord
  2
102
 70
     0
 62
    -7
  6
Continuous
370
    35
390
F
  0
LAYER
  5
BE
330
2
100
AcDbSymbolTableRecord
100
AcDbLayerTableRecord
  2
103 Roof Shape Lines
 70
     0
 62
     7
  6
Continuous
370
    35
390
F
  0
LAYER
  5
BF
330
2
100
AcDbSymbolTableRecord
100
AcDbLayerTableRecord
  2
104 Roof Hatch Patterns
 70
     0
 62
     7
  6
Continuous
370
    35
390
F
  0
LAYER
  5
C0
330
2
100
AcDbSymbolTableRecord
100
AcDbLayerTableRecord
  2
105 Framing Pieces
 70
     0
 62
     7
  6
Continuous
370
    35
390
F
  0
LAYER
  5
C1
330
2
100
AcDbSymbolTableRecord
100
AcDbLayerTableRecord
  2
106 Piece Labels
 70
     0
 62
     7
  6
Continuous
370
    35
390
F
  0
LAYER
  5
C2
330
2
100
AcDbSymbolTableRecord
100
AcDbLayerTableRecord
  2
107 Grilles
 70
     0
 62
     7
  6
Continuous
370
    35
390
F
  0
LAYER
  5
C3
330
2
100
AcDbSymbolTableRecord
100
AcDbLayerTableRecord
  2
108 Eave Lines
 70
     0
 62
     7
  6
Continuous
370
    35
390
F
  0
LAYER
  5
C4
330
2
100
AcDbSymbolTableRecord
100
AcDbLayerTableRecord
  2
109 Soffits
 70
     0
 62
     7
  6
Continuous
370
    35
390
F
  0
LAYER
  5
C5
330
2
100
AcDbSymbolTableRecord
100
AcDbLayerTableRecord
  2
110 Window_Door Trim
 70
     0
 62
     7
  6
Continuous
370
    35
390
F
  0
LAYER
  5
C6
330
2
100
AcDbSymbolTableRecord
100
AcDbLayerTableRecord
  2
111 Window Grilles
 70
     0
 62
     7
  6
Continuous
370
    35
390
F
  0
LAYER
  5
C7
330
2
100
AcDbSymbolTableRecord
100
AcDbLayerTableRecord
  2
112 Window Shutters
 70
     0
 62
     7
  6
Continuous
370
    35
390
F
  0
LAYER
  5
C8
330
2
100
AcDbSymbolTableRecord
100
AcDbLayerTableRecord
  2
113 Corner Trim
 70
     0
 62
     7
  6
Continuous
370
    35
390
F
  0
LAYER
  5
C9
330
2
100
AcDbSymbolTableRecord
100
AcDbLayerTableRecord
  2
114 Louver Vents
 70
     0
 62
     7
  6
Continuous
370
    35
390
F
  0
LAYER
  5
CA
330
2
100
AcDbSymbolTableRecord
100
AcDbLayerTableRecord
  2
115 Edge Line of 2D-Based Opening Trim
 70
     0
 62
     7
  6
Continuous
370
    35
390
F
  0
LAYER
  5
CB
330
2
100
AcDbSymbolTableRecord
100
AcDbLayerTableRecord
  2
116 Hole Line of 2D-Based Opening Trim
 70
     0
 62
     7
  6
Continuous
370
    35
390
F
  0
LAYER
  5
CC
330
2
100
AcDbSymbolTableRecord
100
AcDbLayerTableRecord
  2
117 Roof Accessories
 70
     0
 62
     7
  6
Continuous
370
    35
390
F
  0
LAYER
  5
CD
330
2
100
AcDbSymbolTableRecord
100
AcDbLayerTableRecord
  2
118
 70
     0
 62
    -7
  6
Continuous
370
    35
390
F
  0
LAYER
  5
CE
330
2
100
AcDbSymbolTableRecord
100
AcDbLayerTableRecord
  2
119
 70
     0
 62
    -7
  6
Continuous
370
    35
390
F
  0
LAYER
  5
CF
330
2
100
AcDbSymbolTableRecord
100
AcDbLayerTableRecord
  2
120
 70
     0
 62
    -7
  6
Continuous
370
    35
390
F
  0
LAYER
  5
D0
330
2
100
AcDbSymbolTableRecord
100
AcDbLayerTableRecord
  2
121 Beam Pocket Symbols
 70
     0
 62
     7
  6
Continuous
370
    35
390
F
  0
LAYER
  5
D1
330
2
100
AcDbSymbolTableRecord
100
AcDbLayerTableRecord
  2
122 Beam Lines & Labels
 70
     0
 62
     7
  6
Continuous
370
    35
390
F
  0
LAYER
  5
D2
330
2
100
AcDbSymbolTableRecord
100
AcDbLayerTableRecord
  2
123 Column Sym & Labels
 70
     0
 62
     7
  6
Continuous
370
    35
390
F
  0
LAYER
  5
D3
330
2
100
AcDbSymbolTableRecord
100
AcDbLayerTableRecord
  2
124 Beam Center Lines
 70
     0
 62
     7
  6
Continuous
370
    35
390
F
  0
LAYER
  5
D4
330
2
100
AcDbSymbolTableRecord
100
AcDbLayerTableRecord
  2
125 Form Text
 70
     0
 62
     7
  6
Continuous
370
    35
390
F
  0
LAYER
  5
D5
330
2
100
AcDbSymbolTableRecord
100
AcDbLayerTableRecord
  2
126 Form Outer
 70
     0
 62
     7
  6
Continuous
370
    35
390
F
  0
LAYER
  5
D6
330
2
100
AcDbSymbolTableRecord
100
AcDbLayerTableRecord
  2
127 Form Inner
 70
     0
 62
     7
  6
Continuous
370
    35
390
F
  0
LAYER
  5
D7
330
2
100
AcDbSymbolTableRecord
100
AcDbLayerTableRecord
  2
128 Form Name
 70
     0
 62
     7
  6
Continuous
370
    35
390
F
  0
LAYER
  5
D8
330
2
100
AcDbSymbolTableRecord
100
AcDbLayerTableRecord
  2
129
 70
     0
 62
    -7
  6
Continuous
370
    35
390
F
  0
LAYER
  5
D9
330
2
100
AcDbSymbolTableRecord
100
AcDbLayerTableRecord
  2
130
 70
     0
 62
    -7
  6
Continuous
370
    35
390
F
  0
LAYER
  5
DA
330
2
100
AcDbSymbolTableRecord
100
AcDbLayerTableRecord
  2
131 Translation Spanish
 70
     0
 62
    -7
  6
Continuous
370
    35
390
F
  0
LAYER
  5
DB
330
2
100
AcDbSymbolTableRecord
100
AcDbLayerTableRecord
  2
132 Translation French
 70
     0
 62
    -7
  6
Continuous
370
    35
390
F
  0
LAYER
  5
DC
330
2
100
AcDbSymbolTableRecord
100
AcDbLayerTableRecord
  2
133 Translation German
 70
     0
 62
    -7
  6
Continuous
370
    35
390
F
  0
LAYER
  5
DD
330
2
100
AcDbSymbolTableRecord
100
AcDbLayerTableRecord
  2
134 Translation Finnish
 70
     0
 62
    -7
  6
Continuous
370
    35
390
F
  0
LAYER
  5
DE
330
2
100
AcDbSymbolTableRecord
100
AcDbLayerTableRecord
  2
135
 70
     0
 62
    -7
  6
Continuous
370
    35
390
F
  0
LAYER
  5
DF
330
2
100
AcDbSymbolTableRecord
100
AcDbLayerTableRecord
  2
136
 70
     0
 62
    -7
  6
Continuous
370
    35
390
F
  0
LAYER
  5
E0
330
2
100
AcDbSymbolTableRecord
100
AcDbLayerTableRecord
  2
137
 70
     0
 62
    -7
  6
Continuous
370
    35
390
F
  0
LAYER
  5
E1
330
2
100
AcDbSymbolTableRecord
100
AcDbLayerTableRecord
  2
138
 70
     0
 62
    -7
  6
Continuous
370
    35
390
F
  0
LAYER
  5
E2
330
2
100
AcDbSymbolTableRecord
100
AcDbLayerTableRecord
  2
139
 70
     0
 62
    -7
  6
Continuous
370
    35
390
F
  0
LAYER
  5
E3
330
2
100
AcDbSymbolTableRecord
100
AcDbLayerTableRecord
  2
140 Sheet Area Line
 70
     0
 62
     7
  6
Continuous
370
    35
390
F
  0
LAYER
  5
E4
330
2
100
AcDbSymbolTableRecord
100
AcDbLayerTableRecord
  2
141 Sheet Label
 70
     0
 62
     7
  6
Continuous
370
    35
390
F
  0
LAYER
  5
E5
330
2
100
AcDbSymbolTableRecord
100
AcDbLayerTableRecord
  2
142 Sheet Schedule
 70
     0
 62
     7
  6
Continuous
370
    35
390
F
  0
LAYER
  5
E6
330
2
100
AcDbSymbolTableRecord
100
AcDbLayerTableRecord
  2
143
 70
     0
 62
    -7
  6
Continuous
370
    35
390
F
  0
LAYER
  5
E7
330
2
100
AcDbSymbolTableRecord
100
AcDbLayerTableRecord
  2
144
 70
     0
 62
    -7
  6
Continuous
370
    35
390
F
  0
LAYER
  5
E8
330
2
100
AcDbSymbolTableRecord
100
AcDbLayerTableRecord
  2
145
 70
     0
 62
    -7
  6
Continuous
370
    35
390
F
  0
LAYER
  5
E9
330
2
100
AcDbSymbolTableRecord
100
AcDbLayerTableRecord
  2
146
 70
     0
 62
    -7
  6
Continuous
370
    35
390
F
  0
LAYER
  5
EA
330
2
100
AcDbSymbolTableRecord
100
AcDbLayerTableRecord
  2
147
 70
     0
 62
    -7
  6
Continuous
370
    35
390
F
  0
LAYER
  5
EB
330
2
100
AcDbSymbolTableRecord
100
AcDbLayerTableRecord
  2
148
 70
     0
 62
    -7
  6
Continuous
370
    35
390
F
  0
LAYER
  5
EC
330
2
100
AcDbSymbolTableRecord
100
AcDbLayerTableRecord
  2
149
 70
     0
 62
    -7
  6
Continuous
370
    35
390
F
  0
LAYER
  5
ED
330
2
100
AcDbSymbolTableRecord
100
AcDbLayerTableRecord
  2
150 1st Stud Locations
 70
     0
 62
     7
  6
Continuous
370
    35
390
F
  0
LAYER
  5
EE
330
2
100
AcDbSymbolTableRecord
100
AcDbLayerTableRecord
  2
151 Wall Framing Pieces
 70
     0
 62
     7
  6
Continuous
370
    35
390
F
  0
LAYER
  5
EF
330
2
100
AcDbSymbolTableRecord
100
AcDbLayerTableRecord
  2
152 Wall Framing Pieces_Hidden
 70
     0
 62
     7
  6
Continuous
370
    35
390
F
  0
LAYER
  5
F0
330
2
100
AcDbSymbolTableRecord
100
AcDbLayerTableRecord
  2
153 Siding Boards
 70
     0
 62
     7
  6
Continuous
370
    35
390
F
  0
LAYER
  5
F1
330
2
100
AcDbSymbolTableRecord
100
AcDbLayerTableRecord
  2
154 Openings
 70
     0
 62
     7
  6
Continuous
370
    35
390
F
  0
LAYER
  5
F2
330
2
100
AcDbSymbolTableRecord
100
AcDbLayerTableRecord
  2
155 Internal Sheathing
 70
     0
 62
     7
  6
Continuous
370
    35
390
F
  0
LAYER
  5
F3
330
2
100
AcDbSymbolTableRecord
100
AcDbLayerTableRecord
  2
156 External Sheathing
 70
     0
 62
     7
  6
Continuous
370
    35
390
F
  0
LAYER
  5
F4
330
2
100
AcDbSymbolTableRecord
100
AcDbLayerTableRecord
  2
157 Internal Sec. Sheat.
 70
     0
 62
     7
  6
Continuous
370
    35
390
F
  0
LAYER
  5
F5
330
2
100
AcDbSymbolTableRecord
100
AcDbLayerTableRecord
  2
158 External Sec. Sheat.
 70
     0
 62
     7
  6
Continuous
370
    35
390
F
  0
LAYER
  5
F6
330
2
100
AcDbSymbolTableRecord
100
AcDbLayerTableRecord
  2
159 Insulation
 70
     0
 62
     7
  6
Continuous
370
    35
390
F
  0
LAYER
  5
F7
330
2
100
AcDbSymbolTableRecord
100
AcDbLayerTableRecord
  2
160 Loads
 70
     0
 62
     7
  6
Continuous
370
    35
390
F
  0
LAYER
  5
F8
330
2
100
AcDbSymbolTableRecord
100
AcDbLayerTableRecord
  2
161 Loads
 70
     0
 62
     7
  6
Continuous
370
    35
390
F
  0
LAYER
  5
F9
330
2
100
AcDbSymbolTableRecord
100
AcDbLayerTableRecord
  2
162 Dimensions
 70
     0
 62
     7
  6
Continuous
370
    35
390
F
  0
LAYER
  5
FA
330
2
100
AcDbSymbolTableRecord
100
AcDbLayerTableRecord
  2
163 Backer_
 70
     0
 62
     7
  6
Continuous
370
    35
390
F
  0
LAYER
  5
FB
330
2
100
AcDbSymbolTableRecord
100
AcDbLayerTableRecord
  2
164 Panel Elev._Electr.
 70
     0
 62
    -7
  6
Continuous
370
    35
390
F
  0
LAYER
  5
FC
330
2
100
AcDbSymbolTableRecord
100
AcDbLayerTableRecord
  2
165 Panel Elev._Electr.
 70
     0
 62
    -7
  6
Continuous
370
    35
390
F
  0
LAYER
  5
FD
330
2
100
AcDbSymbolTableRecord
100
AcDbLayerTableRecord
  2
166 Panel Elev._Plmbng
 70
     0
 62
    -7
  6
Continuous
370
    35
390
F
  0
LAYER
  5
FE
330
2
100
AcDbSymbolTableRecord
100
AcDbLayerTableRecord
  2
167 Panel Elev._Plmbng
 70
     0
 62
     7
  6
Continuous
370
    35
390
F
  0
LAYER
  5
FF
330
2
100
AcDbSymbolTableRecord
100
AcDbLayerTableRecord
  2
168 Panel Layout_Backer
 70
     0
 62
     7
  6
Continuous
370
    35
390
F
  0
LAYER
  5
100
330
2
100
AcDbSymbolTableRecord
100
AcDbLayerTableRecord
  2
169 Studs_ Bearing Walls
 70
     0
 62
     7
  6
Continuous
370
    35
390
F
  0
LAYER
  5
101
330
2
100
AcDbSymbolTableRecord
100
AcDbLayerTableRecord
  2
170 Elems in Floor Plan
 70
     0
 62
     7
  6
Continuous
370
    35
390
F
  0
LAYER
  5
102
330
2
100
AcDbSymbolTableRecord
100
AcDbLayerTableRecord
  2
171 Check elem geometry
 70
     0
 62
    -7
  6
Continuous
370
    35
390
F
  0
LAYER
  5
103
330
2
100
AcDbSymbolTableRecord
100
AcDbLayerTableRecord
  2
172 Studs_ Non-Brg Walls
 70
     0
 62
     7
  6
Continuous
370
    35
390
F
  0
LAYER
  5
104
330
2
100
AcDbSymbolTableRecord
100
AcDbLayerTableRecord
  2
173 Panel Pce Label in FP
 70
     0
 62
     7
  6
Continuous
370
    35
390
F
  0
LAYER
  5
105
330
2
100
AcDbSymbolTableRecord
100
AcDbLayerTableRecord
  2
174
 70
     0
 62
    -7
  6
Continuous
370
    35
390
F
  0
LAYER
  5
106
330
2
100
AcDbSymbolTableRecord
100
AcDbLayerTableRecord
  2
175 Profile Color Fills
 70
     0
 62
     7
  6
Continuous
370
    35
390
F
  0
LAYER
  5
107
330
2
100
AcDbSymbolTableRecord
100
AcDbLayerTableRecord
  2
176 Pipe Colorfills
 70
     0
 62
     7
  6
Continuous
370
    35
390
F
  0
LAYER
  5
108
330
2
100
AcDbSymbolTableRecord
100
AcDbLayerTableRecord
  2
177 Bottom Plate in Floor Plan
 70
     0
 62
     7
  6
Continuous
370
    35
390
F
  0
LAYER
  5
109
330
2
100
AcDbSymbolTableRecord
100
AcDbLayerTableRecord
  2
178 Top Plate in Floor Plan
 70
     0
 62
     7
  6
Continuous
370
    35
390
F
  0
LAYER
  5
10A
330
2
100
AcDbSymbolTableRecord
100
AcDbLayerTableRecord
  2
179
 70
     0
 62
    -7
  6
Continuous
370
    35
390
F
  0
LAYER
  5
10B
330
2
100
AcDbSymbolTableRecord
100
AcDbLayerTableRecord
  2
180 Int NB Brick Wall
 70
     0
 62
     7
  6
Continuous
370
    35
390
F
  0
LAYER
  5
10C
330
2
100
AcDbSymbolTableRecord
100
AcDbLayerTableRecord
  2
181 Int NB Brick Wall Hatch
 70
     0
 62
     7
  6
Continuous
370
    35
390
F
  0
LAYER
  5
10D
330
2
100
AcDbSymbolTableRecord
100
AcDbLayerTableRecord
  2
182 Int B Brick Wall
 70
     0
 62
     7
  6
Continuous
370
    35
390
F
  0
LAYER
  5
10E
330
2
100
AcDbSymbolTableRecord
100
AcDbLayerTableRecord
  2
183 Int B Brick Wall Hatch
 70
     0
 62
     7
  6
Continuous
370
    35
390
F
  0
LAYER
  5
10F
330
2
100
AcDbSymbolTableRecord
100
AcDbLayerTableRecord
  2
184
 70
     0
 62
    -7
  6
Continuous
370
    35
390
F
  0
LAYER
  5
110
330
2
100
AcDbSymbolTableRecord
100
AcDbLayerTableRecord
  2
185 Int B Wall Rough Frame
 70
     0
 62
     7
  6
Continuous
370
    35
390
F
  0
LAYER
  5
111
330
2
100
AcDbSymbolTableRecord
100
AcDbLayerTableRecord
  2
186 Int B Wall Surfaces
 70
     0
 62
     7
  6
Continuous
370
    35
390
F
  0
LAYER
  5
112
330
2
100
AcDbSymbolTableRecord
100
AcDbLayerTableRecord
  2
187 Int B Wall Other Lines
 70
     0
 62
     7
  6
Continuous
370
    35
390
F
  0
LAYER
  5
113
330
2
100
AcDbSymbolTableRecord
100
AcDbLayerTableRecord
  2
188 Int B Wall Insulation
 70
     0
 62
     7
  6
Continuous
370
    35
390
F
  0
LAYER
  5
114
330
2
100
AcDbSymbolTableRecord
100
AcDbLayerTableRecord
  2
189 Int B Wall Bottom Plat
 70
     0
 62
    -7
  6
Continuous
370
    35
390
F
  0
LAYER
  5
115
330
2
100
AcDbSymbolTableRecord
100
AcDbLayerTableRecord
  2
190 Int B Wall Hatch Patte
 70
     0
 62
     7
  6
Continuous
370
    35
390
F
  0
LAYER
  5
116
330
2
100
AcDbSymbolTableRecord
100
AcDbLayerTableRecord
  2
191 Hot Water Pipes
 70
     0
 62
     7
  6
Continuous
370
    35
390
F
  0
LAYER
  5
117
330
2
100
AcDbSymbolTableRecord
100
AcDbLayerTableRecord
  2
192 Cold Water Pipes
 70
     0
 62
     7
  6
Continuous
370
    35
390
F
  0
LAYER
  5
118
330
2
100
AcDbSymbolTableRecord
100
AcDbLayerTableRecord
  2
193 Waste Water Pipes
 70
     0
 62
     7
  6
Continuous
370
    35
390
F
  0
LAYER
  5
119
330
2
100
AcDbSymbolTableRecord
100
AcDbLayerTableRecord
  2
194 Gas Pipes
 70
     0
 62
     7
  6
Continuous
370
    35
390
F
  0
LAYER
  5
11A
330
2
100
AcDbSymbolTableRecord
100
AcDbLayerTableRecord
  2
195 Int NB Wall Rough Frame
 70
     0
 62
     7
  6
Continuous
370
    35
390
F
  0
LAYER
  5
11B
330
2
100
AcDbSymbolTableRecord
100
AcDbLayerTableRecord
  2
196 Int NB Wall Surfaces
 70
     0
 62
     7
  6
Continuous
370
    35
390
F
  0
LAYER
  5
11C
330
2
100
AcDbSymbolTableRecord
100
AcDbLayerTableRecord
  2
197 Int NB Wall Other Lines
 70
     0
 62
     7
  6
Continuous
370
    35
390
F
  0
LAYER
  5
11D
330
2
100
AcDbSymbolTableRecord
100
AcDbLayerTableRecord
  2
198 Int NB Wall Insulation
 70
     0
 62
     7
  6
Continuous
370
    35
390
F
  0
LAYER
  5
11E
330
2
100
AcDbSymbolTableRecord
100
AcDbLayerTableRecord
  2
199 Int NB Wall Bottom Plat
 70
     0
 62
    -7
  6
Continuous
370
    35
390
F
  0
LAYER
  5
11F
330
2
100
AcDbSymbolTableRecord
100
AcDbLayerTableRecord
  2
200 Int NB Wall Hatch Patte
 70
     0
 62
     7
  6
Continuous
370
    35
390
F
  0
LAYER
  5
120
330
2
100
AcDbSymbolTableRecord
100
AcDbLayerTableRecord
  2
201 Utility hole lines
 70
     0
 62
     7
  6
Continuous
370
    35
390
F
  0
LAYER
  5
121
330
2
100
AcDbSymbolTableRecord
100
AcDbLayerTableRecord
  2
202
 70
     0
 62
    -7
  6
Continuous
370
    35
390
F
  0
LAYER
  5
122
330
2
100
AcDbSymbolTableRecord
100
AcDbLayerTableRecord
  2
203
 70
     0
 62
    -7
  6
Continuous
370
    35
390
F
  0
LAYER
  5
123
330
2
100
AcDbSymbolTableRecord
100
AcDbLayerTableRecord
  2
205
 70
     0
 62
    -7
  6
Continuous
370
    35
390
F
  0
LAYER
  5
124
330
2
100
AcDbSymbolTableRecord
100
AcDbLayerTableRecord
  2
206
 70
     0
 62
    -7
  6
Continuous
370
    35
390
F
  0
LAYER
  5
125
330
2
100
AcDbSymbolTableRecord
100
AcDbLayerTableRecord
  2
207
 70
     0
 62
    -7
  6
Continuous
370
    35
390
F
  0
LAYER
  5
126
330
2
100
AcDbSymbolTableRecord
100
AcDbLayerTableRecord
  2
208
 70
     0
 62
    -7
  6
Continuous
370
    35
390
F
  0
LAYER
  5
127
330
2
100
AcDbSymbolTableRecord
100
AcDbLayerTableRecord
  2
210 Joist Hangers
 70
     0
 62
     7
  6
Continuous
370
    35
390
F
  0
LAYER
  5
128
330
2
100
AcDbSymbolTableRecord
100
AcDbLayerTableRecord
  2
211 Hangers_ Schedule and labels
 70
     0
 62
     7
  6
Continuous
370
    35
390
F
  0
LAYER
  5
129
330
2
100
AcDbSymbolTableRecord
100
AcDbLayerTableRecord
  2
212
 70
     0
 62
    -7
  6
Continuous
370
    35
390
F
  0
LAYER
  5
12A
330
2
100
AcDbSymbolTableRecord
100
AcDbLayerTableRecord
  2
213
 70
     0
 62
    -7
  6
Continuous
370
    35
390
F
  0
LAYER
  5
12B
330
2
100
AcDbSymbolTableRecord
100
AcDbLayerTableRecord
  2
214
 70
     0
 62
    -7
  6
Continuous
370
    35
390
F
  0
LAYER
  5
12C
330
2
100
AcDbSymbolTableRecord
100
AcDbLayerTableRecord
  2
215 Special Opening Detail Labels
 70
     0
 62
     7
  6
Continuous
370
    35
390
F
  0
LAYER
  5
12D
330
2
100
AcDbSymbolTableRecord
100
AcDbLayerTableRecord
  2
216
 70
     0
 62
    -7
  6
Continuous
370
    35
390
F
  0
LAYER
  5
12E
330
2
100
AcDbSymbolTableRecord
100
AcDbLayerTableRecord
  2
217
 70
     0
 62
    -7
  6
Continuous
370
    35
390
F
  0
LAYER
  5
12F
330
2
100
AcDbSymbolTableRecord
100
AcDbLayerTableRecord
  2
218 Construction Line
 70
     0
 62
    -7
  6
Continuous
370
    35
390
F
  0
LAYER
  5
130
330
2
100
AcDbSymbolTableRecord
100
AcDbLayerTableRecord
  2
219 Brochure Wall Fill
 70
     0
 62
    -7
  6
Continuous
370
    35
390
F
  0
LAYER
  5
131
330
2
100
AcDbSymbolTableRecord
100
AcDbLayerTableRecord
  2
220 Framing Detail Symbols
 70
     0
 62
     7
  6
Continuous
370
    35
390
F
  0
LAYER
  5
132
330
2
100
AcDbSymbolTableRecord
100
AcDbLayerTableRecord
  2
221 Hangers
 70
     0
 62
     7
  6
Continuous
370
    35
390
F
  0
LAYER
  5
133
330
2
100
AcDbSymbolTableRecord
100
AcDbLayerTableRecord
  2
222 Connectors
 70
     0
 62
     7
  6
Continuous
370
    35
390
F
  0
LAYER
  5
134
330
2
100
AcDbSymbolTableRecord
100
AcDbLayerTableRecord
  2
223 Fillers_ Stiffeners_ Backers and Blocks
 70
     0
 62
     7
  6
Continuous
370
    35
390
F
  0
LAYER
  5
135
330
2
100
AcDbSymbolTableRecord
100
AcDbLayerTableRecord
  2
224 Engineering Labels
 70
     0
 62
     7
  6
Continuous
370
    35
390
F
  0
LAYER
  5
136
330
2
100
AcDbSymbolTableRecord
100
AcDbLayerTableRecord
  2
225 Custom Layer
 70
     0
 62
    -7
  6
Continuous
370
    35
390
F
  0
LAYER
  5
137
330
2
100
AcDbSymbolTableRecord
100
AcDbLayerTableRecord
  2
226 Custom Layer
 70
     0
 62
    -7
  6
Continuous
370
    35
390
F
  0
LAYER
  5
138
330
2
100
AcDbSymbolTableRecord
100
AcDbLayerTableRecord
  2
227 Custom Layer
 70
     0
 62
    -7
  6
Continuous
370
    35
390
F
  0
LAYER
  5
139
330
2
100
AcDbSymbolTableRecord
100
AcDbLayerTableRecord
  2
228 Custom Layer
 70
     0
 62
    -7
  6
Continuous
370
    35
390
F
  0
LAYER
  5
13A
330
2
100
AcDbSymbolTableRecord
100
AcDbLayerTableRecord
  2
229 Custom Layer
 70
     0
 62
    -7
  6
Continuous
370
    35
390
F
  0
LAYER
  5
13B
330
2
100
AcDbSymbolTableRecord
100
AcDbLayerTableRecord
  2
230 Custom Layer
 70
     0
 62
    -7
  6
Continuous
370
    35
390
F
  0
LAYER
  5
13C
330
2
100
AcDbSymbolTableRecord
100
AcDbLayerTableRecord
  2
231 Custom Layer
 70
     0
 62
    -7
  6
Continuous
370
    35
390
F
  0
LAYER
  5
13D
330
2
100
AcDbSymbolTableRecord
100
AcDbLayerTableRecord
  2
232 Custom Layer
 70
     0
 62
    -7
  6
Continuous
370
    35
390
F
  0
LAYER
  5
13E
330
2
100
AcDbSymbolTableRecord
100
AcDbLayerTableRecord
  2
233 Custom Layer
 70
     0
 62
    -7
  6
Continuous
370
    35
390
F
  0
LAYER
  5
13F
330
2
100
AcDbSymbolTableRecord
100
AcDbLayerTableRecord
  2
234 Custom Layer
 70
     0
 62
    -7
  6
Continuous
370
    35
390
F
  0
LAYER
  5
140
330
2
100
AcDbSymbolTableRecord
100
AcDbLayerTableRecord
  2
235 Custom Layer
 70
     0
 62
    -7
  6
Continuous
370
    35
390
F
  0
LAYER
  5
141
330
2
100
AcDbSymbolTableRecord
100
AcDbLayerTableRecord
  2
236 Custom Layer
 70
     0
 62
    -7
  6
Continuous
370
    35
390
F
  0
LAYER
  5
142
330
2
100
AcDbSymbolTableRecord
100
AcDbLayerTableRecord
  2
237 Custom Layer
 70
     0
 62
    -7
  6
Continuous
370
    35
390
F
  0
LAYER
  5
143
330
2
100
AcDbSymbolTableRecord
100
AcDbLayerTableRecord
  2
238 Custom Layer
 70
     0
 62
    -7
  6
Continuous
370
    35
390
F
  0
LAYER
  5
144
330
2
100
AcDbSymbolTableRecord
100
AcDbLayerTableRecord
  2
239 Custom Layer
 70
     0
 62
    -7
  6
Continuous
370
    35
390
F
  0
LAYER
  5
145
330
2
100
AcDbSymbolTableRecord
100
AcDbLayerTableRecord
  2
240
 70
     0
 62
    -7
  6
Continuous
370
    35
390
F
  0
LAYER
  5
146
330
2
100
AcDbSymbolTableRecord
100
AcDbLayerTableRecord
  2
241
 70
     0
 62
    -7
  6
Continuous
370
    35
390
F
  0
LAYER
  5
147
330
2
100
AcDbSymbolTableRecord
100
AcDbLayerTableRecord
  2
242
 70
     0
 62
    -7
  6
Continuous
370
    35
390
F
  0
LAYER
  5
148
330
2
100
AcDbSymbolTableRecord
100
AcDbLayerTableRecord
  2
243
 70
     0
 62
    -7
  6
Continuous
370
    35
390
F
  0
LAYER
  5
149
330
2
100
AcDbSymbolTableRecord
100
AcDbLayerTableRecord
  2
244
 70
     0
 62
    -7
  6
Continuous
370
    35
390
F
  0
LAYER
  5
14A
330
2
100
AcDbSymbolTableRecord
100
AcDbLayerTableRecord
  2
245 Red Pen Markings
 70
     0
 62
     7
  6
Continuous
370
    35
390
F
  0
LAYER
  5
14B
330
2
100
AcDbSymbolTableRecord
100
AcDbLayerTableRecord
  2
246 Red Pen Markings
 70
     0
 62
     7
  6
Continuous
370
    35
390
F
  0
LAYER
  5
14C
330
2
100
AcDbSymbolTableRecord
100
AcDbLayerTableRecord
  2
247 Red Pen Markings
 70
     0
 62
     7
  6
Continuous
370
    35
390
F
  0
LAYER
  5
14D
330
2
100
AcDbSymbolTableRecord
100
AcDbLayerTableRecord
  2
248 Red Pen Markings
 70
     0
 62
     7
  6
Continuous
370
    35
390
F
  0
LAYER
  5
14E
330
2
100
AcDbSymbolTableRecord
100
AcDbLayerTableRecord
  2
249 Red Pen Markings
 70
     0
 62
     7
  6
Continuous
370
    35
390
F
  0
LAYER
  5
14F
330
2
100
AcDbSymbolTableRecord
100
AcDbLayerTableRecord
  2
250 Red Pen Markings
 70
     0
 62
     7
  6
Continuous
370
    35
390
F
  0
LAYER
  5
150
330
2
100
AcDbSymbolTableRecord
100
AcDbLayerTableRecord
  2
251 Red Pen Markings
 70
     0
 62
     7
  6
Continuous
370
    35
390
F
  0
LAYER
  5
151
330
2
100
AcDbSymbolTableRecord
100
AcDbLayerTableRecord
  2
252 Red Pen Markings
 70
     0
 62
     7
  6
Continuous
370
    35
390
F
  0
LAYER
  5
152
330
2
100
AcDbSymbolTableRecord
100
AcDbLayerTableRecord
  2
253 Red Pen Markings
 70
     0
 62
     7
  6
Continuous
370
    35
390
F
  0
LAYER
  5
153
330
2
100
AcDbSymbolTableRecord
100
AcDbLayerTableRecord
  2
254 Red Pen Markings
 70
     0
 62
     7
  6
Continuous
370
    35
390
F
  0
ENDTAB
  0
TABLE
  2
STYLE
  5
3
330
0
100
AcDbSymbolTable
 70
    11
  0
STYLE
  5
11
330
3
100
AcDbSymbolTableRecord
100
AcDbTextStyleTableRecord
  2
Standard
 70
     0
 40
0.0
 41
1.0
 50
0.0
 71
     0
 42
0.2
  3
txt
  4

  0
STYLE
  5
40
330
3
100
AcDbSymbolTableRecord
100
AcDbTextStyleTableRecord
  2
Arial
 70
     0
 40
0.0
 41
1.0
 50
0.0
 71
     0
 42
0.2
  3
ARIAL.TTF
  4

1001
ACAD
1000
Arial
1071
       34
  0
STYLE
  5
41
330
3
100
AcDbSymbolTableRecord
100
AcDbTextStyleTableRecord
  2
Courier New
 70
     0
 40
0.0
 41
1.0
 50
0.0
 71
     0
 42
0.2
  3
COUR.TTF
  4

1001
ACAD
1000
Courier New
1071
       34
  0
STYLE
  5
42
330
3
100
AcDbSymbolTableRecord
100
AcDbTextStyleTableRecord
  2
Arial Narrow
 70
     0
 40
0.0
 41
1.0
 50
0.0
 71
     0
 42
0.2
  3
ARIALN.TTF
  4

1001
ACAD
1000
Arial Narrow
1071
       34
  0
STYLE
  5
43
330
3
100
AcDbSymbolTableRecord
100
AcDbTextStyleTableRecord
  2
Times New Roman
 70
     0
 40
0.0
 41
1.0
 50
0.0
 71
     0
 42
0.2
  3
TIMES.TTF
  4

1001
ACAD
1000
Times New Roman
1071
       34
  0
STYLE
  5
44
330
3
100
AcDbSymbolTableRecord
100
AcDbTextStyleTableRecord
  2
Impact
 70
     0
 40
0.0
 41
1.0
 50
0.0
 71
     0
 42
0.2
  3
IMPACT.TTF
  4

1001
ACAD
1000
Impact
1071
       34
  0
STYLE
  5
45
330
3
100
AcDbSymbolTableRecord
100
AcDbTextStyleTableRecord
  2
Arial Black
 70
     0
 40
0.0
 41
1.0
 50
0.0
 71
     0
 42
0.2
  3
ARIBLK.TTF
  4

1001
ACAD
1000
Arial Black
1071
       34
  0
STYLE
  5
46
330
3
100
AcDbSymbolTableRecord
100
AcDbTextStyleTableRecord
  2
Symbol
 70
     0
 40
0.0
 41
1.0
 50
0.0
 71
     0
 42
0.2
  3
SYMBOL.TTF
  4

1001
ACAD
1000
Symbol
1071
       34
  0
STYLE
  5
47
330
3
100
AcDbSymbolTableRecord
100
AcDbTextStyleTableRecord
  2
Comic Sans MS
 70
     0
 40
0.0
 41
1.0
 50
0.0
 71
     0
 42
0.2
  3
COMIC.TTF
  4

1001
ACAD
1000
Comic Sans MS
1071
       34
  0
STYLE
  5
48
330
3
100
AcDbSymbolTableRecord
100
AcDbTextStyleTableRecord
  2
Trebuchet MS
 70
     0
 40
0.0
 41
1.0
 50
0.0
 71
     0
 42
0.2
  3
TREBUC.TTF
  4

1001
ACAD
1000
Trebuchet MS
1071
       34
  0
STYLE
  5
52
330
3
100
AcDbSymbolTableRecord
100
AcDbTextStyleTableRecord
  2

 70
     1
 40
0.0
 41
1.0
 50
0.0
 71
     0
 42
22.45
  3
ltypeshp.shx
  4

  0
ENDTAB
  0
TABLE
  2
VIEW
  5
6
330
0
100
AcDbSymbolTable
 70
     0
  0
ENDTAB
  0
TABLE
  2
UCS
  5
7
330
0
100
AcDbSymbolTable
 70
     0
  0
ENDTAB
  0
TABLE
  2
APPID
  5
9
330
0
100
AcDbSymbolTable
 70
     2
  0
APPID
  5
12
330
9
100
AcDbSymbolTableRecord
100
AcDbRegAppTableRecord
  2
ACAD
 70
     0
  0
APPID
  5
3F
330
9
100
AcDbSymbolTableRecord
100
AcDbRegAppTableRecord
  2
Vertex
 70
     0
  0
ENDTAB
  0
TABLE
  2
DIMSTYLE
  5
A
330
0
100
AcDbSymbolTable
 70
     3
100
AcDbDimStyleTable
  0
DIMSTYLE
105
27
330
A
100
AcDbSymbolTableRecord
100
AcDbDimStyleTableRecord
  2
Standard
 70
     0
178
     0
340
11
  0
DIMSTYLE
105
49
330
A
100
AcDbSymbolTableRecord
100
AcDbDimStyleTableRecord
  2
Vertex Style
 70
     0
 41
0.078740157480315
 44
0.0393700787401575
 46
0.0393700787401575
 73
     0
 74
     0
 77
     1
 78
     8
 79
     2
144
25.4
146
0.65
147
0.0669291338582677
172
     1
173
     1
176
   160
177
   160
178
     0
179
     1
271
     1
340
40
343
4A
344
4A
371
    25
372
    25
  0
DIMSTYLE
105
51
330
A
100
AcDbSymbolTableRecord
100
AcDbDimStyleTableRecord
  2
Vertex Style (Inches)
 70
     0
 41
0.078740157480315
 44
0.0393700787401575
 46
0.0393700787401575
 73
     0
 74
     0
 77
     1
 79
     2
146
0.65
147
0.0669291338582677
172
     1
173
     1
176
   160
177
   160
178
     0
179
     1
276
     2
277
     4
340
40
343
4A
344
4A
371
    25
372
    25
  0
ENDTAB
  0
TABLE
  2
BLOCK_RECORD
  5
1
330
0
100
AcDbSymbolTable
 70
   128
  0
BLOCK_RECORD
  5
1F
330
1
100
AcDbSymbolTableRecord
100
AcDbBlockTableRecord
  2
*Model_Space
340
22
  0
BLOCK_RECORD
  5
1B
330
1
100
AcDbSymbolTableRecord
100
AcDbBlockTableRecord
  2
*Paper_Space
340
1E
  0
BLOCK_RECORD
  5
23
330
1
100
AcDbSymbolTableRecord
100
AcDbBlockTableRecord
  2
*Paper_Space0
340
26
  0
BLOCK_RECORD
  5
4A
330
1
100
AcDbSymbolTableRecord
100
AcDbBlockTableRecord
  2
_CLOSED
340
0
  0
BLOCK_RECORD
  5
154
330
1
100
AcDbSymbolTableRecord
100
AcDbBlockTableRecord
  2
HATCH_0_ca533f48-3907-42ef-afc0-813098dcee19
340
0
102
{BLKREFS
331
473
102
}
  0
BLOCK_RECORD
  5
157
330
1
100
AcDbSymbolTableRecord
100
AcDbBlockTableRecord
  2
HATCH_1_3bd31a3d-ffb2-43e4-9387-67ea97928493
340
0
102
{BLKREFS
331
474
102
}
  0
BLOCK_RECORD
  5
15A
330
1
100
AcDbSymbolTableRecord
100
AcDbBlockTableRecord
  2
HATCH_2_122be1bd-af64-4837-a7fa-a981a740e56d
340
0
102
{BLKREFS
331
475
102
}
  0
BLOCK_RECORD
  5
15D
330
1
100
AcDbSymbolTableRecord
100
AcDbBlockTableRecord
  2
HATCH_3_d4109019-1ebf-403f-8646-eef3807f4056
340
0
102
{BLKREFS
331
476
102
}
  0
BLOCK_RECORD
  5
161
330
1
100
AcDbSymbolTableRecord
100
AcDbBlockTableRecord
  2
HATCH_4_ad96cf3a-d7cd-4564-b4ad-11d1a7030270
340
0
102
{BLKREFS
331
477
102
}
  0
BLOCK_RECORD
  5
165
330
1
100
AcDbSymbolTableRecord
100
AcDbBlockTableRecord
  2
HATCH_5_fce4ca95-a225-40bd-83e9-34e144c094a7
340
0
102
{BLKREFS
331
478
102
}
  0
BLOCK_RECORD
  5
169
330
1
100
AcDbSymbolTableRecord
100
AcDbBlockTableRecord
  2
HATCH_6_78f59fe4-2400-4b2a-aa1b-b75a38ebca24
340
0
102
{BLKREFS
331
479
102
}
  0
BLOCK_RECORD
  5
16D
330
1
100
AcDbSymbolTableRecord
100
AcDbBlockTableRecord
  2
HATCH_7_bfdbf6da-738e-4377-8cf3-d0985bce0fc6
340
0
102
{BLKREFS
331
47A
102
}
  0
BLOCK_RECORD
  5
171
330
1
100
AcDbSymbolTableRecord
100
AcDbBlockTableRecord
  2
HATCH_8_d9fec085-a566-48ff-b008-21e98854cb61
340
0
102
{BLKREFS
331
47B
102
}
  0
BLOCK_RECORD
  5
176
330
1
100
AcDbSymbolTableRecord
100
AcDbBlockTableRecord
  2
HATCH_9_7836ad96-eeed-4ad5-9c8a-6e28176ac06f
340
0
102
{BLKREFS
331
47C
102
}
  0
BLOCK_RECORD
  5
17B
330
1
100
AcDbSymbolTableRecord
100
AcDbBlockTableRecord
  2
HATCH_10_61fff14e-11c7-45e3-b309-b8894ee71292
340
0
102
{BLKREFS
331
47D
102
}
  0
BLOCK_RECORD
  5
180
330
1
100
AcDbSymbolTableRecord
100
AcDbBlockTableRecord
  2
HATCH_11_d0eee545-46dc-4603-a99a-c7fb92170b90
340
0
102
{BLKREFS
331
47E
102
}
  0
BLOCK_RECORD
  5
185
330
1
100
AcDbSymbolTableRecord
100
AcDbBlockTableRecord
  2
HATCH_12_76df2f42-b0d4-4237-b95f-23b81fef4003
340
0
102
{BLKREFS
331
47F
102
}
  0
BLOCK_RECORD
  5
18A
330
1
100
AcDbSymbolTableRecord
100
AcDbBlockTableRecord
  2
HATCH_13_0fb9547b-b129-4de7-9ac1-56383fcf059d
340
0
102
{BLKREFS
331
480
102
}
  0
BLOCK_RECORD
  5
18F
330
1
100
AcDbSymbolTableRecord
100
AcDbBlockTableRecord
  2
HATCH_14_ee7f17df-edda-42a6-b8d8-93256148efec
340
0
102
{BLKREFS
331
481
102
}
  0
BLOCK_RECORD
  5
194
330
1
100
AcDbSymbolTableRecord
100
AcDbBlockTableRecord
  2
HATCH_15_a98eaeec-cea9-4e44-ae21-dc3c2008a16b
340
0
102
{BLKREFS
331
482
102
}
  0
BLOCK_RECORD
  5
199
330
1
100
AcDbSymbolTableRecord
100
AcDbBlockTableRecord
  2
HATCH_16_ced48c52-240b-489e-b2e6-2465d7fc0d86
340
0
102
{BLKREFS
331
483
102
}
  0
BLOCK_RECORD
  5
19E
330
1
100
AcDbSymbolTableRecord
100
AcDbBlockTableRecord
  2
HATCH_17_bc44a6f4-7444-485b-93a8-d2c3650ac358
340
0
102
{BLKREFS
331
484
102
}
  0
BLOCK_RECORD
  5
1A3
330
1
100
AcDbSymbolTableRecord
100
AcDbBlockTableRecord
  2
HATCH_18_0dc53ea7-c5f4-4286-b922-2183748db6f6
340
0
102
{BLKREFS
331
485
102
}
  0
BLOCK_RECORD
  5
1A8
330
1
100
AcDbSymbolTableRecord
100
AcDbBlockTableRecord
  2
HATCH_19_25217a57-ce3a-4fc9-85e3-922c57b5028a
340
0
102
{BLKREFS
331
486
102
}
  0
BLOCK_RECORD
  5
1AD
330
1
100
AcDbSymbolTableRecord
100
AcDbBlockTableRecord
  2
HATCH_20_e1fa339a-623f-42ea-a8ac-83d7c15bea09
340
0
102
{BLKREFS
331
487
102
}
  0
BLOCK_RECORD
  5
1B2
330
1
100
AcDbSymbolTableRecord
100
AcDbBlockTableRecord
  2
HATCH_21_dc06ad7f-8b60-4b5f-9c41-102b3d6c4180
340
0
102
{BLKREFS
331
488
102
}
  0
BLOCK_RECORD
  5
1B7
330
1
100
AcDbSymbolTableRecord
100
AcDbBlockTableRecord
  2
HATCH_22_4863c199-7154-41e4-90f2-baad2788ebef
340
0
102
{BLKREFS
331
489
102
}
  0
BLOCK_RECORD
  5
1BC
330
1
100
AcDbSymbolTableRecord
100
AcDbBlockTableRecord
  2
HATCH_23_a2f998b7-997d-43b7-be65-b7703bf06367
340
0
102
{BLKREFS
331
48A
102
}
  0
BLOCK_RECORD
  5
1C0
330
1
100
AcDbSymbolTableRecord
100
AcDbBlockTableRecord
  2
HATCH_24_34706a88-e160-4cf1-8c86-48686afb8c2b
340
0
102
{BLKREFS
331
48B
102
}
  0
BLOCK_RECORD
  5
1C4
330
1
100
AcDbSymbolTableRecord
100
AcDbBlockTableRecord
  2
HATCH_25_e86d6f95-03cb-47d3-b6b9-c439acbc318f
340
0
102
{BLKREFS
331
48C
102
}
  0
BLOCK_RECORD
  5
1C8
330
1
100
AcDbSymbolTableRecord
100
AcDbBlockTableRecord
  2
HATCH_26_7df97556-db65-4318-a707-61ee7844ae3e
340
0
102
{BLKREFS
331
48D
102
}
  0
BLOCK_RECORD
  5
1CB
330
1
100
AcDbSymbolTableRecord
100
AcDbBlockTableRecord
  2
HATCH_27_59f925c3-7b30-45b7-bbe0-ad17d080ee87
340
0
102
{BLKREFS
331
48E
102
}
  0
BLOCK_RECORD
  5
1CE
330
1
100
AcDbSymbolTableRecord
100
AcDbBlockTableRecord
  2
HATCH_28_63b63f94-b513-427c-b1ff-69ee279fcbf3
340
0
102
{BLKREFS
331
48F
102
}
  0
BLOCK_RECORD
  5
1D1
330
1
100
AcDbSymbolTableRecord
100
AcDbBlockTableRecord
  2
HATCH_29_0f2da85a-96b1-4203-b059-02a324102dc7
340
0
102
{BLKREFS
331
490
102
}
  0
BLOCK_RECORD
  5
1D4
330
1
100
AcDbSymbolTableRecord
100
AcDbBlockTableRecord
  2
HATCH_30_3117c716-2b67-4e6a-b9fe-f4117f8afb18
340
0
102
{BLKREFS
331
491
102
}
  0
BLOCK_RECORD
  5
1D7
330
1
100
AcDbSymbolTableRecord
100
AcDbBlockTableRecord
  2
HATCH_31_d91ae28a-377e-413e-9170-c26f0374c630
340
0
102
{BLKREFS
331
492
102
}
  0
BLOCK_RECORD
  5
1DB
330
1
100
AcDbSymbolTableRecord
100
AcDbBlockTableRecord
  2
HATCH_32_f2301a18-558e-4be9-8188-4331c49b7cc2
340
0
102
{BLKREFS
331
493
102
}
  0
BLOCK_RECORD
  5
1DF
330
1
100
AcDbSymbolTableRecord
100
AcDbBlockTableRecord
  2
HATCH_33_569e081e-b5b7-465d-98b0-4f2d2e8bc564
340
0
102
{BLKREFS
331
494
102
}
  0
BLOCK_RECORD
  5
1E3
330
1
100
AcDbSymbolTableRecord
100
AcDbBlockTableRecord
  2
HATCH_34_5e4a0200-9631-4026-8d1d-cb1007208075
340
0
102
{BLKREFS
331
495
102
}
  0
BLOCK_RECORD
  5
1E7
330
1
100
AcDbSymbolTableRecord
100
AcDbBlockTableRecord
  2
HATCH_35_93c47104-0d5f-4791-b8ef-633faf8fced4
340
0
102
{BLKREFS
331
496
102
}
  0
BLOCK_RECORD
  5
1EB
330
1
100
AcDbSymbolTableRecord
100
AcDbBlockTableRecord
  2
HATCH_36_29a11cf8-6d02-4d3b-9f1d-730da8159c43
340
0
102
{BLKREFS
331
497
102
}
  0
BLOCK_RECORD
  5
1EF
330
1
100
AcDbSymbolTableRecord
100
AcDbBlockTableRecord
  2
HATCH_37_e6e56e3d-c8ff-4344-9601-52c225956e0b
340
0
102
{BLKREFS
331
498
102
}
  0
BLOCK_RECORD
  5
1F3
330
1
100
AcDbSymbolTableRecord
100
AcDbBlockTableRecord
  2
HATCH_38_e3f5f46d-0cc9-4441-948d-5a8d1562e6e8
340
0
102
{BLKREFS
331
499
102
}
  0
BLOCK_RECORD
  5
1F7
330
1
100
AcDbSymbolTableRecord
100
AcDbBlockTableRecord
  2
HATCH_39_52459acd-0d10-4aaa-858f-107acd4bf8db
340
0
102
{BLKREFS
331
49A
102
}
  0
BLOCK_RECORD
  5
1FB
330
1
100
AcDbSymbolTableRecord
100
AcDbBlockTableRecord
  2
HATCH_40_c9677c61-65ae-491b-a877-ec1877f64633
340
0
102
{BLKREFS
331
49B
102
}
  0
BLOCK_RECORD
  5
1FF
330
1
100
AcDbSymbolTableRecord
100
AcDbBlockTableRecord
  2
HATCH_41_7894f058-fd88-4f0a-8289-975ad16745f9
340
0
102
{BLKREFS
331
49C
102
}
  0
BLOCK_RECORD
  5
203
330
1
100
AcDbSymbolTableRecord
100
AcDbBlockTableRecord
  2
HATCH_42_be1ee807-a6f5-4db4-b9cd-6b6ca2ce55f1
340
0
102
{BLKREFS
331
49D
102
}
  0
BLOCK_RECORD
  5
208
330
1
100
AcDbSymbolTableRecord
100
AcDbBlockTableRecord
  2
HATCH_43_c8aaab08-cdb3-4276-9c2c-923ee680bc47
340
0
102
{BLKREFS
331
49E
102
}
  0
BLOCK_RECORD
  5
20D
330
1
100
AcDbSymbolTableRecord
100
AcDbBlockTableRecord
  2
HATCH_44_89955287-20ce-4813-88db-f93d5481090e
340
0
102
{BLKREFS
331
49F
102
}
  0
BLOCK_RECORD
  5
212
330
1
100
AcDbSymbolTableRecord
100
AcDbBlockTableRecord
  2
HATCH_45_74672343-f8b0-4cd6-8f91-bea0d25f5bb5
340
0
102
{BLKREFS
331
4A0
102
}
  0
BLOCK_RECORD
  5
217
330
1
100
AcDbSymbolTableRecord
100
AcDbBlockTableRecord
  2
HATCH_46_d1de6bfa-eba0-4f26-a7e6-4041489adda4
340
0
102
{BLKREFS
331
4A1
102
}
  0
BLOCK_RECORD
  5
21C
330
1
100
AcDbSymbolTableRecord
100
AcDbBlockTableRecord
  2
HATCH_47_eecba474-2b89-4c22-9f66-2b7ae3f5674c
340
0
102
{BLKREFS
331
4A2
102
}
  0
BLOCK_RECORD
  5
221
330
1
100
AcDbSymbolTableRecord
100
AcDbBlockTableRecord
  2
HATCH_48_3902c1fc-d87f-454c-b95c-76ee462d3297
340
0
102
{BLKREFS
331
4A3
102
}
  0
BLOCK_RECORD
  5
226
330
1
100
AcDbSymbolTableRecord
100
AcDbBlockTableRecord
  2
HATCH_49_697dc31c-2a4a-4b00-81d2-393e881536c2
340
0
102
{BLKREFS
331
4A4
102
}
  0
BLOCK_RECORD
  5
22B
330
1
100
AcDbSymbolTableRecord
100
AcDbBlockTableRecord
  2
HATCH_50_f7c13334-6eb6-4444-b100-2f7be932bf92
340
0
102
{BLKREFS
331
4A5
102
}
  0
BLOCK_RECORD
  5
230
330
1
100
AcDbSymbolTableRecord
100
AcDbBlockTableRecord
  2
HATCH_51_01b88e33-479f-4fb8-9a80-8e3cdc26592d
340
0
102
{BLKREFS
331
4A6
102
}
  0
BLOCK_RECORD
  5
234
330
1
100
AcDbSymbolTableRecord
100
AcDbBlockTableRecord
  2
HATCH_52_eaa21f8c-1148-4b89-97e8-193b8fa6e8a8
340
0
102
{BLKREFS
331
4A7
102
}
  0
BLOCK_RECORD
  5
238
330
1
100
AcDbSymbolTableRecord
100
AcDbBlockTableRecord
  2
HATCH_53_5d8ace01-a3a0-4b25-ad4f-00b5dea677e8
340
0
102
{BLKREFS
331
4A8
102
}
  0
BLOCK_RECORD
  5
23C
330
1
100
AcDbSymbolTableRecord
100
AcDbBlockTableRecord
  2
HATCH_54_f55a958d-72b5-44bd-906a-912bd5cca131
340
0
102
{BLKREFS
331
4A9
102
}
  0
BLOCK_RECORD
  5
240
330
1
100
AcDbSymbolTableRecord
100
AcDbBlockTableRecord
  2
HATCH_55_af6b1535-9239-437f-92cd-40bf4eef4858
340
0
102
{BLKREFS
331
4AA
102
}
  0
BLOCK_RECORD
  5
244
330
1
100
AcDbSymbolTableRecord
100
AcDbBlockTableRecord
  2
HATCH_56_2eed3122-3684-41cd-b9d9-4d290b68b4be
340
0
102
{BLKREFS
331
4AB
102
}
  0
BLOCK_RECORD
  5
248
330
1
100
AcDbSymbolTableRecord
100
AcDbBlockTableRecord
  2
HATCH_57_9de115dd-a9e2-480d-a856-e5b8d55869e6
340
0
102
{BLKREFS
331
4AC
102
}
  0
BLOCK_RECORD
  5
24C
330
1
100
AcDbSymbolTableRecord
100
AcDbBlockTableRecord
  2
HATCH_58_0c8ed01c-d37c-4b0a-9f54-33ac10b2e8b5
340
0
102
{BLKREFS
331
4AD
102
}
  0
BLOCK_RECORD
  5
250
330
1
100
AcDbSymbolTableRecord
100
AcDbBlockTableRecord
  2
HATCH_59_ed51de47-9c2d-47e9-b09a-3ba4699dec29
340
0
102
{BLKREFS
331
4AE
102
}
  0
BLOCK_RECORD
  5
254
330
1
100
AcDbSymbolTableRecord
100
AcDbBlockTableRecord
  2
HATCH_60_2a66bb18-acb8-46a7-877f-815e5236a9ae
340
0
102
{BLKREFS
331
4AF
102
}
  0
BLOCK_RECORD
  5
257
330
1
100
AcDbSymbolTableRecord
100
AcDbBlockTableRecord
  2
HATCH_61_870d95a1-3910-4157-9f7c-77e04847945e
340
0
102
{BLKREFS
331
4B0
102
}
  0
BLOCK_RECORD
  5
25A
330
1
100
AcDbSymbolTableRecord
100
AcDbBlockTableRecord
  2
HATCH_62_806adc12-3597-4e96-aae1-d74ad016a3a0
340
0
102
{BLKREFS
331
4B1
102
}
  0
BLOCK_RECORD
  5
25D
330
1
100
AcDbSymbolTableRecord
100
AcDbBlockTableRecord
  2
HATCH_63_95568030-44a8-49be-8c83-d4bdffd8b209
340
0
102
{BLKREFS
331
4B2
102
}
  0
BLOCK_RECORD
  5
260
330
1
100
AcDbSymbolTableRecord
100
AcDbBlockTableRecord
  2
HATCH_64_1a6d2104-1c13-422f-91f9-8cc8ac48f1cb
340
0
102
{BLKREFS
331
4B3
102
}
  0
BLOCK_RECORD
  5
263
330
1
100
AcDbSymbolTableRecord
100
AcDbBlockTableRecord
  2
HATCH_65_de4aaf09-40c0-43d0-b2c6-5cdb2f3556f4
340
0
102
{BLKREFS
331
4B4
102
}
  0
BLOCK_RECORD
  5
266
330
1
100
AcDbSymbolTableRecord
100
AcDbBlockTableRecord
  2
HATCH_66_0c79e35a-8427-4944-96b3-c028774280a5
340
0
102
{BLKREFS
331
4B5
102
}
  0
BLOCK_RECORD
  5
269
330
1
100
AcDbSymbolTableRecord
100
AcDbBlockTableRecord
  2
HATCH_67_32a06ee8-bf8a-46e5-86f4-db153806900c
340
0
102
{BLKREFS
331
4B6
102
}
  0
BLOCK_RECORD
  5
26D
330
1
100
AcDbSymbolTableRecord
100
AcDbBlockTableRecord
  2
HATCH_68_6e373f72-144f-43cb-9c32-a6e3a3971823
340
0
102
{BLKREFS
331
4B7
102
}
  0
BLOCK_RECORD
  5
272
330
1
100
AcDbSymbolTableRecord
100
AcDbBlockTableRecord
  2
HATCH_69_d59426a3-1195-4873-b1d2-d2592bc75113
340
0
102
{BLKREFS
331
4B8
102
}
  0
BLOCK_RECORD
  5
277
330
1
100
AcDbSymbolTableRecord
100
AcDbBlockTableRecord
  2
HATCH_70_e1fadcc8-fc8d-4965-a729-d8c5f6c939e2
340
0
102
{BLKREFS
331
4B9
102
}
  0
BLOCK_RECORD
  5
27C
330
1
100
AcDbSymbolTableRecord
100
AcDbBlockTableRecord
  2
HATCH_71_8a00e229-67bf-47e1-8ecf-7566cec3d1a0
340
0
102
{BLKREFS
331
4BA
102
}
  0
BLOCK_RECORD
  5
281
330
1
100
AcDbSymbolTableRecord
100
AcDbBlockTableRecord
  2
HATCH_72_8de62d3d-6678-40d0-b36c-179266edf828
340
0
102
{BLKREFS
331
4BB
102
}
  0
BLOCK_RECORD
  5
286
330
1
100
AcDbSymbolTableRecord
100
AcDbBlockTableRecord
  2
HATCH_73_84e61a23-ded2-42e7-bfbc-92cd201edd0c
340
0
102
{BLKREFS
331
4BC
102
}
  0
BLOCK_RECORD
  5
28B
330
1
100
AcDbSymbolTableRecord
100
AcDbBlockTableRecord
  2
HATCH_74_37d70ac7-61ff-48c4-86af-b7d85979f652
340
0
102
{BLKREFS
331
4BD
102
}
  0
BLOCK_RECORD
  5
290
330
1
100
AcDbSymbolTableRecord
100
AcDbBlockTableRecord
  2
HATCH_75_2bb704e2-8a32-4e99-a2f2-e0b143f2f2f7
340
0
102
{BLKREFS
331
4BE
102
}
  0
BLOCK_RECORD
  5
295
330
1
100
AcDbSymbolTableRecord
100
AcDbBlockTableRecord
  2
HATCH_76_f8980270-8fd9-448d-9f03-bf2dacb3a7b8
340
0
102
{BLKREFS
331
4BF
102
}
  0
BLOCK_RECORD
  5
29A
330
1
100
AcDbSymbolTableRecord
100
AcDbBlockTableRecord
  2
HATCH_77_9218871e-e6a1-47ef-ab10-31505be93a23
340
0
102
{BLKREFS
331
4C0
102
}
  0
BLOCK_RECORD
  5
29F
330
1
100
AcDbSymbolTableRecord
100
AcDbBlockTableRecord
  2
HATCH_78_e4857cb0-99f8-4213-b954-206fc8e825f3
340
0
102
{BLKREFS
331
4C1
102
}
  0
BLOCK_RECORD
  5
2A4
330
1
100
AcDbSymbolTableRecord
100
AcDbBlockTableRecord
  2
HATCH_79_cf4f8da1-ab2b-41f9-95a8-380503d6c506
340
0
102
{BLKREFS
331
4C2
102
}
  0
BLOCK_RECORD
  5
2A9
330
1
100
AcDbSymbolTableRecord
100
AcDbBlockTableRecord
  2
HATCH_80_89aed6c9-53cc-4e14-9edd-5855cb8a5c36
340
0
102
{BLKREFS
331
4C3
102
}
  0
BLOCK_RECORD
  5
2AE
330
1
100
AcDbSymbolTableRecord
100
AcDbBlockTableRecord
  2
HATCH_81_9dbf4994-31aa-4e7b-99c4-afd0ed7786b6
340
0
102
{BLKREFS
331
4C4
102
}
  0
BLOCK_RECORD
  5
2B3
330
1
100
AcDbSymbolTableRecord
100
AcDbBlockTableRecord
  2
HATCH_82_51ea89fd-31e0-4380-ae8d-b006a419f61d
340
0
102
{BLKREFS
331
4C5
102
}
  0
BLOCK_RECORD
  5
2B8
330
1
100
AcDbSymbolTableRecord
100
AcDbBlockTableRecord
  2
HATCH_83_3563fc0b-4699-4d87-8d51-84c47f434f41
340
0
102
{BLKREFS
331
4C6
102
}
  0
BLOCK_RECORD
  5
2BD
330
1
100
AcDbSymbolTableRecord
100
AcDbBlockTableRecord
  2
HATCH_84_69f1073a-e0f4-4560-8bc2-af2538fd1beb
340
0
102
{BLKREFS
331
4C7
102
}
  0
BLOCK_RECORD
  5
2C2
330
1
100
AcDbSymbolTableRecord
100
AcDbBlockTableRecord
  2
HATCH_85_695aaf7f-bace-4a4c-9738-9104f8d33eab
340
0
102
{BLKREFS
331
4C8
102
}
  0
BLOCK_RECORD
  5
2C7
330
1
100
AcDbSymbolTableRecord
100
AcDbBlockTableRecord
  2
HATCH_86_2e66f997-7437-4a3e-b3a9-12fcc693da69
340
0
102
{BLKREFS
331
4C9
102
}
  0
BLOCK_RECORD
  5
2CC
330
1
100
AcDbSymbolTableRecord
100
AcDbBlockTableRecord
  2
HATCH_87_bdedea60-aaf8-40a7-ac0b-dcef0294a9f9
340
0
102
{BLKREFS
331
4CA
102
}
  0
BLOCK_RECORD
  5
2D1
330
1
100
AcDbSymbolTableRecord
100
AcDbBlockTableRecord
  2
HATCH_88_11540f9c-0423-4675-846d-cd999addc27e
340
0
102
{BLKREFS
331
4CB
102
}
  0
BLOCK_RECORD
  5
2D5
330
1
100
AcDbSymbolTableRecord
100
AcDbBlockTableRecord
  2
HATCH_89_379d4989-8c64-42ad-bde2-1bf3add2a1c1
340
0
102
{BLKREFS
331
4CC
102
}
  0
BLOCK_RECORD
  5
2D8
330
1
100
AcDbSymbolTableRecord
100
AcDbBlockTableRecord
  2
HATCH_90_53300fb0-1592-43f8-b204-75ada581a7f4
340
0
102
{BLKREFS
331
4CD
102
}
  0
BLOCK_RECORD
  5
2DB
330
1
100
AcDbSymbolTableRecord
100
AcDbBlockTableRecord
  2
HATCH_91_0ba6774c-d5ac-4559-8a4b-59426edf56d6
340
0
102
{BLKREFS
331
4CE
102
}
  0
BLOCK_RECORD
  5
2DE
330
1
100
AcDbSymbolTableRecord
100
AcDbBlockTableRecord
  2
HATCH_92_bc46cd0d-45c6-4d40-955d-11404aafa19d
340
0
102
{BLKREFS
331
4CF
102
}
  0
BLOCK_RECORD
  5
2E1
330
1
100
AcDbSymbolTableRecord
100
AcDbBlockTableRecord
  2
HATCH_93_f3dc577b-6f93-41ff-ba1f-ea3ec6dfe0ab
340
0
102
{BLKREFS
331
4D0
102
}
  0
BLOCK_RECORD
  5
2E4
330
1
100
AcDbSymbolTableRecord
100
AcDbBlockTableRecord
  2
HATCH_94_00b2efcd-29ef-4393-9912-380441c50cb3
340
0
102
{BLKREFS
331
4D1
102
}
  0
BLOCK_RECORD
  5
2E7
330
1
100
AcDbSymbolTableRecord
100
AcDbBlockTableRecord
  2
HATCH_95_4b69dedd-7938-4af0-9acf-94c570152b24
340
0
102
{BLKREFS
331
4D2
102
}
  0
BLOCK_RECORD
  5
2EA
330
1
100
AcDbSymbolTableRecord
100
AcDbBlockTableRecord
  2
HATCH_96_295f2f2b-2779-4750-91ea-b7f4c2a7804d
340
0
102
{BLKREFS
331
4D3
102
}
  0
BLOCK_RECORD
  5
2EE
330
1
100
AcDbSymbolTableRecord
100
AcDbBlockTableRecord
  2
HATCH_97_8ad8a228-4999-499b-b67a-1af0a5ebe763
340
0
102
{BLKREFS
331
4D4
102
}
  0
BLOCK_RECORD
  5
2F2
330
1
100
AcDbSymbolTableRecord
100
AcDbBlockTableRecord
  2
HATCH_98_4faec769-ea9c-49fb-bc66-9dc9d4f2ffc7
340
0
102
{BLKREFS
331
4D5
102
}
  0
BLOCK_RECORD
  5
2F6
330
1
100
AcDbSymbolTableRecord
100
AcDbBlockTableRecord
  2
HATCH_99_6a807723-0adf-491a-960e-c69f0fba8ad8
340
0
102
{BLKREFS
331
4D6
102
}
  0
BLOCK_RECORD
  5
2FA
330
1
100
AcDbSymbolTableRecord
100
AcDbBlockTableRecord
  2
HATCH_100_140c9563-cd0e-43f7-a5c9-3c8a04cc6973
340
0
102
{BLKREFS
331
4D7
102
}
  0
BLOCK_RECORD
  5
2FE
330
1
100
AcDbSymbolTableRecord
100
AcDbBlockTableRecord
  2
HATCH_101_9b90fa6d-8b5c-4aa7-b8ad-d2c30f7238ab
340
0
102
{BLKREFS
331
4D8
102
}
  0
BLOCK_RECORD
  5
302
330
1
100
AcDbSymbolTableRecord
100
AcDbBlockTableRecord
  2
HATCH_102_687ead84-0e01-4ab1-8b9a-881113552716
340
0
102
{BLKREFS
331
4D9
102
}
  0
BLOCK_RECORD
  5
306
330
1
100
AcDbSymbolTableRecord
100
AcDbBlockTableRecord
  2
HATCH_103_9f6b0850-6169-4f2f-82da-f21f48028529
340
0
102
{BLKREFS
331
4DA
102
}
  0
BLOCK_RECORD
  5
30A
330
1
100
AcDbSymbolTableRecord
100
AcDbBlockTableRecord
  2
HATCH_104_880acef1-a137-415c-abc9-df6e85791cd0
340
0
102
{BLKREFS
331
4DB
102
}
  0
BLOCK_RECORD
  5
30E
330
1
100
AcDbSymbolTableRecord
100
AcDbBlockTableRecord
  2
HATCH_105_b9a4bc57-20ea-429d-8979-d1f16e87447e
340
0
102
{BLKREFS
331
4DC
102
}
  0
BLOCK_RECORD
  5
313
330
1
100
AcDbSymbolTableRecord
100
AcDbBlockTableRecord
  2
HATCH_106_df2e185b-8d85-48ca-a692-bc4bd57bc02f
340
0
102
{BLKREFS
331
4DD
102
}
  0
BLOCK_RECORD
  5
318
330
1
100
AcDbSymbolTableRecord
100
AcDbBlockTableRecord
  2
HATCH_107_e56c9748-0709-4dfd-93ca-b901242b8849
340
0
102
{BLKREFS
331
4DE
102
}
  0
BLOCK_RECORD
  5
31D
330
1
100
AcDbSymbolTableRecord
100
AcDbBlockTableRecord
  2
HATCH_108_9dc060f4-b7b1-4f8b-bdd1-fadc7461aa06
340
0
102
{BLKREFS
331
4DF
102
}
  0
BLOCK_RECORD
  5
322
330
1
100
AcDbSymbolTableRecord
100
AcDbBlockTableRecord
  2
HATCH_109_473960c7-6e4b-45af-91c3-ab357991fb3c
340
0
102
{BLKREFS
331
4E0
102
}
  0
BLOCK_RECORD
  5
327
330
1
100
AcDbSymbolTableRecord
100
AcDbBlockTableRecord
  2
HATCH_110_26200a72-0eee-42ce-8d68-ce269b951a79
340
0
102
{BLKREFS
331
4E1
102
}
  0
BLOCK_RECORD
  5
32C
330
1
100
AcDbSymbolTableRecord
100
AcDbBlockTableRecord
  2
HATCH_111_ea24ddcf-da69-48b1-89fb-1be51f8ef6a7
340
0
102
{BLKREFS
331
4E2
102
}
  0
BLOCK_RECORD
  5
331
330
1
100
AcDbSymbolTableRecord
100
AcDbBlockTableRecord
  2
HATCH_112_a1a578cc-d9e1-48be-9267-f31ccc1203f5
340
0
102
{BLKREFS
331
4E3
102
}
  0
BLOCK_RECORD
  5
336
330
1
100
AcDbSymbolTableRecord
100
AcDbBlockTableRecord
  2
HATCH_113_3f65b772-8a51-4fad-8252-e74444d5d29b
340
0
102
{BLKREFS
331
4E4
102
}
  0
BLOCK_RECORD
  5
33B
330
1
100
AcDbSymbolTableRecord
100
AcDbBlockTableRecord
  2
HATCH_114_ea43e1c6-d9c5-4fc2-b256-45d43132699a
340
0
102
{BLKREFS
331
4E5
102
}
  0
BLOCK_RECORD
  5
33F
330
1
100
AcDbSymbolTableRecord
100
AcDbBlockTableRecord
  2
HATCH_115_8010f4c2-c4f7-42dd-be3f-74b28318ab0d
340
0
102
{BLKREFS
331
4E6
102
}
  0
BLOCK_RECORD
  5
343
330
1
100
AcDbSymbolTableRecord
100
AcDbBlockTableRecord
  2
HATCH_116_896b27d4-9343-4ee3-b376-95644b2a82d7
340
0
102
{BLKREFS
331
4E7
102
}
  0
BLOCK_RECORD
  5
347
330
1
100
AcDbSymbolTableRecord
100
AcDbBlockTableRecord
  2
HATCH_117_40641e2d-7b49-420b-8702-07f88fb5a366
340
0
102
{BLKREFS
331
4E8
102
}
  0
BLOCK_RECORD
  5
34B
330
1
100
AcDbSymbolTableRecord
100
AcDbBlockTableRecord
  2
HATCH_118_f80cbd75-d76b-41ad-96fc-14a7e8c41f0a
340
0
102
{BLKREFS
331
4E9
102
}
  0
BLOCK_RECORD
  5
34F
330
1
100
AcDbSymbolTableRecord
100
AcDbBlockTableRecord
  2
HATCH_119_2e7c20da-e463-4bde-b6e0-6ca9998012a0
340
0
102
{BLKREFS
331
4EA
102
}
  0
BLOCK_RECORD
  5
353
330
1
100
AcDbSymbolTableRecord
100
AcDbBlockTableRecord
  2
HATCH_120_fbd83f68-c924-47d9-ae1e-4a857329a75b
340
0
102
{BLKREFS
331
4EB
102
}
  0
BLOCK_RECORD
  5
357
330
1
100
AcDbSymbolTableRecord
100
AcDbBlockTableRecord
  2
HATCH_121_e9f78dbe-e597-4111-9c11-56eef3ba0698
340
0
102
{BLKREFS
331
4EC
102
}
  0
BLOCK_RECORD
  5
35B
330
1
100
AcDbSymbolTableRecord
100
AcDbBlockTableRecord
  2
HATCH_122_7512231b-7c61-42a4-8b16-ff60e39f2f5c
340
0
102
{BLKREFS
331
4ED
102
}
  0
BLOCK_RECORD
  5
35F
330
1
100
AcDbSymbolTableRecord
100
AcDbBlockTableRecord
  2
HATCH_123_caa8bfc5-4ce7-43e1-aadd-2008f7d5c515
340
0
102
{BLKREFS
331
4EE
102
}
  0
BLOCK_RECORD
  5
363
330
1
100
AcDbSymbolTableRecord
100
AcDbBlockTableRecord
  2
HATCH_124_7ff65752-8d6e-49fa-9a7b-4831c353147c
340
0
102
{BLKREFS
331
4EF
102
}
  0
BLOCK_RECORD
  5
367
330
1
100
AcDbSymbolTableRecord
100
AcDbBlockTableRecord
  2
HATCH_125_7cc5c943-e8bd-47e5-b4bc-5dff8da27614
340
0
102
{BLKREFS
331
4F0
102
}
  0
ENDTAB
  0
ENDSEC
  0
SECTION
  2
BLOCKS
  0
BLOCK
  5
20
330
1F
100
AcDbEntity
  8
0
100
AcDbBlockBegin
  2
*Model_Space
 70
     0
 10
0.0
 20
0.0
 30
0.0
  3
*Model_Space
  1

  0
ENDBLK
  5
21
330
1F
100
AcDbEntity
  8
0
100
AcDbBlockEnd
  0
BLOCK
  5
1C
330
1B
100
AcDbEntity
 67
     1
  8
0
100
AcDbBlockBegin
  2
*Paper_Space
 70
     0
 10
0.0
 20
0.0
 30
0.0
  3
*Paper_Space
  1

  0
ENDBLK
  5
1D
330
1B
100
AcDbEntity
 67
     1
  8
0
100
AcDbBlockEnd
  0
BLOCK
  5
24
330
23
100
AcDbEntity
  8
0
100
AcDbBlockBegin
  2
*Paper_Space0
 70
     0
 10
0.0
 20
0.0
 30
0.0
  3
*Paper_Space0
  1

  0
ENDBLK
  5
25
330
23
100
AcDbEntity
  8
0
100
AcDbBlockEnd
  0
BLOCK
  5
4B
330
4A
100
AcDbEntity
  8
0
100
AcDbBlockBegin
  2
_CLOSED
 70
     0
 10
0.0
 20
0.0
 30
0.0
  3
_CLOSED
  1

  0
LINE
  5
4D
330
4A
100
AcDbEntity
  8
0
  6
ByBlock
 62
     0
370
    -2
100
AcDbLine
 10
-1.0
 20
0.166667
 30
0.0
 11
0.0
 21
0.0
 31
0.0
  0
LINE
  5
4E
330
4A
100
AcDbEntity
  8
0
  6
ByBlock
 62
     0
370
    -2
100
AcDbLine
 10
0.0
 20
0.0
 30
0.0
 11
-1.0
 21
-0.166667
 31
0.0
  0
LINE
  5
4F
330
4A
100
AcDbEntity
  8
0
  6
ByBlock
 62
     0
370
    -2
100
AcDbLine
 10
-1.0
 20
0.166667
 30
0.0
 11
-1.0
 21
-0.166667
 31
0.0
  0
LINE
  5
50
330
4A
100
AcDbEntity
  8
0
  6
ByBlock
 62
     0
370
    -2
100
AcDbLine
 10
0.0
 20
0.0
 30
0.0
 11
-1.0
 21
0.0
 31
0.0
  0
ENDBLK
  5
4C
330
4A
100
AcDbEntity
  8
0
100
AcDbBlockEnd
  0
BLOCK
  5
155
330
154
100
AcDbEntity
  8
0
100
AcDbBlockBegin
  2
HATCH_0_ca533f48-3907-42ef-afc0-813098dcee19
 70
     0
 10
0.0
 20
0.0
 30
0.0
  3
HATCH_0_ca533f48-3907-42ef-afc0-813098dcee19
  1

  0
ENDBLK
  5
156
330
154
100
AcDbEntity
  8
0
100
AcDbBlockEnd
  0
BLOCK
  5
158
330
157
100
AcDbEntity
  8
0
100
AcDbBlockBegin
  2
HATCH_1_3bd31a3d-ffb2-43e4-9387-67ea97928493
 70
     0
 10
0.0
 20
0.0
 30
0.0
  3
HATCH_1_3bd31a3d-ffb2-43e4-9387-67ea97928493
  1

  0
ENDBLK
  5
159
330
157
100
AcDbEntity
  8
0
100
AcDbBlockEnd
  0
BLOCK
  5
15B
330
15A
100
AcDbEntity
  8
0
100
AcDbBlockBegin
  2
HATCH_2_122be1bd-af64-4837-a7fa-a981a740e56d
 70
     0
 10
0.0
 20
0.0
 30
0.0
  3
HATCH_2_122be1bd-af64-4837-a7fa-a981a740e56d
  1

  0
ENDBLK
  5
15C
330
15A
100
AcDbEntity
  8
0
100
AcDbBlockEnd
  0
BLOCK
  5
15E
330
15D
100
AcDbEntity
  8
0
100
AcDbBlockBegin
  2
HATCH_3_d4109019-1ebf-403f-8646-eef3807f4056
 70
     0
 10
0.0
 20
0.0
 30
0.0
  3
HATCH_3_d4109019-1ebf-403f-8646-eef3807f4056
  1

  0
LINE
  5
160
330
15D
100
AcDbEntity
  8
DETAILS
 62
     0
370
     9
100
AcDbLine
 10
34.15818824706071
 20
28.5
 30
0.0
 11
34.14375006131627
 21
28.5
 31
0.0
  0
ENDBLK
  5
15F
330
15D
100
AcDbEntity
  8
0
100
AcDbBlockEnd
  0
BLOCK
  5
162
330
161
100
AcDbEntity
  8
0
100
AcDbBlockBegin
  2
HATCH_4_ad96cf3a-d7cd-4564-b4ad-11d1a7030270
 70
     0
 10
0.0
 20
0.0
 30
0.0
  3
HATCH_4_ad96cf3a-d7cd-4564-b4ad-11d1a7030270
  1

  0
LINE
  5
164
330
161
100
AcDbEntity
  8
DETAILS
 62
     0
370
     9
100
AcDbLine
 10
34.16144965261096
 20
28.5
 30
0.0
 11
34.15818824706071
 21
28.5
 31
0.0
  0
ENDBLK
  5
163
330
161
100
AcDbEntity
  8
0
100
AcDbBlockEnd
  0
BLOCK
  5
166
330
165
100
AcDbEntity
  8
0
100
AcDbBlockBegin
  2
HATCH_5_fce4ca95-a225-40bd-83e9-34e144c094a7
 70
     0
 10
0.0
 20
0.0
 30
0.0
  3
HATCH_5_fce4ca95-a225-40bd-83e9-34e144c094a7
  1

  0
LINE
  5
168
330
165
100
AcDbEntity
  8
DETAILS
 62
     0
370
     9
100
AcDbLine
 10
34.18195336304537
 20
28.5
 30
0.0
 11
34.16144965261096
 21
28.5
 31
0.0
  0
ENDBLK
  5
167
330
165
100
AcDbEntity
  8
0
100
AcDbBlockEnd
  0
BLOCK
  5
16A
330
169
100
AcDbEntity
  8
0
100
AcDbBlockBegin
  2
HATCH_6_78f59fe4-2400-4b2a-aa1b-b75a38ebca24
 70
     0
 10
0.0
 20
0.0
 30
0.0
  3
HATCH_6_78f59fe4-2400-4b2a-aa1b-b75a38ebca24
  1

  0
LINE
  5
16C
330
169
100
AcDbEntity
  8
DETAILS
 62
     0
370
     9
100
AcDbLine
 10
34.18845583824719
 20
28.5
 30
0.0
 11
34.18195336304537
 21
28.5
 31
0.0
  0
ENDBLK
  5
16B
330
169
100
AcDbEntity
  8
0
100
AcDbBlockEnd
  0
BLOCK
  5
16E
330
16D
100
AcDbEntity
  8
0
100
AcDbBlockBegin
  2
HATCH_7_bfdbf6da-738e-4377-8cf3-d0985bce0fc6
 70
     0
 10
0.0
 20
0.0
 30
0.0
  3
HATCH_7_bfdbf6da-738e-4377-8cf3-d0985bce0fc6
  1

  0
LINE
  5
170
330
16D
100
AcDbEntity
  8
DETAILS
 62
     0
370
     9
100
AcDbLine
 10
34.21220061833316
 20
28.5
 30
0.0
 11
34.18845583824719
 21
28.5
 31
0.0
  0
ENDBLK
  5
16F
330
16D
100
AcDbEntity
  8
0
100
AcDbBlockEnd
  0
BLOCK
  5
172
330
171
100
AcDbEntity
  8
0
100
AcDbBlockBegin
  2
HATCH_8_d9fec085-a566-48ff-b008-21e98854cb61
 70
     0
 10
0.0
 20
0.0
 30
0.0
  3
HATCH_8_d9fec085-a566-48ff-b008-21e98854cb61
  1

  0
LINE
  5
174
330
171
100
AcDbEntity
  8
DETAILS
 62
     0
370
     9
100
AcDbLine
 10
34.22136297065761
 20
28.5
 30
0.0
 11
34.21220061833316
 21
28.5
 31
0.0
  0
LINE
  5
175
330
171
100
AcDbEntity
  8
DETAILS
 62
     0
370
     9
100
AcDbLine
 10
34.22136297065761
 20
28.75
 30
0.0
 11
34.19931904327999
 21
28.75
 31
0.0
  0
ENDBLK
  5
173
330
171
100
AcDbEntity
  8
0
100
AcDbBlockEnd
  0
BLOCK
  5
177
330
176
100
AcDbEntity
  8
0
100
AcDbBlockBegin
  2
HATCH_9_7836ad96-eeed-4ad5-9c8a-6e28176ac06f
 70
     0
 10
0.0
 20
0.0
 30
0.0
  3
HATCH_9_7836ad96-eeed-4ad5-9c8a-6e28176ac06f
  1

  0
LINE
  5
179
330
176
100
AcDbEntity
  8
DETAILS
 62
     0
370
     9
100
AcDbLine
 10
34.22314477702692
 20
28.75
 30
0.0
 11
34.22136297065761
 21
28.75
 31
0.0
  0
LINE
  5
17A
330
176
100
AcDbEntity
  8
DETAILS
 62
     0
370
     9
100
AcDbLine
 10
34.24776762786621
 20
28.5
 30
0.0
 11
34.22136297065761
 21
28.5
 31
0.0
  0
ENDBLK
  5
178
330
176
100
AcDbEntity
  8
0
100
AcDbBlockEnd
  0
BLOCK
  5
17C
330
17B
100
AcDbEntity
  8
0
100
AcDbBlockBegin
  2
HATCH_10_61fff14e-11c7-45e3-b309-b8894ee71292
 70
     0
 10
0.0
 20
0.0
 30
0.0
  3
HATCH_10_61fff14e-11c7-45e3-b309-b8894ee71292
  1

  0
LINE
  5
17E
330
17B
100
AcDbEntity
  8
DETAILS
 62
     0
370
     9
100
AcDbLine
 10
34.25890644719823
 20
28.5
 30
0.0
 11
34.24776762786621
 21
28.5
 31
0.0
  0
LINE
  5
17F
330
17B
100
AcDbEntity
  8
DETAILS
 62
     0
370
     9
100
AcDbLine
 10
34.25890644719823
 20
28.75
 30
0.0
 11
34.22314477702692
 21
28.75
 31
0.0
  0
ENDBLK
  5
17D
330
17B
100
AcDbEntity
  8
0
100
AcDbBlockEnd
  0
BLOCK
  5
181
330
180
100
AcDbEntity
  8
0
100
AcDbBlockBegin
  2
HATCH_11_d0eee545-46dc-4603-a99a-c7fb92170b90
 70
     0
 10
0.0
 20
0.0
 30
0.0
  3
HATCH_11_d0eee545-46dc-4603-a99a-c7fb92170b90
  1

  0
LINE
  5
183
330
180
100
AcDbEntity
  8
DETAILS
 62
     0
370
     9
100
AcDbLine
 10
34.2626647205751
 20
28.75
 30
0.0
 11
34.25890644719823
 21
28.75
 31
0.0
  0
LINE
  5
184
330
180
100
AcDbEntity
  8
DETAILS
 62
     0
370
     9
100
AcDbLine
 10
34.2872875714144
 20
28.5
 30
0.0
 11
34.25890644719823
 21
28.5
 31
0.0
  0
ENDBLK
  5
182
330
180
100
AcDbEntity
  8
0
100
AcDbBlockEnd
  0
BLOCK
  5
186
330
185
100
AcDbEntity
  8
0
100
AcDbBlockBegin
  2
HATCH_12_76df2f42-b0d4-4237-b95f-23b81fef4003
 70
     0
 10
0.0
 20
0.0
 30
0.0
  3
HATCH_12_76df2f42-b0d4-4237-b95f-23b81fef4003
  1

  0
LINE
  5
188
330
185
100
AcDbEntity
  8
DETAILS
 62
     0
370
     9
100
AcDbLine
 10
34.29964349312021
 20
28.5
 30
0.0
 11
34.2872875714144
 21
28.5
 31
0.0
  0
LINE
  5
189
330
185
100
AcDbEntity
  8
DETAILS
 62
     0
370
     9
100
AcDbLine
 10
34.29964349312021
 20
28.75
 30
0.0
 11
34.2626647205751
 21
28.75
 31
0.0
  0
ENDBLK
  5
187
330
185
100
AcDbEntity
  8
0
100
AcDbBlockEnd
  0
BLOCK
  5
18B
330
18A
100
AcDbEntity
  8
0
100
AcDbBlockBegin
  2
HATCH_13_0fb9547b-b129-4de7-9ac1-56383fcf059d
 70
     0
 10
0.0
 20
0.0
 30
0.0
  3
HATCH_13_0fb9547b-b129-4de7-9ac1-56383fcf059d
  1

  0
LINE
  5
18D
330
18A
100
AcDbEntity
  8
DETAILS
 62
     0
370
     9
100
AcDbLine
 10
34.3046188688709
 20
28.75
 30
0.0
 11
34.29964349312021
 21
28.75
 31
0.0
  0
LINE
  5
18E
330
18A
100
AcDbEntity
  8
DETAILS
 62
     0
370
     9
100
AcDbLine
 10
34.32924171971018
 20
28.5
 30
0.0
 11
34.29964349312021
 21
28.5
 31
0.0
  0
ENDBLK
  5
18C
330
18A
100
AcDbEntity
  8
0
100
AcDbBlockEnd
  0
BLOCK
  5
190
330
18F
100
AcDbEntity
  8
0
100
AcDbBlockBegin
  2
HATCH_14_ee7f17df-edda-42a6-b8d8-93256148efec
 70
     0
 10
0.0
 20
0.0
 30
0.0
  3
HATCH_14_ee7f17df-edda-42a6-b8d8-93256148efec
  1

  0
LINE
  5
192
330
18F
100
AcDbEntity
  8
DETAILS
 62
     0
370
     9
100
AcDbLine
 10
34.34200860659438
 20
28.5
 30
0.0
 11
34.32924171971018
 21
28.5
 31
0.0
  0
LINE
  5
193
330
18F
100
AcDbEntity
  8
DETAILS
 62
     0
370
     9
100
AcDbLine
 10
34.34200860659438
 20
28.75
 30
0.0
 11
34.3046188688709
 21
28.75
 31
0.0
  0
ENDBLK
  5
191
330
18F
100
AcDbEntity
  8
0
100
AcDbBlockEnd
  0
BLOCK
  5
195
330
194
100
AcDbEntity
  8
0
100
AcDbBlockBegin
  2
HATCH_15_a98eaeec-cea9-4e44-ae21-dc3c2008a16b
 70
     0
 10
0.0
 20
0.0
 30
0.0
  3
HATCH_15_a98eaeec-cea9-4e44-ae21-dc3c2008a16b
  1

  0
LINE
  5
197
330
194
100
AcDbEntity
  8
DETAILS
 62
     0
370
     9
100
AcDbLine
 10
34.34739494752344
 20
28.75
 30
0.0
 11
34.34200860659438
 21
28.75
 31
0.0
  0
LINE
  5
198
330
194
100
AcDbEntity
  8
DETAILS
 62
     0
370
     9
100
AcDbLine
 10
34.37201779836273
 20
28.5
 30
0.0
 11
34.34200860659438
 21
28.5
 31
0.0
  0
ENDBLK
  5
196
330
194
100
AcDbEntity
  8
0
100
AcDbBlockEnd
  0
BLOCK
  5
19A
330
199
100
AcDbEntity
  8
0
100
AcDbBlockBegin
  2
HATCH_16_ced48c52-240b-489e-b2e6-2465d7fc0d86
 70
     0
 10
0.0
 20
0.0
 30
0.0
  3
HATCH_16_ced48c52-240b-489e-b2e6-2465d7fc0d86
  1

  0
LINE
  5
19C
330
199
100
AcDbEntity
  8
DETAILS
 62
     0
370
     9
100
AcDbLine
 10
34.38437372006855
 20
28.5
 30
0.0
 11
34.37201779836273
 21
28.5
 31
0.0
  0
LINE
  5
19D
330
199
100
AcDbEntity
  8
DETAILS
 62
     0
370
     9
100
AcDbLine
 10
34.38437372006855
 20
28.75
 30
0.0
 11
34.34739494752344
 21
28.75
 31
0.0
  0
ENDBLK
  5
19B
330
199
100
AcDbEntity
  8
0
100
AcDbBlockEnd
  0
BLOCK
  5
19F
330
19E
100
AcDbEntity
  8
0
100
AcDbBlockBegin
  2
HATCH_17_bc44a6f4-7444-485b-93a8-d2c3650ac358
 70
     0
 10
0.0
 20
0.0
 30
0.0
  3
HATCH_17_bc44a6f4-7444-485b-93a8-d2c3650ac358
  1

  0
LINE
  5
1A1
330
19E
100
AcDbEntity
  8
DETAILS
 62
     0
370
     9
100
AcDbLine
 10
34.38934909581923
 20
28.75
 30
0.0
 11
34.38437372006855
 21
28.75
 31
0.0
  0
LINE
  5
1A2
330
19E
100
AcDbEntity
  8
DETAILS
 62
     0
370
     9
100
AcDbLine
 10
34.41397194665852
 20
28.5
 30
0.0
 11
34.38437372006855
 21
28.5
 31
0.0
  0
ENDBLK
  5
1A0
330
19E
100
AcDbEntity
  8
0
100
AcDbBlockEnd
  0
BLOCK
  5
1A4
330
1A3
100
AcDbEntity
  8
0
100
AcDbBlockBegin
  2
HATCH_18_0dc53ea7-c5f4-4286-b922-2183748db6f6
 70
     0
 10
0.0
 20
0.0
 30
0.0
  3
HATCH_18_0dc53ea7-c5f4-4286-b922-2183748db6f6
  1

  0
LINE
  5
1A6
330
1A3
100
AcDbEntity
  8
DETAILS
 62
     0
370
     9
100
AcDbLine
 10
34.42511076599054
 20
28.5
 30
0.0
 11
34.41397194665852
 21
28.5
 31
0.0
  0
LINE
  5
1A7
330
1A3
100
AcDbEntity
  8
DETAILS
 62
     0
370
     9
100
AcDbLine
 10
34.42511076599054
 20
28.75
 30
0.0
 11
34.38934909581923
 21
28.75
 31
0.0
  0
ENDBLK
  5
1A5
330
1A3
100
AcDbEntity
  8
0
100
AcDbBlockEnd
  0
BLOCK
  5
1A9
330
1A8
100
AcDbEntity
  8
0
100
AcDbBlockBegin
  2
HATCH_19_25217a57-ce3a-4fc9-85e3-922c57b5028a
 70
     0
 10
0.0
 20
0.0
 30
0.0
  3
HATCH_19_25217a57-ce3a-4fc9-85e3-922c57b5028a
  1

  0
LINE
  5
1AB
330
1A8
100
AcDbEntity
  8
DETAILS
 62
     0
370
     9
100
AcDbLine
 10
34.42886903936741
 20
28.75
 30
0.0
 11
34.42511076599054
 21
28.75
 31
0.0
  0
LINE
  5
1AC
330
1A8
100
AcDbEntity
  8
DETAILS
 62
     0
370
     9
100
AcDbLine
 10
34.45349189020671
 20
28.5
 30
0.0
 11
34.42511076599054
 21
28.5
 31
0.0
  0
ENDBLK
  5
1AA
330
1A8
100
AcDbEntity
  8
0
100
AcDbBlockEnd
  0
BLOCK
  5
1AE
330
1AD
100
AcDbEntity
  8
0
100
AcDbBlockBegin
  2
HATCH_20_e1fa339a-623f-42ea-a8ac-83d7c15bea09
 70
     0
 10
0.0
 20
0.0
 30
0.0
  3
HATCH_20_e1fa339a-623f-42ea-a8ac-83d7c15bea09
  1

  0
LINE
  5
1B0
330
1AD
100
AcDbEntity
  8
DETAILS
 62
     0
370
     9
100
AcDbLine
 10
34.46265424253116
 20
28.5
 30
0.0
 11
34.45349189020671
 21
28.5
 31
0.0
  0
LINE
  5
1B1
330
1AD
100
AcDbEntity
  8
DETAILS
 62
     0
370
     9
100
AcDbLine
 10
34.46265424253116
 20
28.75
 30
0.0
 11
34.42886903936741
 21
28.75
 31
0.0
  0
ENDBLK
  5
1AF
330
1AD
100
AcDbEntity
  8
0
100
AcDbBlockEnd
  0
BLOCK
  5
1B3
330
1B2
100
AcDbEntity
  8
0
100
AcDbBlockBegin
  2
HATCH_21_dc06ad7f-8b60-4b5f-9c41-102b3d6c4180
 70
     0
 10
0.0
 20
0.0
 30
0.0
  3
HATCH_21_dc06ad7f-8b60-4b5f-9c41-102b3d6c4180
  1

  0
LINE
  5
1B5
330
1B2
100
AcDbEntity
  8
DETAILS
 62
     0
370
     9
100
AcDbLine
 10
34.46443604890047
 20
28.75
 30
0.0
 11
34.46265424253116
 21
28.75
 31
0.0
  0
LINE
  5
1B6
330
1B2
100
AcDbEntity
  8
DETAILS
 62
     0
370
     9
100
AcDbLine
 10
34.48905889973976
 20
28.5
 30
0.0
 11
34.46265424253116
 21
28.5
 31
0.0
  0
ENDBLK
  5
1B4
330
1B2
100
AcDbEntity
  8
0
100
AcDbBlockEnd
  0
BLOCK
  5
1B8
330
1B7
100
AcDbEntity
  8
0
100
AcDbBlockBegin
  2
HATCH_22_4863c199-7154-41e4-90f2-baad2788ebef
 70
     0
 10
0.0
 20
0.0
 30
0.0
  3
HATCH_22_4863c199-7154-41e4-90f2-baad2788ebef
  1

  0
LINE
  5
1BA
330
1B7
100
AcDbEntity
  8
DETAILS
 62
     0
370
     9
100
AcDbLine
 10
34.49556137494158
 20
28.5
 30
0.0
 11
34.48905889973976
 21
28.5
 31
0.0
  0
LINE
  5
1BB
330
1B7
100
AcDbEntity
  8
DETAILS
 62
     0
370
     9
100
AcDbLine
 10
34.48469816990877
 20
28.75
 30
0.0
 11
34.46443604890047
 21
28.75
 31
0.0
  0
ENDBLK
  5
1B9
330
1B7
100
AcDbEntity
  8
0
100
AcDbBlockEnd
  0
BLOCK
  5
1BD
330
1BC
100
AcDbEntity
  8
0
100
AcDbBlockBegin
  2
HATCH_23_a2f998b7-997d-43b7-be65-b7703bf06367
 70
     0
 10
0.0
 20
0.0
 30
0.0
  3
HATCH_23_a2f998b7-997d-43b7-be65-b7703bf06367
  1

  0
LINE
  5
1BF
330
1BC
100
AcDbEntity
  8
DETAILS
 62
     0
370
     9
100
AcDbLine
 10
34.51930615502755
 20
28.5
 30
0.0
 11
34.49556137494158
 21
28.5
 31
0.0
  0
ENDBLK
  5
1BE
330
1BC
100
AcDbEntity
  8
0
100
AcDbBlockEnd
  0
BLOCK
  5
1C1
330
1C0
100
AcDbEntity
  8
0
100
AcDbBlockBegin
  2
HATCH_24_34706a88-e160-4cf1-8c86-48686afb8c2b
 70
     0
 10
0.0
 20
0.0
 30
0.0
  3
HATCH_24_34706a88-e160-4cf1-8c86-48686afb8c2b
  1

  0
LINE
  5
1C3
330
1C0
100
AcDbEntity
  8
DETAILS
 62
     0
370
     9
100
AcDbLine
 10
34.52256756057781
 20
28.5
 30
0.0
 11
34.51930615502755
 21
28.5
 31
0.0
  0
ENDBLK
  5
1C2
330
1C0
100
AcDbEntity
  8
0
100
AcDbBlockEnd
  0
BLOCK
  5
1C5
330
1C4
100
AcDbEntity
  8
0
100
AcDbBlockBegin
  2
HATCH_25_e86d6f95-03cb-47d3-b6b9-c439acbc318f
 70
     0
 10
0.0
 20
0.0
 30
0.0
  3
HATCH_25_e86d6f95-03cb-47d3-b6b9-c439acbc318f
  1

  0
LINE
  5
1C7
330
1C4
100
AcDbEntity
  8
DETAILS
 62
     0
370
     9
100
AcDbLine
 10
34.5402671518725
 20
28.5
 30
0.0
 11
34.52256756057781
 21
28.5
 31
0.0
  0
ENDBLK
  5
1C6
330
1C4
100
AcDbEntity
  8
0
100
AcDbBlockEnd
  0
BLOCK
  5
1C9
330
1C8
100
AcDbEntity
  8
0
100
AcDbBlockBegin
  2
HATCH_26_7df97556-db65-4318-a707-61ee7844ae3e
 70
     0
 10
0.0
 20
0.0
 30
0.0
  3
HATCH_26_7df97556-db65-4318-a707-61ee7844ae3e
  1

  0
ENDBLK
  5
1CA
330
1C8
100
AcDbEntity
  8
0
100
AcDbBlockEnd
  0
BLOCK
  5
1CC
330
1CB
100
AcDbEntity
  8
0
100
AcDbBlockBegin
  2
HATCH_27_59f925c3-7b30-45b7-bbe0-ad17d080ee87
 70
     0
 10
0.0
 20
0.0
 30
0.0
  3
HATCH_27_59f925c3-7b30-45b7-bbe0-ad17d080ee87
  1

  0
ENDBLK
  5
1CD
330
1CB
100
AcDbEntity
  8
0
100
AcDbBlockEnd
  0
BLOCK
  5
1CF
330
1CE
100
AcDbEntity
  8
0
100
AcDbBlockBegin
  2
HATCH_28_63b63f94-b513-427c-b1ff-69ee279fcbf3
 70
     0
 10
0.0
 20
0.0
 30
0.0
  3
HATCH_28_63b63f94-b513-427c-b1ff-69ee279fcbf3
  1

  0
ENDBLK
  5
1D0
330
1CE
100
AcDbEntity
  8
0
100
AcDbBlockEnd
  0
BLOCK
  5
1D2
330
1D1
100
AcDbEntity
  8
0
100
AcDbBlockBegin
  2
HATCH_29_0f2da85a-96b1-4203-b059-02a324102dc7
 70
     0
 10
0.0
 20
0.0
 30
0.0
  3
HATCH_29_0f2da85a-96b1-4203-b059-02a324102dc7
  1

  0
ENDBLK
  5
1D3
330
1D1
100
AcDbEntity
  8
0
100
AcDbBlockEnd
  0
BLOCK
  5
1D5
330
1D4
100
AcDbEntity
  8
0
100
AcDbBlockBegin
  2
HATCH_30_3117c716-2b67-4e6a-b9fe-f4117f8afb18
 70
     0
 10
0.0
 20
0.0
 30
0.0
  3
HATCH_30_3117c716-2b67-4e6a-b9fe-f4117f8afb18
  1

  0
ENDBLK
  5
1D6
330
1D4
100
AcDbEntity
  8
0
100
AcDbBlockEnd
  0
BLOCK
  5
1D8
330
1D7
100
AcDbEntity
  8
0
100
AcDbBlockBegin
  2
HATCH_31_d91ae28a-377e-413e-9170-c26f0374c630
 70
     0
 10
0.0
 20
0.0
 30
0.0
  3
HATCH_31_d91ae28a-377e-413e-9170-c26f0374c630
  1

  0
LINE
  5
1DA
330
1D7
100
AcDbEntity
  8
DETAILS
 62
     0
370
     9
100
AcDbLine
 10
35.82750480844447
 20
27.75
 30
0.0
 11
35.82230883207086
 21
27.75
 31
0.0
  0
ENDBLK
  5
1D9
330
1D7
100
AcDbEntity
  8
0
100
AcDbBlockEnd
  0
BLOCK
  5
1DC
330
1DB
100
AcDbEntity
  8
0
100
AcDbBlockBegin
  2
HATCH_32_f2301a18-558e-4be9-8188-4331c49b7cc2
 70
     0
 10
0.0
 20
0.0
 30
0.0
  3
HATCH_32_f2301a18-558e-4be9-8188-4331c49b7cc2
  1

  0
LINE
  5
1DE
330
1DB
100
AcDbEntity
  8
DETAILS
 62
     0
370
     9
100
AcDbLine
 10
35.83001432525951
 20
27.75
 30
0.0
 11
35.82750480844447
 21
27.75
 31
0.0
  0
ENDBLK
  5
1DD
330
1DB
100
AcDbEntity
  8
0
100
AcDbBlockEnd
  0
BLOCK
  5
1E0
330
1DF
100
AcDbEntity
  8
0
100
AcDbBlockBegin
  2
HATCH_33_569e081e-b5b7-465d-98b0-4f2d2e8bc564
 70
     0
 10
0.0
 20
0.0
 30
0.0
  3
HATCH_33_569e081e-b5b7-465d-98b0-4f2d2e8bc564
  1

  0
LINE
  5
1E2
330
1DF
100
AcDbEntity
  8
DETAILS
 62
     0
370
     9
100
AcDbLine
 10
35.84204298257096
 20
27.75
 30
0.0
 11
35.83001432525951
 21
27.75
 31
0.0
  0
ENDBLK
  5
1E1
330
1DF
100
AcDbEntity
  8
0
100
AcDbBlockEnd
  0
BLOCK
  5
1E4
330
1E3
100
AcDbEntity
  8
0
100
AcDbBlockBegin
  2
HATCH_34_5e4a0200-9631-4026-8d1d-cb1007208075
 70
     0
 10
0.0
 20
0.0
 30
0.0
  3
HATCH_34_5e4a0200-9631-4026-8d1d-cb1007208075
  1

  0
LINE
  5
1E6
330
1E3
100
AcDbEntity
  8
DETAILS
 62
     0
370
     9
100
AcDbLine
 10
35.8478765459035
 20
27.75
 30
0.0
 11
35.84204298257096
 21
27.75
 31
0.0
  0
ENDBLK
  5
1E5
330
1E3
100
AcDbEntity
  8
0
100
AcDbBlockEnd
  0
BLOCK
  5
1E8
330
1E7
100
AcDbEntity
  8
0
100
AcDbBlockBegin
  2
HATCH_35_93c47104-0d5f-4791-b8ef-633faf8fced4
 70
     0
 10
0.0
 20
0.0
 30
0.0
  3
HATCH_35_93c47104-0d5f-4791-b8ef-633faf8fced4
  1

  0
LINE
  5
1EA
330
1E7
100
AcDbEntity
  8
DETAILS
 62
     0
370
     9
100
AcDbLine
 10
35.86322924973244
 20
27.75
 30
0.0
 11
35.8478765459035
 21
27.75
 31
0.0
  0
ENDBLK
  5
1E9
330
1E7
100
AcDbEntity
  8
0
100
AcDbBlockEnd
  0
BLOCK
  5
1EC
330
1EB
100
AcDbEntity
  8
0
100
AcDbBlockBegin
  2
HATCH_36_29a11cf8-6d02-4d3b-9f1d-730da8159c43
 70
     0
 10
0.0
 20
0.0
 30
0.0
  3
HATCH_36_29a11cf8-6d02-4d3b-9f1d-730da8159c43
  1

  0
LINE
  5
1EE
330
1EB
100
AcDbEntity
  8
DETAILS
 62
     0
370
     9
100
AcDbLine
 10
35.87202612312344
 20
27.75
 30
0.0
 11
35.86322924973244
 21
27.75
 31
0.0
  0
ENDBLK
  5
1ED
330
1EB
100
AcDbEntity
  8
0
100
AcDbBlockEnd
  0
BLOCK
  5
1F0
330
1EF
100
AcDbEntity
  8
0
100
AcDbBlockBegin
  2
HATCH_37_e6e56e3d-c8ff-4344-9601-52c225956e0b
 70
     0
 10
0.0
 20
0.0
 30
0.0
  3
HATCH_37_e6e56e3d-c8ff-4344-9601-52c225956e0b
  1

  0
LINE
  5
1F2
330
1EF
100
AcDbEntity
  8
DETAILS
 62
     0
370
     9
100
AcDbLine
 10
35.89034213701085
 20
27.75
 30
0.0
 11
35.87202612312344
 21
27.75
 31
0.0
  0
ENDBLK
  5
1F1
330
1EF
100
AcDbEntity
  8
0
100
AcDbBlockEnd
  0
BLOCK
  5
1F4
330
1F3
100
AcDbEntity
  8
0
100
AcDbBlockBegin
  2
HATCH_38_e3f5f46d-0cc9-4441-948d-5a8d1562e6e8
 70
     0
 10
0.0
 20
0.0
 30
0.0
  3
HATCH_38_e3f5f46d-0cc9-4441-948d-5a8d1562e6e8
  1

  0
LINE
  5
1F6
330
1F3
100
AcDbEntity
  8
DETAILS
 62
     0
370
     9
100
AcDbLine
 10
35.90164067203134
 20
27.75
 30
0.0
 11
35.89034213701085
 21
27.75
 31
0.0
  0
ENDBLK
  5
1F5
330
1F3
100
AcDbEntity
  8
0
100
AcDbBlockEnd
  0
BLOCK
  5
1F8
330
1F7
100
AcDbEntity
  8
0
100
AcDbBlockBegin
  2
HATCH_39_52459acd-0d10-4aaa-858f-107acd4bf8db
 70
     0
 10
0.0
 20
0.0
 30
0.0
  3
HATCH_39_52459acd-0d10-4aaa-858f-107acd4bf8db
  1

  0
LINE
  5
1FA
330
1F7
100
AcDbEntity
  8
DETAILS
 62
     0
370
     9
100
AcDbLine
 10
35.92245834754824
 20
27.75
 30
0.0
 11
35.90164067203134
 21
27.75
 31
0.0
  0
ENDBLK
  5
1F9
330
1F7
100
AcDbEntity
  8
0
100
AcDbBlockEnd
  0
BLOCK
  5
1FC
330
1FB
100
AcDbEntity
  8
0
100
AcDbBlockBegin
  2
HATCH_40_c9677c61-65ae-491b-a877-ec1877f64633
 70
     0
 10
0.0
 20
0.0
 30
0.0
  3
HATCH_40_c9677c61-65ae-491b-a877-ec1877f64633
  1

  0
LINE
  5
1FE
330
1FB
100
AcDbEntity
  8
DETAILS
 62
     0
370
     9
100
AcDbLine
 10
35.93571170468287
 20
27.75
 30
0.0
 11
35.92245834754824
 21
27.75
 31
0.0
  0
ENDBLK
  5
1FD
330
1FB
100
AcDbEntity
  8
0
100
AcDbBlockEnd
  0
BLOCK
  5
200
330
1FF
100
AcDbEntity
  8
0
100
AcDbBlockBegin
  2
HATCH_41_7894f058-fd88-4f0a-8289-975ad16745f9
 70
     0
 10
0.0
 20
0.0
 30
0.0
  3
HATCH_41_7894f058-fd88-4f0a-8289-975ad16745f9
  1

  0
LINE
  5
202
330
1FF
100
AcDbEntity
  8
DETAILS
 62
     0
370
     9
100
AcDbLine
 10
35.95848420231391
 20
27.75
 30
0.0
 11
35.93571170468287
 21
27.75
 31
0.0
  0
ENDBLK
  5
201
330
1FF
100
AcDbEntity
  8
0
100
AcDbBlockEnd
  0
BLOCK
  5
204
330
203
100
AcDbEntity
  8
0
100
AcDbBlockBegin
  2
HATCH_42_be1ee807-a6f5-4db4-b9cd-6b6ca2ce55f1
 70
     0
 10
0.0
 20
0.0
 30
0.0
  3
HATCH_42_be1ee807-a6f5-4db4-b9cd-6b6ca2ce55f1
  1

  0
LINE
  5
206
330
203
100
AcDbEntity
  8
DETAILS
 62
     0
370
     9
100
AcDbLine
 10
35.97307897292479
 20
27.75
 30
0.0
 11
35.95848420231391
 21
27.75
 31
0.0
  0
LINE
  5
207
330
203
100
AcDbEntity
  8
DETAILS
 62
     0
370
     9
100
AcDbLine
 10
35.97307897292479
 20
28.0
 30
0.0
 11
35.94667089369714
 21
28.0
 31
0.0
  0
ENDBLK
  5
205
330
203
100
AcDbEntity
  8
0
100
AcDbBlockEnd
  0
BLOCK
  5
209
330
208
100
AcDbEntity
  8
0
100
AcDbBlockBegin
  2
HATCH_43_c8aaab08-cdb3-4276-9c2c-923ee680bc47
 70
     0
 10
0.0
 20
0.0
 30
0.0
  3
HATCH_43_c8aaab08-cdb3-4276-9c2c-923ee680bc47
  1

  0
LINE
  5
20B
330
208
100
AcDbEntity
  8
DETAILS
 62
     0
370
     9
100
AcDbLine
 10
35.97402697247157
 20
28.0
 30
0.0
 11
35.97307897292479
 21
28.0
 31
0.0
  0
LINE
  5
20C
330
208
100
AcDbEntity
  8
DETAILS
 62
     0
370
     9
100
AcDbLine
 10
35.99719288403207
 20
27.75
 30
0.0
 11
35.97307897292479
 21
27.75
 31
0.0
  0
ENDBLK
  5
20A
330
208
100
AcDbEntity
  8
0
100
AcDbBlockEnd
  0
BLOCK
  5
20E
330
20D
100
AcDbEntity
  8
0
100
AcDbBlockBegin
  2
HATCH_44_89955287-20ce-4813-88db-f93d5481090e
 70
     0
 10
0.0
 20
0.0
 30
0.0
  3
HATCH_44_89955287-20ce-4813-88db-f93d5481090e
  1

  0
LINE
  5
210
330
20D
100
AcDbEntity
  8
DETAILS
 62
     0
370
     9
100
AcDbLine
 10
36.01246997925421
 20
27.75
 30
0.0
 11
35.99719288403207
 21
27.75
 31
0.0
  0
LINE
  5
211
330
20D
100
AcDbEntity
  8
DETAILS
 62
     0
370
     9
100
AcDbLine
 10
36.01246997925421
 20
28.0
 30
0.0
 11
35.97402697247157
 21
28.0
 31
0.0
  0
ENDBLK
  5
20F
330
20D
100
AcDbEntity
  8
0
100
AcDbBlockEnd
  0
BLOCK
  5
213
330
212
100
AcDbEntity
  8
0
100
AcDbBlockBegin
  2
HATCH_45_74672343-f8b0-4cd6-8f91-bea0d25f5bb5
 70
     0
 10
0.0
 20
0.0
 30
0.0
  3
HATCH_45_74672343-f8b0-4cd6-8f91-bea0d25f5bb5
  1

  0
LINE
  5
215
330
212
100
AcDbEntity
  8
DETAILS
 62
     0
370
     9
100
AcDbLine
 10
36.01410030341225
 20
28.0
 30
0.0
 11
36.01246997925421
 21
28.0
 31
0.0
  0
LINE
  5
216
330
212
100
AcDbEntity
  8
DETAILS
 62
     0
370
     9
100
AcDbLine
 10
36.03726621497276
 20
27.75
 30
0.0
 11
36.01246997925421
 21
27.75
 31
0.0
  0
ENDBLK
  5
214
330
212
100
AcDbEntity
  8
0
100
AcDbBlockEnd
  0
BLOCK
  5
218
330
217
100
AcDbEntity
  8
0
100
AcDbBlockBegin
  2
HATCH_46_d1de6bfa-eba0-4f26-a7e6-4041489adda4
 70
     0
 10
0.0
 20
0.0
 30
0.0
  3
HATCH_46_d1de6bfa-eba0-4f26-a7e6-4041489adda4
  1

  0
LINE
  5
21A
330
217
100
AcDbEntity
  8
DETAILS
 62
     0
370
     9
100
AcDbLine
 10
36.0525433101949
 20
27.75
 30
0.0
 11
36.03726621497276
 21
27.75
 31
0.0
  0
LINE
  5
21B
330
217
100
AcDbEntity
  8
DETAILS
 62
     0
370
     9
100
AcDbLine
 10
36.0525433101949
 20
28.0
 30
0.0
 11
36.01410030341225
 21
28.0
 31
0.0
  0
ENDBLK
  5
219
330
217
100
AcDbEntity
  8
0
100
AcDbBlockEnd
  0
BLOCK
  5
21D
330
21C
100
AcDbEntity
  8
0
100
AcDbBlockBegin
  2
HATCH_47_eecba474-2b89-4c22-9f66-2b7ae3f5674c
 70
     0
 10
0.0
 20
0.0
 30
0.0
  3
HATCH_47_eecba474-2b89-4c22-9f66-2b7ae3f5674c
  1

  0
LINE
  5
21F
330
21C
100
AcDbEntity
  8
DETAILS
 62
     0
370
     9
100
AcDbLine
 10
36.05417363435294
 20
28.0
 30
0.0
 11
36.0525433101949
 21
28.0
 31
0.0
  0
LINE
  5
220
330
21C
100
AcDbEntity
  8
DETAILS
 62
     0
370
     9
100
AcDbLine
 10
36.07733954591345
 20
27.75
 30
0.0
 11
36.0525433101949
 21
27.75
 31
0.0
  0
ENDBLK
  5
21E
330
21C
100
AcDbEntity
  8
0
100
AcDbBlockEnd
  0
BLOCK
  5
222
330
221
100
AcDbEntity
  8
0
100
AcDbBlockBegin
  2
HATCH_48_3902c1fc-d87f-454c-b95c-76ee462d3297
 70
     0
 10
0.0
 20
0.0
 30
0.0
  3
HATCH_48_3902c1fc-d87f-454c-b95c-76ee462d3297
  1

  0
LINE
  5
224
330
221
100
AcDbEntity
  8
DETAILS
 62
     0
370
     9
100
AcDbLine
 10
36.09193431652432
 20
27.75
 30
0.0
 11
36.07733954591345
 21
27.75
 31
0.0
  0
LINE
  5
225
330
221
100
AcDbEntity
  8
DETAILS
 62
     0
370
     9
100
AcDbLine
 10
36.09193431652432
 20
28.0
 30
0.0
 11
36.05417363435294
 21
28.0
 31
0.0
  0
ENDBLK
  5
223
330
221
100
AcDbEntity
  8
0
100
AcDbBlockEnd
  0
BLOCK
  5
227
330
226
100
AcDbEntity
  8
0
100
AcDbBlockBegin
  2
HATCH_49_697dc31c-2a4a-4b00-81d2-393e881536c2
 70
     0
 10
0.0
 20
0.0
 30
0.0
  3
HATCH_49_697dc31c-2a4a-4b00-81d2-393e881536c2
  1

  0
LINE
  5
229
330
226
100
AcDbEntity
  8
DETAILS
 62
     0
370
     9
100
AcDbLine
 10
36.0928823160711
 20
28.0
 30
0.0
 11
36.09193431652432
 21
28.0
 31
0.0
  0
LINE
  5
22A
330
226
100
AcDbEntity
  8
DETAILS
 62
     0
370
     9
100
AcDbLine
 10
36.11604822763161
 20
27.75
 30
0.0
 11
36.09193431652432
 21
27.75
 31
0.0
  0
ENDBLK
  5
228
330
226
100
AcDbEntity
  8
0
100
AcDbBlockEnd
  0
BLOCK
  5
22C
330
22B
100
AcDbEntity
  8
0
100
AcDbBlockBegin
  2
HATCH_50_f7c13334-6eb6-4444-b100-2f7be932bf92
 70
     0
 10
0.0
 20
0.0
 30
0.0
  3
HATCH_50_f7c13334-6eb6-4444-b100-2f7be932bf92
  1

  0
LINE
  5
22E
330
22B
100
AcDbEntity
  8
DETAILS
 62
     0
370
     9
100
AcDbLine
 10
36.12930158476624
 20
27.75
 30
0.0
 11
36.11604822763161
 21
27.75
 31
0.0
  0
LINE
  5
22F
330
22B
100
AcDbEntity
  8
DETAILS
 62
     0
370
     9
100
AcDbLine
 10
36.11834239575197
 20
28.0
 30
0.0
 11
36.0928823160711
 21
28.0
 31
0.0
  0
ENDBLK
  5
22D
330
22B
100
AcDbEntity
  8
0
100
AcDbBlockEnd
  0
BLOCK
  5
231
330
230
100
AcDbEntity
  8
0
100
AcDbBlockBegin
  2
HATCH_51_01b88e33-479f-4fb8-9a80-8e3cdc26592d
 70
     0
 10
0.0
 20
0.0
 30
0.0
  3
HATCH_51_01b88e33-479f-4fb8-9a80-8e3cdc26592d
  1

  0
LINE
  5
233
330
230
100
AcDbEntity
  8
DETAILS
 62
     0
370
     9
100
AcDbLine
 10
36.15207408239728
 20
27.75
 30
0.0
 11
36.12930158476624
 21
27.75
 31
0.0
  0
ENDBLK
  5
232
330
230
100
AcDbEntity
  8
0
100
AcDbBlockEnd
  0
BLOCK
  5
235
330
234
100
AcDbEntity
  8
0
100
AcDbBlockBegin
  2
HATCH_52_eaa21f8c-1148-4b89-97e8-193b8fa6e8a8
 70
     0
 10
0.0
 20
0.0
 30
0.0
  3
HATCH_52_eaa21f8c-1148-4b89-97e8-193b8fa6e8a8
  1

  0
LINE
  5
237
330
234
100
AcDbEntity
  8
DETAILS
 62
     0
370
     9
100
AcDbLine
 10
36.16337261741777
 20
27.75
 30
0.0
 11
36.15207408239728
 21
27.75
 31
0.0
  0
ENDBLK
  5
236
330
234
100
AcDbEntity
  8
0
100
AcDbBlockEnd
  0
BLOCK
  5
239
330
238
100
AcDbEntity
  8
0
100
AcDbBlockBegin
  2
HATCH_53_5d8ace01-a3a0-4b25-ad4f-00b5dea677e8
 70
     0
 10
0.0
 20
0.0
 30
0.0
  3
HATCH_53_5d8ace01-a3a0-4b25-ad4f-00b5dea677e8
  1

  0
LINE
  5
23B
330
238
100
AcDbEntity
  8
DETAILS
 62
     0
370
     9
100
AcDbLine
 10
36.18419029293467
 20
27.75
 30
0.0
 11
36.16337261741777
 21
27.75
 31
0.0
  0
ENDBLK
  5
23A
330
238
100
AcDbEntity
  8
0
100
AcDbBlockEnd
  0
BLOCK
  5
23D
330
23C
100
AcDbEntity
  8
0
100
AcDbBlockBegin
  2
HATCH_54_f55a958d-72b5-44bd-906a-912bd5cca131
 70
     0
 10
0.0
 20
0.0
 30
0.0
  3
HATCH_54_f55a958d-72b5-44bd-906a-912bd5cca131
  1

  0
LINE
  5
23F
330
23C
100
AcDbEntity
  8
DETAILS
 62
     0
370
     9
100
AcDbLine
 10
36.19298716632567
 20
27.75
 30
0.0
 11
36.18419029293467
 21
27.75
 31
0.0
  0
ENDBLK
  5
23E
330
23C
100
AcDbEntity
  8
0
100
AcDbBlockEnd
  0
BLOCK
  5
241
330
240
100
AcDbEntity
  8
0
100
AcDbBlockBegin
  2
HATCH_55_af6b1535-9239-437f-92cd-40bf4eef4858
 70
     0
 10
0.0
 20
0.0
 30
0.0
  3
HATCH_55_af6b1535-9239-437f-92cd-40bf4eef4858
  1

  0
LINE
  5
243
330
240
100
AcDbEntity
  8
DETAILS
 62
     0
370
     9
100
AcDbLine
 10
36.21130318021308
 20
27.75
 30
0.0
 11
36.19298716632567
 21
27.75
 31
0.0
  0
ENDBLK
  5
242
330
240
100
AcDbEntity
  8
0
100
AcDbBlockEnd
  0
BLOCK
  5
245
330
244
100
AcDbEntity
  8
0
100
AcDbBlockBegin
  2
HATCH_56_2eed3122-3684-41cd-b9d9-4d290b68b4be
 70
     0
 10
0.0
 20
0.0
 30
0.0
  3
HATCH_56_2eed3122-3684-41cd-b9d9-4d290b68b4be
  1

  0
LINE
  5
247
330
244
100
AcDbEntity
  8
DETAILS
 62
     0
370
     9
100
AcDbLine
 10
36.21713674354562
 20
27.75
 30
0.0
 11
36.21130318021308
 21
27.75
 31
0.0
  0
ENDBLK
  5
246
330
244
100
AcDbEntity
  8
0
100
AcDbBlockEnd
  0
BLOCK
  5
249
330
248
100
AcDbEntity
  8
0
100
AcDbBlockBegin
  2
HATCH_57_9de115dd-a9e2-480d-a856-e5b8d55869e6
 70
     0
 10
0.0
 20
0.0
 30
0.0
  3
HATCH_57_9de115dd-a9e2-480d-a856-e5b8d55869e6
  1

  0
LINE
  5
24B
330
248
100
AcDbEntity
  8
DETAILS
 62
     0
370
     9
100
AcDbLine
 10
36.23248944737455
 20
27.75
 30
0.0
 11
36.21713674354562
 21
27.75
 31
0.0
  0
ENDBLK
  5
24A
330
248
100
AcDbEntity
  8
0
100
AcDbBlockEnd
  0
BLOCK
  5
24D
330
24C
100
AcDbEntity
  8
0
100
AcDbBlockBegin
  2
HATCH_58_0c8ed01c-d37c-4b0a-9f54-33ac10b2e8b5
 70
     0
 10
0.0
 20
0.0
 30
0.0
  3
HATCH_58_0c8ed01c-d37c-4b0a-9f54-33ac10b2e8b5
  1

  0
LINE
  5
24F
330
24C
100
AcDbEntity
  8
DETAILS
 62
     0
370
     9
100
AcDbLine
 10
36.2349989641896
 20
27.75
 30
0.0
 11
36.23248944737455
 21
27.75
 31
0.0
  0
ENDBLK
  5
24E
330
24C
100
AcDbEntity
  8
0
100
AcDbBlockEnd
  0
BLOCK
  5
251
330
250
100
AcDbEntity
  8
0
100
AcDbBlockBegin
  2
HATCH_59_ed51de47-9c2d-47e9-b09a-3ba4699dec29
 70
     0
 10
0.0
 20
0.0
 30
0.0
  3
HATCH_59_ed51de47-9c2d-47e9-b09a-3ba4699dec29
  1

  0
LINE
  5
253
330
250
100
AcDbEntity
  8
DETAILS
 62
     0
370
     9
100
AcDbLine
 10
36.24270445737825
 20
27.75
 30
0.0
 11
36.2349989641896
 21
27.75
 31
0.0
  0
ENDBLK
  5
252
330
250
100
AcDbEntity
  8
0
100
AcDbBlockEnd
  0
BLOCK
  5
255
330
254
100
AcDbEntity
  8
0
100
AcDbBlockBegin
  2
HATCH_60_2a66bb18-acb8-46a7-877f-815e5236a9ae
 70
     0
 10
0.0
 20
0.0
 30
0.0
  3
HATCH_60_2a66bb18-acb8-46a7-877f-815e5236a9ae
  1

  0
ENDBLK
  5
256
330
254
100
AcDbEntity
  8
0
100
AcDbBlockEnd
  0
BLOCK
  5
258
330
257
100
AcDbEntity
  8
0
100
AcDbBlockBegin
  2
HATCH_61_870d95a1-3910-4157-9f7c-77e04847945e
 70
     0
 10
0.0
 20
0.0
 30
0.0
  3
HATCH_61_870d95a1-3910-4157-9f7c-77e04847945e
  1

  0
ENDBLK
  5
259
330
257
100
AcDbEntity
  8
0
100
AcDbBlockEnd
  0
BLOCK
  5
25B
330
25A
100
AcDbEntity
  8
0
100
AcDbBlockBegin
  2
HATCH_62_806adc12-3597-4e96-aae1-d74ad016a3a0
 70
     0
 10
0.0
 20
0.0
 30
0.0
  3
HATCH_62_806adc12-3597-4e96-aae1-d74ad016a3a0
  1

  0
ENDBLK
  5
25C
330
25A
100
AcDbEntity
  8
0
100
AcDbBlockEnd
  0
BLOCK
  5
25E
330
25D
100
AcDbEntity
  8
0
100
AcDbBlockBegin
  2
HATCH_63_95568030-44a8-49be-8c83-d4bdffd8b209
 70
     0
 10
0.0
 20
0.0
 30
0.0
  3
HATCH_63_95568030-44a8-49be-8c83-d4bdffd8b209
  1

  0
ENDBLK
  5
25F
330
25D
100
AcDbEntity
  8
0
100
AcDbBlockEnd
  0
BLOCK
  5
261
330
260
100
AcDbEntity
  8
0
100
AcDbBlockBegin
  2
HATCH_64_1a6d2104-1c13-422f-91f9-8cc8ac48f1cb
 70
     0
 10
0.0
 20
0.0
 30
0.0
  3
HATCH_64_1a6d2104-1c13-422f-91f9-8cc8ac48f1cb
  1

  0
ENDBLK
  5
262
330
260
100
AcDbEntity
  8
0
100
AcDbBlockEnd
  0
BLOCK
  5
264
330
263
100
AcDbEntity
  8
0
100
AcDbBlockBegin
  2
HATCH_65_de4aaf09-40c0-43d0-b2c6-5cdb2f3556f4
 70
     0
 10
0.0
 20
0.0
 30
0.0
  3
HATCH_65_de4aaf09-40c0-43d0-b2c6-5cdb2f3556f4
  1

  0
ENDBLK
  5
265
330
263
100
AcDbEntity
  8
0
100
AcDbBlockEnd
  0
BLOCK
  5
267
330
266
100
AcDbEntity
  8
0
100
AcDbBlockBegin
  2
HATCH_66_0c79e35a-8427-4944-96b3-c028774280a5
 70
     0
 10
0.0
 20
0.0
 30
0.0
  3
HATCH_66_0c79e35a-8427-4944-96b3-c028774280a5
  1

  0
ENDBLK
  5
268
330
266
100
AcDbEntity
  8
0
100
AcDbBlockEnd
  0
BLOCK
  5
26A
330
269
100
AcDbEntity
  8
0
100
AcDbBlockBegin
  2
HATCH_67_32a06ee8-bf8a-46e5-86f4-db153806900c
 70
     0
 10
0.0
 20
0.0
 30
0.0
  3
HATCH_67_32a06ee8-bf8a-46e5-86f4-db153806900c
  1

  0
LINE
  5
26C
330
269
100
AcDbEntity
  8
DETAILS
 62
     0
370
     9
100
AcDbLine
 10
35.17008265601028
 20
29.0
 30
0.0
 11
35.15597315002043
 21
29.0
 31
0.0
  0
ENDBLK
  5
26B
330
269
100
AcDbEntity
  8
0
100
AcDbBlockEnd
  0
BLOCK
  5
26E
330
26D
100
AcDbEntity
  8
0
100
AcDbBlockBegin
  2
HATCH_68_6e373f72-144f-43cb-9c32-a6e3a3971823
 70
     0
 10
0.0
 20
0.0
 30
0.0
  3
HATCH_68_6e373f72-144f-43cb-9c32-a6e3a3971823
  1

  0
LINE
  5
270
330
26D
100
AcDbEntity
  8
DETAILS
 62
     0
370
     9
100
AcDbLine
 10
35.17205614386923
 20
29.0
 30
0.0
 11
35.17008265601028
 21
29.0
 31
0.0
  0
LINE
  5
271
330
26D
100
AcDbEntity
  8
DETAILS
 62
     0
370
     9
100
AcDbLine
 10
35.17205614386923
 20
29.25
 30
0.0
 11
35.15597315002043
 21
29.25
 31
0.0
  0
ENDBLK
  5
26F
330
26D
100
AcDbEntity
  8
0
100
AcDbBlockEnd
  0
BLOCK
  5
273
330
272
100
AcDbEntity
  8
0
100
AcDbBlockBegin
  2
HATCH_69_d59426a3-1195-4873-b1d2-d2592bc75113
 70
     0
 10
0.0
 20
0.0
 30
0.0
  3
HATCH_69_d59426a3-1195-4873-b1d2-d2592bc75113
  1

  0
LINE
  5
275
330
272
100
AcDbEntity
  8
DETAILS
 62
     0
370
     9
100
AcDbLine
 10
35.17402963172817
 20
29.25
 30
0.0
 11
35.17205614386923
 21
29.25
 31
0.0
  0
LINE
  5
276
330
272
100
AcDbEntity
  8
DETAILS
 62
     0
370
     9
100
AcDbLine
 10
35.19719554328869
 20
29.0
 30
0.0
 11
35.17205614386923
 21
29.0
 31
0.0
  0
ENDBLK
  5
274
330
272
100
AcDbEntity
  8
0
100
AcDbBlockEnd
  0
BLOCK
  5
278
330
277
100
AcDbEntity
  8
0
100
AcDbBlockBegin
  2
HATCH_70_e1fadcc8-fc8d-4965-a729-d8c5f6c939e2
 70
     0
 10
0.0
 20
0.0
 30
0.0
  3
HATCH_70_e1fadcc8-fc8d-4965-a729-d8c5f6c939e2
  1

  0
LINE
  5
27A
330
277
100
AcDbEntity
  8
DETAILS
 62
     0
370
     9
100
AcDbLine
 10
35.20167069277713
 20
29.0
 30
0.0
 11
35.19719554328869
 21
29.0
 31
0.0
  0
LINE
  5
27B
330
277
100
AcDbEntity
  8
DETAILS
 62
     0
370
     9
100
AcDbLine
 10
35.20167069277713
 20
29.25
 30
0.0
 11
35.17402963172817
 21
29.25
 31
0.0
  0
ENDBLK
  5
279
330
277
100
AcDbEntity
  8
0
100
AcDbBlockEnd
  0
BLOCK
  5
27D
330
27C
100
AcDbEntity
  8
0
100
AcDbBlockBegin
  2
HATCH_71_8a00e229-67bf-47e1-8ecf-7566cec3d1a0
 70
     0
 10
0.0
 20
0.0
 30
0.0
  3
HATCH_71_8a00e229-67bf-47e1-8ecf-7566cec3d1a0
  1

  0
LINE
  5
27F
330
27C
100
AcDbEntity
  8
DETAILS
 62
     0
370
     9
100
AcDbLine
 10
35.20614584226557
 20
29.25
 30
0.0
 11
35.20167069277713
 21
29.25
 31
0.0
  0
LINE
  5
280
330
27C
100
AcDbEntity
  8
DETAILS
 62
     0
370
     9
100
AcDbLine
 10
35.22931175382607
 20
29.0
 30
0.0
 11
35.20167069277713
 21
29.0
 31
0.0
  0
ENDBLK
  5
27E
330
27C
100
AcDbEntity
  8
0
100
AcDbBlockEnd
  0
BLOCK
  5
282
330
281
100
AcDbEntity
  8
0
100
AcDbBlockBegin
  2
HATCH_72_8de62d3d-6678-40d0-b36c-179266edf828
 70
     0
 10
0.0
 20
0.0
 30
0.0
  3
HATCH_72_8de62d3d-6678-40d0-b36c-179266edf828
  1

  0
LINE
  5
284
330
281
100
AcDbEntity
  8
DETAILS
 62
     0
370
     9
100
AcDbLine
 10
35.23574172542866
 20
29.0
 30
0.0
 11
35.22931175382607
 21
29.0
 31
0.0
  0
LINE
  5
285
330
281
100
AcDbEntity
  8
DETAILS
 62
     0
370
     9
100
AcDbLine
 10
35.23574172542866
 20
29.25
 30
0.0
 11
35.20614584226557
 21
29.25
 31
0.0
  0
ENDBLK
  5
283
330
281
100
AcDbEntity
  8
0
100
AcDbBlockEnd
  0
BLOCK
  5
287
330
286
100
AcDbEntity
  8
0
100
AcDbBlockBegin
  2
HATCH_73_84e61a23-ded2-42e7-bfbc-92cd201edd0c
 70
     0
 10
0.0
 20
0.0
 30
0.0
  3
HATCH_73_84e61a23-ded2-42e7-bfbc-92cd201edd0c
  1

  0
LINE
  5
289
330
286
100
AcDbEntity
  8
DETAILS
 62
     0
370
     9
100
AcDbLine
 10
35.24217169703125
 20
29.25
 30
0.0
 11
35.23574172542866
 21
29.25
 31
0.0
  0
LINE
  5
28A
330
286
100
AcDbEntity
  8
DETAILS
 62
     0
370
     9
100
AcDbLine
 10
35.26533760859175
 20
29.0
 30
0.0
 11
35.23574172542866
 21
29.0
 31
0.0
  0
ENDBLK
  5
288
330
286
100
AcDbEntity
  8
0
100
AcDbBlockEnd
  0
BLOCK
  5
28C
330
28B
100
AcDbEntity
  8
0
100
AcDbBlockBegin
  2
HATCH_74_37d70ac7-61ff-48c4-86af-b7d85979f652
 70
     0
 10
0.0
 20
0.0
 30
0.0
  3
HATCH_74_37d70ac7-61ff-48c4-86af-b7d85979f652
  1

  0
LINE
  5
28E
330
28B
100
AcDbEntity
  8
DETAILS
 62
     0
370
     9
100
AcDbLine
 10
35.27310899367058
 20
29.0
 30
0.0
 11
35.26533760859175
 21
29.0
 31
0.0
  0
LINE
  5
28F
330
28B
100
AcDbEntity
  8
DETAILS
 62
     0
370
     9
100
AcDbLine
 10
35.27310899367058
 20
29.25
 30
0.0
 11
35.24217169703125
 21
29.25
 31
0.0
  0
ENDBLK
  5
28D
330
28B
100
AcDbEntity
  8
0
100
AcDbBlockEnd
  0
BLOCK
  5
291
330
290
100
AcDbEntity
  8
0
100
AcDbBlockBegin
  2
HATCH_75_2bb704e2-8a32-4e99-a2f2-e0b143f2f2f7
 70
     0
 10
0.0
 20
0.0
 30
0.0
  3
HATCH_75_2bb704e2-8a32-4e99-a2f2-e0b143f2f2f7
  1

  0
LINE
  5
293
330
290
100
AcDbEntity
  8
DETAILS
 62
     0
370
     9
100
AcDbLine
 10
35.2808803787494
 20
29.25
 30
0.0
 11
35.27310899367058
 21
29.25
 31
0.0
  0
LINE
  5
294
330
290
100
AcDbEntity
  8
DETAILS
 62
     0
370
     9
100
AcDbLine
 10
35.30404629030991
 20
29.0
 30
0.0
 11
35.27310899367058
 21
29.0
 31
0.0
  0
ENDBLK
  5
292
330
290
100
AcDbEntity
  8
0
100
AcDbBlockEnd
  0
BLOCK
  5
296
330
295
100
AcDbEntity
  8
0
100
AcDbBlockBegin
  2
HATCH_76_f8980270-8fd9-448d-9f03-bf2dacb3a7b8
 70
     0
 10
0.0
 20
0.0
 30
0.0
  3
HATCH_76_f8980270-8fd9-448d-9f03-bf2dacb3a7b8
  1

  0
LINE
  5
298
330
295
100
AcDbEntity
  8
DETAILS
 62
     0
370
     9
100
AcDbLine
 10
35.3125
 20
29.0
 30
0.0
 11
35.30404629030991
 21
29.0
 31
0.0
  0
LINE
  5
299
330
295
100
AcDbEntity
  8
DETAILS
 62
     0
370
     9
100
AcDbLine
 10
35.3125
 20
29.25
 30
0.0
 11
35.2808803787494
 21
29.25
 31
0.0
  0
ENDBLK
  5
297
330
295
100
AcDbEntity
  8
0
100
AcDbBlockEnd
  0
BLOCK
  5
29B
330
29A
100
AcDbEntity
  8
0
100
AcDbBlockBegin
  2
HATCH_77_9218871e-e6a1-47ef-ab10-31505be93a23
 70
     0
 10
0.0
 20
0.0
 30
0.0
  3
HATCH_77_9218871e-e6a1-47ef-ab10-31505be93a23
  1

  0
LINE
  5
29D
330
29A
100
AcDbEntity
  8
DETAILS
 62
     0
370
     9
100
AcDbLine
 10
35.32095370969009
 20
29.25
 30
0.0
 11
35.3125
 21
29.25
 31
0.0
  0
LINE
  5
29E
330
29A
100
AcDbEntity
  8
DETAILS
 62
     0
370
     9
100
AcDbLine
 10
35.3441196212506
 20
29.0
 30
0.0
 11
35.3125
 21
29.0
 31
0.0
  0
ENDBLK
  5
29C
330
29A
100
AcDbEntity
  8
0
100
AcDbBlockEnd
  0
BLOCK
  5
2A0
330
29F
100
AcDbEntity
  8
0
100
AcDbBlockBegin
  2
HATCH_78_e4857cb0-99f8-4213-b954-206fc8e825f3
 70
     0
 10
0.0
 20
0.0
 30
0.0
  3
HATCH_78_e4857cb0-99f8-4213-b954-206fc8e825f3
  1

  0
LINE
  5
2A2
330
29F
100
AcDbEntity
  8
DETAILS
 62
     0
370
     9
100
AcDbLine
 10
35.35257333094069
 20
29.0
 30
0.0
 11
35.3441196212506
 21
29.0
 31
0.0
  0
LINE
  5
2A3
330
29F
100
AcDbEntity
  8
DETAILS
 62
     0
370
     9
100
AcDbLine
 10
35.35257333094069
 20
29.25
 30
0.0
 11
35.32095370969009
 21
29.25
 31
0.0
  0
ENDBLK
  5
2A1
330
29F
100
AcDbEntity
  8
0
100
AcDbBlockEnd
  0
BLOCK
  5
2A5
330
2A4
100
AcDbEntity
  8
0
100
AcDbBlockBegin
  2
HATCH_79_cf4f8da1-ab2b-41f9-95a8-380503d6c506
 70
     0
 10
0.0
 20
0.0
 30
0.0
  3
HATCH_79_cf4f8da1-ab2b-41f9-95a8-380503d6c506
  1

  0
LINE
  5
2A7
330
2A4
100
AcDbEntity
  8
DETAILS
 62
     0
370
     9
100
AcDbLine
 10
35.36102704063077
 20
29.25
 30
0.0
 11
35.35257333094069
 21
29.25
 31
0.0
  0
LINE
  5
2A8
330
2A4
100
AcDbEntity
  8
DETAILS
 62
     0
370
     9
100
AcDbLine
 10
35.38419295219128
 20
29.0
 30
0.0
 11
35.35257333094069
 21
29.0
 31
0.0
  0
ENDBLK
  5
2A6
330
2A4
100
AcDbEntity
  8
0
100
AcDbBlockEnd
  0
BLOCK
  5
2AA
330
2A9
100
AcDbEntity
  8
0
100
AcDbBlockBegin
  2
HATCH_80_89aed6c9-53cc-4e14-9edd-5855cb8a5c36
 70
     0
 10
0.0
 20
0.0
 30
0.0
  3
HATCH_80_89aed6c9-53cc-4e14-9edd-5855cb8a5c36
  1

  0
LINE
  5
2AC
330
2A9
100
AcDbEntity
  8
DETAILS
 62
     0
370
     9
100
AcDbLine
 10
35.39196433727011
 20
29.0
 30
0.0
 11
35.38419295219128
 21
29.0
 31
0.0
  0
LINE
  5
2AD
330
2A9
100
AcDbEntity
  8
DETAILS
 62
     0
370
     9
100
AcDbLine
 10
35.39196433727011
 20
29.25
 30
0.0
 11
35.36102704063077
 21
29.25
 31
0.0
  0
ENDBLK
  5
2AB
330
2A9
100
AcDbEntity
  8
0
100
AcDbBlockEnd
  0
BLOCK
  5
2AF
330
2AE
100
AcDbEntity
  8
0
100
AcDbBlockBegin
  2
HATCH_81_9dbf4994-31aa-4e7b-99c4-afd0ed7786b6
 70
     0
 10
0.0
 20
0.0
 30
0.0
  3
HATCH_81_9dbf4994-31aa-4e7b-99c4-afd0ed7786b6
  1

  0
LINE
  5
2B1
330
2AE
100
AcDbEntity
  8
DETAILS
 62
     0
370
     9
100
AcDbLine
 10
35.39973572234894
 20
29.25
 30
0.0
 11
35.39196433727011
 21
29.25
 31
0.0
  0
LINE
  5
2B2
330
2AE
100
AcDbEntity
  8
DETAILS
 62
     0
370
     9
100
AcDbLine
 10
35.42290163390944
 20
29.0
 30
0.0
 11
35.39196433727011
 21
29.0
 31
0.0
  0
ENDBLK
  5
2B0
330
2AE
100
AcDbEntity
  8
0
100
AcDbBlockEnd
  0
BLOCK
  5
2B4
330
2B3
100
AcDbEntity
  8
0
100
AcDbBlockBegin
  2
HATCH_82_51ea89fd-31e0-4380-ae8d-b006a419f61d
 70
     0
 10
0.0
 20
0.0
 30
0.0
  3
HATCH_82_51ea89fd-31e0-4380-ae8d-b006a419f61d
  1

  0
LINE
  5
2B6
330
2B3
100
AcDbEntity
  8
DETAILS
 62
     0
370
     9
100
AcDbLine
 10
35.42933160551203
 20
29.0
 30
0.0
 11
35.42290163390944
 21
29.0
 31
0.0
  0
LINE
  5
2B7
330
2B3
100
AcDbEntity
  8
DETAILS
 62
     0
370
     9
100
AcDbLine
 10
35.42933160551203
 20
29.25
 30
0.0
 11
35.39973572234894
 21
29.25
 31
0.0
  0
ENDBLK
  5
2B5
330
2B3
100
AcDbEntity
  8
0
100
AcDbBlockEnd
  0
BLOCK
  5
2B9
330
2B8
100
AcDbEntity
  8
0
100
AcDbBlockBegin
  2
HATCH_83_3563fc0b-4699-4d87-8d51-84c47f434f41
 70
     0
 10
0.0
 20
0.0
 30
0.0
  3
HATCH_83_3563fc0b-4699-4d87-8d51-84c47f434f41
  1

  0
LINE
  5
2BB
330
2B8
100
AcDbEntity
  8
DETAILS
 62
     0
370
     9
100
AcDbLine
 10
35.43576157711461
 20
29.25
 30
0.0
 11
35.42933160551203
 21
29.25
 31
0.0
  0
LINE
  5
2BC
330
2B8
100
AcDbEntity
  8
DETAILS
 62
     0
370
     9
100
AcDbLine
 10
35.45892748867512
 20
29.0
 30
0.0
 11
35.42933160551203
 21
29.0
 31
0.0
  0
ENDBLK
  5
2BA
330
2B8
100
AcDbEntity
  8
0
100
AcDbBlockEnd
  0
BLOCK
  5
2BE
330
2BD
100
AcDbEntity
  8
0
100
AcDbBlockBegin
  2
HATCH_84_69f1073a-e0f4-4560-8bc2-af2538fd1beb
 70
     0
 10
0.0
 20
0.0
 30
0.0
  3
HATCH_84_69f1073a-e0f4-4560-8bc2-af2538fd1beb
  1

  0
LINE
  5
2C0
330
2BD
100
AcDbEntity
  8
DETAILS
 62
     0
370
     9
100
AcDbLine
 10
35.46340263816356
 20
29.0
 30
0.0
 11
35.45892748867512
 21
29.0
 31
0.0
  0
LINE
  5
2C1
330
2BD
100
AcDbEntity
  8
DETAILS
 62
     0
370
     9
100
AcDbLine
 10
35.46340263816356
 20
29.25
 30
0.0
 11
35.43576157711461
 21
29.25
 31
0.0
  0
ENDBLK
  5
2BF
330
2BD
100
AcDbEntity
  8
0
100
AcDbBlockEnd
  0
BLOCK
  5
2C3
330
2C2
100
AcDbEntity
  8
0
100
AcDbBlockBegin
  2
HATCH_85_695aaf7f-bace-4a4c-9738-9104f8d33eab
 70
     0
 10
0.0
 20
0.0
 30
0.0
  3
HATCH_85_695aaf7f-bace-4a4c-9738-9104f8d33eab
  1

  0
LINE
  5
2C5
330
2C2
100
AcDbEntity
  8
DETAILS
 62
     0
370
     9
100
AcDbLine
 10
35.467877787652
 20
29.25
 30
0.0
 11
35.46340263816356
 21
29.25
 31
0.0
  0
LINE
  5
2C6
330
2C2
100
AcDbEntity
  8
DETAILS
 62
     0
370
     9
100
AcDbLine
 10
35.49104369921251
 20
29.0
 30
0.0
 11
35.46340263816356
 21
29.0
 31
0.0
  0
ENDBLK
  5
2C4
330
2C2
100
AcDbEntity
  8
0
100
AcDbBlockEnd
  0
BLOCK
  5
2C8
330
2C7
100
AcDbEntity
  8
0
100
AcDbBlockBegin
  2
HATCH_86_2e66f997-7437-4a3e-b3a9-12fcc693da69
 70
     0
 10
0.0
 20
0.0
 30
0.0
  3
HATCH_86_2e66f997-7437-4a3e-b3a9-12fcc693da69
  1

  0
LINE
  5
2CA
330
2C7
100
AcDbEntity
  8
DETAILS
 62
     0
370
     9
100
AcDbLine
 10
35.49301718707146
 20
29.0
 30
0.0
 11
35.49104369921251
 21
29.0
 31
0.0
  0
LINE
  5
2CB
330
2C7
100
AcDbEntity
  8
DETAILS
 62
     0
370
     9
100
AcDbLine
 10
35.49301718707146
 20
29.25
 30
0.0
 11
35.467877787652
 21
29.25
 31
0.0
  0
ENDBLK
  5
2C9
330
2C7
100
AcDbEntity
  8
0
100
AcDbBlockEnd
  0
BLOCK
  5
2CD
330
2CC
100
AcDbEntity
  8
0
100
AcDbBlockBegin
  2
HATCH_87_bdedea60-aaf8-40a7-ac0b-dcef0294a9f9
 70
     0
 10
0.0
 20
0.0
 30
0.0
  3
HATCH_87_bdedea60-aaf8-40a7-ac0b-dcef0294a9f9
  1

  0
LINE
  5
2CF
330
2CC
100
AcDbEntity
  8
DETAILS
 62
     0
370
     9
100
AcDbLine
 10
35.50910018092026
 20
29.0
 30
0.0
 11
35.49301718707146
 21
29.0
 31
0.0
  0
LINE
  5
2D0
330
2CC
100
AcDbEntity
  8
DETAILS
 62
     0
370
     9
100
AcDbLine
 10
35.49499067493041
 20
29.25
 30
0.0
 11
35.49301718707146
 21
29.25
 31
0.0
  0
ENDBLK
  5
2CE
330
2CC
100
AcDbEntity
  8
0
100
AcDbBlockEnd
  0
BLOCK
  5
2D2
330
2D1
100
AcDbEntity
  8
0
100
AcDbBlockBegin
  2
HATCH_88_11540f9c-0423-4675-846d-cd999addc27e
 70
     0
 10
0.0
 20
0.0
 30
0.0
  3
HATCH_88_11540f9c-0423-4675-846d-cd999addc27e
  1

  0
LINE
  5
2D4
330
2D1
100
AcDbEntity
  8
DETAILS
 62
     0
370
     9
100
AcDbLine
 10
35.50910018092026
 20
29.25
 30
0.0
 11
35.49499067493041
 21
29.25
 31
0.0
  0
ENDBLK
  5
2D3
330
2D1
100
AcDbEntity
  8
0
100
AcDbBlockEnd
  0
BLOCK
  5
2D6
330
2D5
100
AcDbEntity
  8
0
100
AcDbBlockBegin
  2
HATCH_89_379d4989-8c64-42ad-bde2-1bf3add2a1c1
 70
     0
 10
0.0
 20
0.0
 30
0.0
  3
HATCH_89_379d4989-8c64-42ad-bde2-1bf3add2a1c1
  1

  0
ENDBLK
  5
2D7
330
2D5
100
AcDbEntity
  8
0
100
AcDbBlockEnd
  0
BLOCK
  5
2D9
330
2D8
100
AcDbEntity
  8
0
100
AcDbBlockBegin
  2
HATCH_90_53300fb0-1592-43f8-b204-75ada581a7f4
 70
     0
 10
0.0
 20
0.0
 30
0.0
  3
HATCH_90_53300fb0-1592-43f8-b204-75ada581a7f4
  1

  0
ENDBLK
  5
2DA
330
2D8
100
AcDbEntity
  8
0
100
AcDbBlockEnd
  0
BLOCK
  5
2DC
330
2DB
100
AcDbEntity
  8
0
100
AcDbBlockBegin
  2
HATCH_91_0ba6774c-d5ac-4559-8a4b-59426edf56d6
 70
     0
 10
0.0
 20
0.0
 30
0.0
  3
HATCH_91_0ba6774c-d5ac-4559-8a4b-59426edf56d6
  1

  0
ENDBLK
  5
2DD
330
2DB
100
AcDbEntity
  8
0
100
AcDbBlockEnd
  0
BLOCK
  5
2DF
330
2DE
100
AcDbEntity
  8
0
100
AcDbBlockBegin
  2
HATCH_92_bc46cd0d-45c6-4d40-955d-11404aafa19d
 70
     0
 10
0.0
 20
0.0
 30
0.0
  3
HATCH_92_bc46cd0d-45c6-4d40-955d-11404aafa19d
  1

  0
ENDBLK
  5
2E0
330
2DE
100
AcDbEntity
  8
0
100
AcDbBlockEnd
  0
BLOCK
  5
2E2
330
2E1
100
AcDbEntity
  8
0
100
AcDbBlockBegin
  2
HATCH_93_f3dc577b-6f93-41ff-ba1f-ea3ec6dfe0ab
 70
     0
 10
0.0
 20
0.0
 30
0.0
  3
HATCH_93_f3dc577b-6f93-41ff-ba1f-ea3ec6dfe0ab
  1

  0
ENDBLK
  5
2E3
330
2E1
100
AcDbEntity
  8
0
100
AcDbBlockEnd
  0
BLOCK
  5
2E5
330
2E4
100
AcDbEntity
  8
0
100
AcDbBlockBegin
  2
HATCH_94_00b2efcd-29ef-4393-9912-380441c50cb3
 70
     0
 10
0.0
 20
0.0
 30
0.0
  3
HATCH_94_00b2efcd-29ef-4393-9912-380441c50cb3
  1

  0
ENDBLK
  5
2E6
330
2E4
100
AcDbEntity
  8
0
100
AcDbBlockEnd
  0
BLOCK
  5
2E8
330
2E7
100
AcDbEntity
  8
0
100
AcDbBlockBegin
  2
HATCH_95_4b69dedd-7938-4af0-9acf-94c570152b24
 70
     0
 10
0.0
 20
0.0
 30
0.0
  3
HATCH_95_4b69dedd-7938-4af0-9acf-94c570152b24
  1

  0
ENDBLK
  5
2E9
330
2E7
100
AcDbEntity
  8
0
100
AcDbBlockEnd
  0
BLOCK
  5
2EB
330
2EA
100
AcDbEntity
  8
0
100
AcDbBlockBegin
  2
HATCH_96_295f2f2b-2779-4750-91ea-b7f4c2a7804d
 70
     0
 10
0.0
 20
0.0
 30
0.0
  3
HATCH_96_295f2f2b-2779-4750-91ea-b7f4c2a7804d
  1

  0
LINE
  5
2ED
330
2EA
100
AcDbEntity
  8
DETAILS
 62
     0
370
     9
100
AcDbLine
 10
23.54211316559281
 20
23.5
 30
0.0
 11
23.53179810714472
 21
23.5
 31
0.0
  0
ENDBLK
  5
2EC
330
2EA
100
AcDbEntity
  8
0
100
AcDbBlockEnd
  0
BLOCK
  5
2EF
330
2EE
100
AcDbEntity
  8
0
100
AcDbBlockBegin
  2
HATCH_97_8ad8a228-4999-499b-b67a-1af0a5ebe763
 70
     0
 10
0.0
 20
0.0
 30
0.0
  3
HATCH_97_8ad8a228-4999-499b-b67a-1af0a5ebe763
  1

  0
LINE
  5
2F1
330
2EE
100
AcDbEntity
  8
DETAILS
 62
     0
370
     9
100
AcDbLine
 10
23.54547256284226
 20
23.5
 30
0.0
 11
23.54211316559281
 21
23.5
 31
0.0
  0
ENDBLK
  5
2F0
330
2EE
100
AcDbEntity
  8
0
100
AcDbBlockEnd
  0
BLOCK
  5
2F3
330
2F2
100
AcDbEntity
  8
0
100
AcDbBlockBegin
  2
HATCH_98_4faec769-ea9c-49fb-bc66-9dc9d4f2ffc7
 70
     0
 10
0.0
 20
0.0
 30
0.0
  3
HATCH_98_4faec769-ea9c-49fb-bc66-9dc9d4f2ffc7
  1

  0
LINE
  5
2F5
330
2F2
100
AcDbEntity
  8
DETAILS
 62
     0
370
     9
100
AcDbLine
 10
23.5599753862368
 20
23.5
 30
0.0
 11
23.54547256284226
 21
23.5
 31
0.0
  0
ENDBLK
  5
2F4
330
2F2
100
AcDbEntity
  8
0
100
AcDbBlockEnd
  0
BLOCK
  5
2F7
330
2F6
100
AcDbEntity
  8
0
100
AcDbBlockBegin
  2
HATCH_99_6a807723-0adf-491a-960e-c69f0fba8ad8
 70
     0
 10
0.0
 20
0.0
 30
0.0
  3
HATCH_99_6a807723-0adf-491a-960e-c69f0fba8ad8
  1

  0
LINE
  5
2F9
330
2F6
100
AcDbEntity
  8
DETAILS
 62
     0
370
     9
100
AcDbLine
 10
23.56665883000374
 20
23.5
 30
0.0
 11
23.5599753862368
 21
23.5
 31
0.0
  0
ENDBLK
  5
2F8
330
2F6
100
AcDbEntity
  8
0
100
AcDbBlockEnd
  0
BLOCK
  5
2FB
330
2FA
100
AcDbEntity
  8
0
100
AcDbBlockBegin
  2
HATCH_100_140c9563-cd0e-43f7-a5c9-3c8a04cc6973
 70
     0
 10
0.0
 20
0.0
 30
0.0
  3
HATCH_100_140c9563-cd0e-43f7-a5c9-3c8a04cc6973
  1

  0
LINE
  5
2FD
330
2FA
100
AcDbEntity
  8
DETAILS
 62
     0
370
     9
100
AcDbLine
 10
23.58412496345674
 20
23.5
 30
0.0
 11
23.56665883000374
 21
23.5
 31
0.0
  0
ENDBLK
  5
2FC
330
2FA
100
AcDbEntity
  8
0
100
AcDbBlockEnd
  0
BLOCK
  5
2FF
330
2FE
100
AcDbEntity
  8
0
100
AcDbBlockBegin
  2
HATCH_101_9b90fa6d-8b5c-4aa7-b8ad-d2c30f7238ab
 70
     0
 10
0.0
 20
0.0
 30
0.0
  3
HATCH_101_9b90fa6d-8b5c-4aa7-b8ad-d2c30f7238ab
  1

  0
LINE
  5
301
330
2FE
100
AcDbEntity
  8
DETAILS
 62
     0
370
     9
100
AcDbLine
 10
23.59377171728215
 20
23.5
 30
0.0
 11
23.58412496345674
 21
23.5
 31
0.0
  0
ENDBLK
  5
300
330
2FE
100
AcDbEntity
  8
0
100
AcDbBlockEnd
  0
BLOCK
  5
303
330
302
100
AcDbEntity
  8
0
100
AcDbBlockBegin
  2
HATCH_102_687ead84-0e01-4ab1-8b9a-881113552716
 70
     0
 10
0.0
 20
0.0
 30
0.0
  3
HATCH_102_687ead84-0e01-4ab1-8b9a-881113552716
  1

  0
LINE
  5
305
330
302
100
AcDbEntity
  8
DETAILS
 62
     0
370
     9
100
AcDbLine
 10
23.61373951236464
 20
23.5
 30
0.0
 11
23.59377171728215
 21
23.5
 31
0.0
  0
ENDBLK
  5
304
330
302
100
AcDbEntity
  8
0
100
AcDbBlockEnd
  0
BLOCK
  5
307
330
306
100
AcDbEntity
  8
0
100
AcDbBlockBegin
  2
HATCH_103_9f6b0850-6169-4f2f-82da-f21f48028529
 70
     0
 10
0.0
 20
0.0
 30
0.0
  3
HATCH_103_9f6b0850-6169-4f2f-82da-f21f48028529
  1

  0
LINE
  5
309
330
306
100
AcDbEntity
  8
DETAILS
 62
     0
370
     9
100
AcDbLine
 10
23.62588792781954
 20
23.5
 30
0.0
 11
23.61373951236464
 21
23.5
 31
0.0
  0
ENDBLK
  5
308
330
306
100
AcDbEntity
  8
0
100
AcDbBlockEnd
  0
BLOCK
  5
30B
330
30A
100
AcDbEntity
  8
0
100
AcDbBlockBegin
  2
HATCH_104_880acef1-a137-415c-abc9-df6e85791cd0
 70
     0
 10
0.0
 20
0.0
 30
0.0
  3
HATCH_104_880acef1-a137-415c-abc9-df6e85791cd0
  1

  0
LINE
  5
30D
330
30A
100
AcDbEntity
  8
DETAILS
 62
     0
370
     9
100
AcDbLine
 10
23.64781054501617
 20
23.5
 30
0.0
 11
23.62588792781954
 21
23.5
 31
0.0
  0
ENDBLK
  5
30C
330
30A
100
AcDbEntity
  8
0
100
AcDbBlockEnd
  0
BLOCK
  5
30F
330
30E
100
AcDbEntity
  8
0
100
AcDbBlockBegin
  2
HATCH_105_b9a4bc57-20ea-429d-8979-d1f16e87447e
 70
     0
 10
0.0
 20
0.0
 30
0.0
  3
HATCH_105_b9a4bc57-20ea-429d-8979-d1f16e87447e
  1

  0
LINE
  5
311
330
30E
100
AcDbEntity
  8
DETAILS
 62
     0
370
     9
100
AcDbLine
 10
23.66191378258521
 20
23.5
 30
0.0
 11
23.64781054501617
 21
23.5
 31
0.0
  0
LINE
  5
312
330
30E
100
AcDbEntity
  8
DETAILS
 62
     0
370
     9
100
AcDbLine
 10
23.68507969414572
 20
23.25
 30
0.0
 11
23.6824445447645
 21
23.25
 31
0.0
  0
ENDBLK
  5
310
330
30E
100
AcDbEntity
  8
0
100
AcDbBlockEnd
  0
BLOCK
  5
314
330
313
100
AcDbEntity
  8
0
100
AcDbBlockBegin
  2
HATCH_106_df2e185b-8d85-48ca-a692-bc4bd57bc02f
 70
     0
 10
0.0
 20
0.0
 30
0.0
  3
HATCH_106_df2e185b-8d85-48ca-a692-bc4bd57bc02f
  1

  0
LINE
  5
316
330
313
100
AcDbEntity
  8
DETAILS
 62
     0
370
     9
100
AcDbLine
 10
23.68517781325809
 20
23.25
 30
0.0
 11
23.68507969414572
 21
23.25
 31
0.0
  0
LINE
  5
317
330
313
100
AcDbEntity
  8
DETAILS
 62
     0
370
     9
100
AcDbLine
 10
23.68517781325809
 20
23.5
 30
0.0
 11
23.66191378258521
 21
23.5
 31
0.0
  0
ENDBLK
  5
315
330
313
100
AcDbEntity
  8
0
100
AcDbBlockEnd
  0
BLOCK
  5
319
330
318
100
AcDbEntity
  8
0
100
AcDbBlockBegin
  2
HATCH_107_e56c9748-0709-4dfd-93ca-b901242b8849
 70
     0
 10
0.0
 20
0.0
 30
0.0
  3
HATCH_107_e56c9748-0709-4dfd-93ca-b901242b8849
  1

  0
LINE
  5
31B
330
318
100
AcDbEntity
  8
DETAILS
 62
     0
370
     9
100
AcDbLine
 10
23.70062246430338
 20
23.5
 30
0.0
 11
23.68517781325809
 21
23.5
 31
0.0
  0
LINE
  5
31C
330
318
100
AcDbEntity
  8
DETAILS
 62
     0
370
     9
100
AcDbLine
 10
23.72378837586388
 20
23.25
 30
0.0
 11
23.68517781325809
 21
23.25
 31
0.0
  0
ENDBLK
  5
31A
330
318
100
AcDbEntity
  8
0
100
AcDbBlockEnd
  0
BLOCK
  5
31E
330
31D
100
AcDbEntity
  8
0
100
AcDbBlockBegin
  2
HATCH_108_9dc060f4-b7b1-4f8b-bdd1-fadc7461aa06
 70
     0
 10
0.0
 20
0.0
 30
0.0
  3
HATCH_108_9dc060f4-b7b1-4f8b-bdd1-fadc7461aa06
  1

  0
LINE
  5
320
330
31D
100
AcDbEntity
  8
DETAILS
 62
     0
370
     9
100
AcDbLine
 10
23.72456881958751
 20
23.25
 30
0.0
 11
23.72378837586388
 21
23.25
 31
0.0
  0
LINE
  5
321
330
31D
100
AcDbEntity
  8
DETAILS
 62
     0
370
     9
100
AcDbLine
 10
23.72456881958751
 20
23.5
 30
0.0
 11
23.70062246430338
 21
23.5
 31
0.0
  0
ENDBLK
  5
31F
330
31D
100
AcDbEntity
  8
0
100
AcDbBlockEnd
  0
BLOCK
  5
323
330
322
100
AcDbEntity
  8
0
100
AcDbBlockBegin
  2
HATCH_109_473960c7-6e4b-45af-91c3-ab357991fb3c
 70
     0
 10
0.0
 20
0.0
 30
0.0
  3
HATCH_109_473960c7-6e4b-45af-91c3-ab357991fb3c
  1

  0
LINE
  5
325
330
322
100
AcDbEntity
  8
DETAILS
 62
     0
370
     9
100
AcDbLine
 10
23.74069579524406
 20
23.5
 30
0.0
 11
23.72456881958751
 21
23.5
 31
0.0
  0
LINE
  5
326
330
322
100
AcDbEntity
  8
DETAILS
 62
     0
370
     9
100
AcDbLine
 10
23.76386170680457
 20
23.25
 30
0.0
 11
23.72456881958751
 21
23.25
 31
0.0
  0
ENDBLK
  5
324
330
322
100
AcDbEntity
  8
0
100
AcDbBlockEnd
  0
BLOCK
  5
328
330
327
100
AcDbEntity
  8
0
100
AcDbBlockBegin
  2
HATCH_110_26200a72-0eee-42ce-8d68-ce269b951a79
 70
     0
 10
0.0
 20
0.0
 30
0.0
  3
HATCH_110_26200a72-0eee-42ce-8d68-ce269b951a79
  1

  0
LINE
  5
32A
330
327
100
AcDbEntity
  8
DETAILS
 62
     0
370
     9
100
AcDbLine
 10
23.7646421505282
 20
23.25
 30
0.0
 11
23.76386170680457
 21
23.25
 31
0.0
  0
LINE
  5
32B
330
327
100
AcDbEntity
  8
DETAILS
 62
     0
370
     9
100
AcDbLine
 10
23.7646421505282
 20
23.5
 30
0.0
 11
23.74069579524406
 21
23.5
 31
0.0
  0
ENDBLK
  5
329
330
327
100
AcDbEntity
  8
0
100
AcDbBlockEnd
  0
BLOCK
  5
32D
330
32C
100
AcDbEntity
  8
0
100
AcDbBlockBegin
  2
HATCH_111_ea24ddcf-da69-48b1-89fb-1be51f8ef6a7
 70
     0
 10
0.0
 20
0.0
 30
0.0
  3
HATCH_111_ea24ddcf-da69-48b1-89fb-1be51f8ef6a7
  1

  0
LINE
  5
32F
330
32C
100
AcDbEntity
  8
DETAILS
 62
     0
370
     9
100
AcDbLine
 10
23.78076912618474
 20
23.5
 30
0.0
 11
23.7646421505282
 21
23.5
 31
0.0
  0
LINE
  5
330
330
32C
100
AcDbEntity
  8
DETAILS
 62
     0
370
     9
100
AcDbLine
 10
23.80393503774525
 20
23.25
 30
0.0
 11
23.7646421505282
 21
23.25
 31
0.0
  0
ENDBLK
  5
32E
330
32C
100
AcDbEntity
  8
0
100
AcDbBlockEnd
  0
BLOCK
  5
332
330
331
100
AcDbEntity
  8
0
100
AcDbBlockBegin
  2
HATCH_112_a1a578cc-d9e1-48be-9267-f31ccc1203f5
 70
     0
 10
0.0
 20
0.0
 30
0.0
  3
HATCH_112_a1a578cc-d9e1-48be-9267-f31ccc1203f5
  1

  0
LINE
  5
334
330
331
100
AcDbEntity
  8
DETAILS
 62
     0
370
     9
100
AcDbLine
 10
23.80403315685762
 20
23.25
 30
0.0
 11
23.80393503774525
 21
23.25
 31
0.0
  0
LINE
  5
335
330
331
100
AcDbEntity
  8
DETAILS
 62
     0
370
     9
100
AcDbLine
 10
23.80403315685762
 20
23.5
 30
0.0
 11
23.78076912618474
 21
23.5
 31
0.0
  0
ENDBLK
  5
333
330
331
100
AcDbEntity
  8
0
100
AcDbBlockEnd
  0
BLOCK
  5
337
330
336
100
AcDbEntity
  8
0
100
AcDbBlockBegin
  2
HATCH_113_3f65b772-8a51-4fad-8252-e74444d5d29b
 70
     0
 10
0.0
 20
0.0
 30
0.0
  3
HATCH_113_3f65b772-8a51-4fad-8252-e74444d5d29b
  1

  0
LINE
  5
339
330
336
100
AcDbEntity
  8
DETAILS
 62
     0
370
     9
100
AcDbLine
 10
23.80676642535121
 20
23.25
 30
0.0
 11
23.80403315685762
 21
23.25
 31
0.0
  0
LINE
  5
33A
330
336
100
AcDbEntity
  8
DETAILS
 62
     0
370
     9
100
AcDbLine
 10
23.8194778079029
 20
23.5
 30
0.0
 11
23.80403315685762
 21
23.5
 31
0.0
  0
ENDBLK
  5
338
330
336
100
AcDbEntity
  8
0
100
AcDbBlockEnd
  0
BLOCK
  5
33C
330
33B
100
AcDbEntity
  8
0
100
AcDbBlockBegin
  2
HATCH_114_ea43e1c6-d9c5-4fc2-b256-45d43132699a
 70
     0
 10
0.0
 20
0.0
 30
0.0
  3
HATCH_114_ea43e1c6-d9c5-4fc2-b256-45d43132699a
  1

  0
LINE
  5
33E
330
33B
100
AcDbEntity
  8
DETAILS
 62
     0
370
     9
100
AcDbLine
 10
23.84140042509954
 20
23.5
 30
0.0
 11
23.8194778079029
 21
23.5
 31
0.0
  0
ENDBLK
  5
33D
330
33B
100
AcDbEntity
  8
0
100
AcDbBlockEnd
  0
BLOCK
  5
340
330
33F
100
AcDbEntity
  8
0
100
AcDbBlockBegin
  2
HATCH_115_8010f4c2-c4f7-42dd-be3f-74b28318ab0d
 70
     0
 10
0.0
 20
0.0
 30
0.0
  3
HATCH_115_8010f4c2-c4f7-42dd-be3f-74b28318ab0d
  1

  0
LINE
  5
342
330
33F
100
AcDbEntity
  8
DETAILS
 62
     0
370
     9
100
AcDbLine
 10
23.85550366266858
 20
23.5
 30
0.0
 11
23.84140042509954
 21
23.5
 31
0.0
  0
ENDBLK
  5
341
330
33F
100
AcDbEntity
  8
0
100
AcDbBlockEnd
  0
BLOCK
  5
344
330
343
100
AcDbEntity
  8
0
100
AcDbBlockBegin
  2
HATCH_116_896b27d4-9343-4ee3-b376-95644b2a82d7
 70
     0
 10
0.0
 20
0.0
 30
0.0
  3
HATCH_116_896b27d4-9343-4ee3-b376-95644b2a82d7
  1

  0
LINE
  5
346
330
343
100
AcDbEntity
  8
DETAILS
 62
     0
370
     9
100
AcDbLine
 10
23.87547145775107
 20
23.5
 30
0.0
 11
23.85550366266858
 21
23.5
 31
0.0
  0
ENDBLK
  5
345
330
343
100
AcDbEntity
  8
0
100
AcDbBlockEnd
  0
BLOCK
  5
348
330
347
100
AcDbEntity
  8
0
100
AcDbBlockBegin
  2
HATCH_117_40641e2d-7b49-420b-8702-07f88fb5a366
 70
     0
 10
0.0
 20
0.0
 30
0.0
  3
HATCH_117_40641e2d-7b49-420b-8702-07f88fb5a366
  1

  0
LINE
  5
34A
330
347
100
AcDbEntity
  8
DETAILS
 62
     0
370
     9
100
AcDbLine
 10
23.88761987320597
 20
23.5
 30
0.0
 11
23.87547145775107
 21
23.5
 31
0.0
  0
ENDBLK
  5
349
330
347
100
AcDbEntity
  8
0
100
AcDbBlockEnd
  0
BLOCK
  5
34C
330
34B
100
AcDbEntity
  8
0
100
AcDbBlockBegin
  2
HATCH_118_f80cbd75-d76b-41ad-96fc-14a7e8c41f0a
 70
     0
 10
0.0
 20
0.0
 30
0.0
  3
HATCH_118_f80cbd75-d76b-41ad-96fc-14a7e8c41f0a
  1

  0
LINE
  5
34E
330
34B
100
AcDbEntity
  8
DETAILS
 62
     0
370
     9
100
AcDbLine
 10
23.90508600665897
 20
23.5
 30
0.0
 11
23.88761987320597
 21
23.5
 31
0.0
  0
ENDBLK
  5
34D
330
34B
100
AcDbEntity
  8
0
100
AcDbBlockEnd
  0
BLOCK
  5
350
330
34F
100
AcDbEntity
  8
0
100
AcDbBlockBegin
  2
HATCH_119_2e7c20da-e463-4bde-b6e0-6ca9998012a0
 70
     0
 10
0.0
 20
0.0
 30
0.0
  3
HATCH_119_2e7c20da-e463-4bde-b6e0-6ca9998012a0
  1

  0
LINE
  5
352
330
34F
100
AcDbEntity
  8
DETAILS
 62
     0
370
     9
100
AcDbLine
 10
23.91473276048437
 20
23.5
 30
0.0
 11
23.90508600665897
 21
23.5
 31
0.0
  0
ENDBLK
  5
351
330
34F
100
AcDbEntity
  8
0
100
AcDbBlockEnd
  0
BLOCK
  5
354
330
353
100
AcDbEntity
  8
0
100
AcDbBlockBegin
  2
HATCH_120_fbd83f68-c924-47d9-ae1e-4a857329a75b
 70
     0
 10
0.0
 20
0.0
 30
0.0
  3
HATCH_120_fbd83f68-c924-47d9-ae1e-4a857329a75b
  1

  0
LINE
  5
356
330
353
100
AcDbEntity
  8
DETAILS
 62
     0
370
     9
100
AcDbLine
 10
23.92923558387891
 20
23.5
 30
0.0
 11
23.91473276048437
 21
23.5
 31
0.0
  0
ENDBLK
  5
355
330
353
100
AcDbEntity
  8
0
100
AcDbBlockEnd
  0
BLOCK
  5
358
330
357
100
AcDbEntity
  8
0
100
AcDbBlockBegin
  2
HATCH_121_e9f78dbe-e597-4111-9c11-56eef3ba0698
 70
     0
 10
0.0
 20
0.0
 30
0.0
  3
HATCH_121_e9f78dbe-e597-4111-9c11-56eef3ba0698
  1

  0
LINE
  5
35A
330
357
100
AcDbEntity
  8
DETAILS
 62
     0
370
     9
100
AcDbLine
 10
23.93591902764586
 20
23.5
 30
0.0
 11
23.92923558387891
 21
23.5
 31
0.0
  0
ENDBLK
  5
359
330
357
100
AcDbEntity
  8
0
100
AcDbBlockEnd
  0
BLOCK
  5
35C
330
35B
100
AcDbEntity
  8
0
100
AcDbBlockBegin
  2
HATCH_122_7512231b-7c61-42a4-8b16-ff60e39f2f5c
 70
     0
 10
0.0
 20
0.0
 30
0.0
  3
HATCH_122_7512231b-7c61-42a4-8b16-ff60e39f2f5c
  1

  0
LINE
  5
35E
330
35B
100
AcDbEntity
  8
DETAILS
 62
     0
370
     9
100
AcDbLine
 10
23.9470978045229
 20
23.5
 30
0.0
 11
23.93591902764586
 21
23.5
 31
0.0
  0
ENDBLK
  5
35D
330
35B
100
AcDbEntity
  8
0
100
AcDbBlockEnd
  0
BLOCK
  5
360
330
35F
100
AcDbEntity
  8
0
100
AcDbBlockBegin
  2
HATCH_123_caa8bfc5-4ce7-43e1-aadd-2008f7d5c515
 70
     0
 10
0.0
 20
0.0
 30
0.0
  3
HATCH_123_caa8bfc5-4ce7-43e1-aadd-2008f7d5c515
  1

  0
LINE
  5
362
330
35F
100
AcDbEntity
  8
DETAILS
 62
     0
370
     9
100
AcDbLine
 10
23.95045720177236
 20
23.5
 30
0.0
 11
23.9470978045229
 21
23.5
 31
0.0
  0
ENDBLK
  5
361
330
35F
100
AcDbEntity
  8
0
100
AcDbBlockEnd
  0
BLOCK
  5
364
330
363
100
AcDbEntity
  8
0
100
AcDbBlockBegin
  2
HATCH_124_7ff65752-8d6e-49fa-9a7b-4831c353147c
 70
     0
 10
0.0
 20
0.0
 30
0.0
  3
HATCH_124_7ff65752-8d6e-49fa-9a7b-4831c353147c
  1

  0
LINE
  5
366
330
363
100
AcDbEntity
  8
DETAILS
 62
     0
370
     9
100
AcDbLine
 10
23.95741286297099
 20
23.5
 30
0.0
 11
23.95045720177236
 21
23.5
 31
0.0
  0
ENDBLK
  5
365
330
363
100
AcDbEntity
  8
0
100
AcDbBlockEnd
  0
BLOCK
  5
368
330
367
100
AcDbEntity
  8
0
100
AcDbBlockBegin
  2
HATCH_125_7cc5c943-e8bd-47e5-b4bc-5dff8da27614
 70
     0
 10
0.0
 20
0.0
 30
0.0
  3
HATCH_125_7cc5c943-e8bd-47e5-b4bc-5dff8da27614
  1

  0
ENDBLK
  5
369
330
367
100
AcDbEntity
  8
0
100
AcDbBlockEnd
  0
ENDSEC
  0
SECTION
  2
ENTITIES
  0
LINE
  5
36A
330
1F
100
AcDbEntity
  8
DETAILS
  6
Continuous
 62
     7
370
    25
100
AcDbLine
 10
35.46340263816356
 20
29.29829455422845
 30
0.0
 11
39.98648865326366
 21
37.6237971432106
 31
0.0
  0
LINE
  5
36B
330
1F
100
AcDbEntity
  8
DETAILS
  6
Continuous
 62
     7
370
    25
100
AcDbLine
 10
36.16337261741777
 20
27.97465849727656
 30
0.0
 11
39.98648865326366
 21
37.6237971432106
 31
0.0
  0
LINE
  5
36C
330
1F
100
AcDbEntity
  8
DETAILS
  6
Continuous
 62
     7
370
    25
100
AcDbLine
 10
21.58519510775897
 20
24.32114167087504
 30
0.0
 11
3.947194325520499
 21
32.31776232433749
 31
0.0
  0
LINE
  5
36D
330
1F
100
AcDbEntity
  8
DETAILS
  6
Continuous
 62
     7
370
    25
100
AcDbLine
 10
43.2951101157764
 20
31.55168114870866
 30
0.0
 11
23.18782700376682
 21
40.66781156528214
 31
0.0
  0
LINE
  5
36E
330
1F
100
AcDbEntity
  8
DETAILS
  6
Continuous
 62
     7
370
    25
100
AcDbLine
 10
43.2951101157764
 20
21.64936137196946
 30
0.0
 11
22.37706337551082
 21
31.13457529697825
 31
0.0
  0
LINE
  5
36F
330
1F
100
AcDbEntity
  8
DETAILS
  6
Continuous
 62
     7
370
    25
100
AcDbLine
 10
43.29511011577652
 20
22.8854541574592
 30
0.0
 11
23.74026336187886
 21
31.75290256352218
 31
0.0
  0
LINE
  5
370
330
1F
100
AcDbEntity
  8
DETAILS
  6
Continuous
 62
     7
370
    25
100
AcDbLine
 10
43.29511011577635
 20
24.29105785890714
 30
0.0
 11
23.74026336187886
 21
33.15799345856203
 31
0.0
  0
LINE
  5
371
330
1F
100
AcDbEntity
  8
DETAILS
  6
Continuous
 62
     7
370
    25
100
AcDbLine
 10
39.65008138459883
 20
35.10941162086647
 30
0.0
 11
23.74026336187886
 21
42.32424791235415
 31
0.0
  0
LINE
  5
372
330
1F
100
AcDbEntity
  8
DETAILS
  6
Continuous
 62
     7
370
    25
100
AcDbLine
 10
37.59349958698282
 20
34.63595708014645
 30
0.0
 11
23.74026336187886
 21
40.91828429005045
 31
0.0
  0
LINE
  5
373
330
1F
100
AcDbEntity
  8
DETAILS
  6
Continuous
 62
     7
370
    25
100
AcDbLine
 10
0.0000008767380564
 20
52.76290703978293
 30
0.0
 11
52.80480034869002
 21
52.76290703978293
 31
0.0
  0
LINE
  5
374
330
1F
100
AcDbEntity
  8
DETAILS
  6
Continuous
 62
     7
370
    25
100
AcDbLine
 10
52.80480034869002
 20
-0.0000015234968487
 30
0.0
 11
0.0000008767380564
 21
-0.0000015234968487
 31
0.0
  0
LINE
  5
375
330
1F
100
AcDbEntity
  8
DETAILS
  6
Continuous
 62
     7
370
    25
100
AcDbLine
 10
16.0
 20
21.7877801255185
 30
0.0
 11
29.4928617648776
 21
27.90794181592504
 31
0.0
  0
LINE
  5
376
330
1F
100
AcDbEntity
  8
DETAILS
  6
Continuous
 62
     7
370
    25
100
AcDbLine
 10
16.0
 20
21.7877801255185
 30
0.0
 11
16.0
 21
19.59322505444357
 31
0.0
  0
LINE
  5
377
330
1F
100
AcDbEntity
  8
DETAILS
  6
Continuous
 62
     7
370
    25
100
AcDbLine
 10
23.53169074024077
 20
13.53636790026077
 30
0.0
 11
3.136430697264501
 21
22.78452605603361
 31
0.0
  0
LINE
  5
378
330
1F
100
AcDbEntity
  8
DETAILS
  6
Continuous
 62
     7
370
    25
100
AcDbLine
 10
23.53169074024077
 20
16.17806064069429
 30
0.0
 11
4.499630683632531
 21
24.80794421761738
 31
0.0
  0
CIRCLE
  5
379
330
1F
100
AcDbEntity
  8
DETAILS
  6
Continuous
 62
     7
370
    25
100
AcDbCircle
 10
34.34200860659438
 20
28.58753202968195
 30
0.0
 40
0.2171564075365495
  0
LINE
  5
37A
330
1F
100
AcDbEntity
  8
DETAILS
  6
Continuous
 62
     7
 48
4.0
370
    25
100
AcDbLine
 10
39.98648865326366
 20
37.6237971432106
 30
0.0
 11
34.49556137494158
 21
28.74108479802916
 31
0.0
  0
LINE
  5
37B
330
1F
100
AcDbEntity
  8
DETAILS
  6
Continuous
 62
     7
370
    25
100
AcDbLine
 10
23.53114657802543
 20
23.49771011266799
 30
0.0
 11
12.95497767119026
 21
32.97114831045533
 31
0.0
  0
LWPOLYLINE
  5
37C
330
1F
100
AcDbEntity
  8
DETAILS
  6
Continuous
 62
     7
370
    25
100
AcDbPolyline
 90
        3
 70
     1
 43
0.0
 10
34.12902479853729
 20
28.54516691620778
 10
34.12485219905784
 20
28.58753202968195
 10
34.12902479853729
 20
28.62989714315612
  0
LWPOLYLINE
  5
37D
330
1F
100
AcDbEntity
  8
DETAILS
  6
Continuous
 62
     7
370
    25
100
AcDbPolyline
 90
        3
 70
     1
 43
0.0
 10
34.12902479853729
 20
28.54516691620778
 10
34.12902479853729
 20
28.62989714315612
 10
34.14138224631769
 20
28.5044298702858
  0
LWPOLYLINE
  5
37E
330
1F
100
AcDbEntity
  8
DETAILS
  6
Continuous
 62
     7
370
    25
100
AcDbPolyline
 90
        3
 70
     1
 43
0.0
 10
34.14138224631769
 20
28.5044298702858
 10
34.12902479853729
 20
28.62989714315612
 10
34.14138224631769
 20
28.67063418907811
  0
LINE
  5
37F
330
1F
100
AcDbEntity
  8
DETAILS
  6
Continuous
 62
     7
370
    25
100
AcDbLine
 10
0.0000008767380564
 20
52.76290703978293
 30
0.0
 11
5.107548248897956
 21
52.76290703978293
 31
0.0
  0
LINE
  5
380
330
1F
100
AcDbEntity
  8
DETAILS
  6
Continuous
 62
     7
370
    25
100
AcDbLine
 10
5.107548248897956
 20
48.61352526309474
 30
0.0
 11
0.0000008767380564
 21
48.61352526309474
 31
0.0
  0
LINE
  5
381
330
1F
100
AcDbEntity
  8
DETAILS
  6
Continuous
 62
     7
370
    25
100
AcDbLine
 10
0.0000008767380564
 20
-0.0000015234968487
 30
0.0
 11
0.0000008767380564
 21
52.76290703978293
 31
0.0
  0
LINE
  5
382
330
1F
100
AcDbEntity
  8
DETAILS
  6
Continuous
 62
     7
370
    25
100
AcDbLine
 10
0.0000008767380564
 20
48.61352526309474
 30
0.0
 11
0.0000008767380564
 21
52.76290703978293
 31
0.0
  0
LWPOLYLINE
  5
383
330
1F
100
AcDbEntity
  8
DETAILS
  6
Continuous
 62
     7
370
    25
100
AcDbPolyline
 90
        3
 70
     1
 43
0.0
 10
34.14138224631769
 20
28.5044298702858
 10
34.14138224631769
 20
28.67063418907811
 10
34.16144965261096
 20
28.46688639374518
  0
LWPOLYLINE
  5
384
330
1F
100
AcDbEntity
  8
DETAILS
  6
Continuous
 62
     7
370
    25
100
AcDbPolyline
 90
        3
 70
     1
 43
0.0
 10
34.16144965261096
 20
28.46688639374518
 10
34.14138224631769
 20
28.67063418907811
 10
34.16144965261096
 20
28.70817766561873
  0
LWPOLYLINE
  5
385
330
1F
100
AcDbEntity
  8
DETAILS
  6
Continuous
 62
     7
370
    25
100
AcDbPolyline
 90
        3
 70
     1
 43
0.0
 10
34.16144965261096
 20
28.46688639374518
 10
34.16144965261096
 20
28.70817766561873
 10
34.18845583824719
 20
28.43397926133476
  0
LWPOLYLINE
  5
386
330
1F
100
AcDbEntity
  8
DETAILS
  6
Continuous
 62
     7
370
    25
100
AcDbPolyline
 90
        3
 70
     1
 43
0.0
 10
34.18845583824719
 20
28.43397926133476
 10
34.16144965261096
 20
28.70817766561873
 10
34.18845583824719
 20
28.74108479802915
  0
LWPOLYLINE
  5
387
330
1F
100
AcDbEntity
  8
DETAILS
  6
Continuous
 62
     7
370
    25
100
AcDbPolyline
 90
        3
 70
     1
 43
0.0
 10
34.18845583824719
 20
28.43397926133476
 10
34.18845583824719
 20
28.74108479802915
 10
34.22136297065761
 20
28.40697307569853
  0
LWPOLYLINE
  5
388
330
1F
100
AcDbEntity
  8
DETAILS
  6
Continuous
 62
     7
370
    25
100
AcDbPolyline
 90
        3
 70
     1
 43
0.0
 10
34.22136297065761
 20
28.40697307569853
 10
34.18845583824719
 20
28.74108479802915
 10
34.22136297065761
 20
28.76809098366537
  0
LWPOLYLINE
  5
389
330
1F
100
AcDbEntity
  8
DETAILS
  6
Continuous
 62
     7
370
    25
100
AcDbPolyline
 90
        3
 70
     1
 43
0.0
 10
34.22136297065761
 20
28.40697307569853
 10
34.22136297065761
 20
28.76809098366537
 10
34.25890644719823
 20
28.38690566940526
  0
LWPOLYLINE
  5
38A
330
1F
100
AcDbEntity
  8
DETAILS
  6
Continuous
 62
     7
370
    25
100
AcDbPolyline
 90
        3
 70
     1
 43
0.0
 10
34.25890644719823
 20
28.38690566940526
 10
34.22136297065761
 20
28.76809098366537
 10
34.25890644719823
 20
28.78815838995864
  0
LWPOLYLINE
  5
38B
330
1F
100
AcDbEntity
  8
DETAILS
  6
Continuous
 62
     7
370
    25
100
AcDbPolyline
 90
        3
 70
     1
 43
0.0
 10
34.25890644719823
 20
28.38690566940526
 10
34.25890644719823
 20
28.78815838995864
 10
34.29964349312021
 20
28.37454822162487
  0
LWPOLYLINE
  5
38C
330
1F
100
AcDbEntity
  8
DETAILS
  6
Continuous
 62
     7
370
    25
100
AcDbPolyline
 90
        3
 70
     1
 43
0.0
 10
34.29964349312021
 20
28.37454822162487
 10
34.25890644719823
 20
28.78815838995864
 10
34.29964349312021
 20
28.80051583773904
  0
LWPOLYLINE
  5
38D
330
1F
100
AcDbEntity
  8
DETAILS
  6
Continuous
 62
     7
370
    25
100
AcDbPolyline
 90
        3
 70
     1
 43
0.0
 10
34.29964349312021
 20
28.37454822162487
 10
34.29964349312021
 20
28.80051583773904
 10
34.34200860659438
 20
28.37037562214541
  0
LWPOLYLINE
  5
38E
330
1F
100
AcDbEntity
  8
DETAILS
  6
Continuous
 62
     7
370
    25
100
AcDbPolyline
 90
        3
 70
     1
 43
0.0
 10
34.34200860659438
 20
28.37037562214541
 10
34.29964349312021
 20
28.80051583773904
 10
34.34200860659438
 20
28.80468843721849
  0
LWPOLYLINE
  5
38F
330
1F
100
AcDbEntity
  8
DETAILS
  6
Continuous
 62
     7
370
    25
100
AcDbPolyline
 90
        3
 70
     1
 43
0.0
 10
34.34200860659438
 20
28.37037562214541
 10
34.34200860659438
 20
28.80468843721849
 10
34.38437372006855
 20
28.37454822162487
  0
LWPOLYLINE
  5
390
330
1F
100
AcDbEntity
  8
DETAILS
  6
Continuous
 62
     7
370
    25
100
AcDbPolyline
 90
        3
 70
     1
 43
0.0
 10
34.38437372006855
 20
28.37454822162487
 10
34.34200860659438
 20
28.80468843721849
 10
34.38437372006855
 20
28.80051583773904
  0
LWPOLYLINE
  5
391
330
1F
100
AcDbEntity
  8
DETAILS
  6
Continuous
 62
     7
370
    25
100
AcDbPolyline
 90
        3
 70
     1
 43
0.0
 10
34.38437372006855
 20
28.37454822162487
 10
34.38437372006855
 20
28.80051583773904
 10
34.42511076599054
 20
28.38690566940526
  0
LWPOLYLINE
  5
392
330
1F
100
AcDbEntity
  8
DETAILS
  6
Continuous
 62
     7
370
    25
100
AcDbPolyline
 90
        3
 70
     1
 43
0.0
 10
34.42511076599054
 20
28.38690566940526
 10
34.38437372006855
 20
28.80051583773904
 10
34.42511076599054
 20
28.78815838995864
  0
LWPOLYLINE
  5
393
330
1F
100
AcDbEntity
  8
DETAILS
  6
Continuous
 62
     7
370
    25
100
AcDbPolyline
 90
        3
 70
     1
 43
0.0
 10
34.42511076599054
 20
28.38690566940526
 10
34.42511076599054
 20
28.78815838995864
 10
34.46265424253116
 20
28.40697307569853
  0
LINE
  5
394
330
1F
100
AcDbEntity
  8
DETAILS
  6
Continuous
 62
     7
370
    25
100
AcDbLine
 10
5.107548248897956
 20
52.76290703978293
 30
0.0
 11
5.107548248897956
 21
48.61352526309474
 31
0.0
  0
LINE
  5
395
330
1F
100
AcDbEntity
  8
DETAILS
  6
Continuous
 62
     7
370
    25
100
AcDbLine
 10
23.53169074024077
 20
14.77247064880799
 30
0.0
 11
4.499630683632531
 21
23.40285332257753
 31
0.0
  0
LINE
  5
396
330
1F
100
AcDbEntity
  8
DETAILS
  6
Continuous
 62
     7
370
    25
100
AcDbLine
 10
22.13523921817536
 20
24.57063350969065
 30
0.0
 11
4.499630683632531
 21
32.56823504910579
 31
0.0
  0
LINE
  5
397
330
1F
100
AcDbEntity
  8
DETAILS
  6
Continuous
 62
     7
370
    25
100
AcDbLine
 10
23.68541087119855
 20
25.27376834718542
 30
0.0
 11
4.499630683632531
 21
33.97419867140952
 31
0.0
  0
LINE
  5
398
330
1F
100
AcDbEntity
  8
DETAILS
  6
Continuous
 62
     7
370
    25
100
AcDbLine
 10
3.947194325520499
 20
33.02074413548935
 30
0.0
 11
3.947194325520499
 21
23.85492604533028
 31
0.0
  0
LINE
  5
399
330
1F
100
AcDbEntity
  8
DETAILS
  6
Continuous
 62
     7
370
    25
100
AcDbLine
 10
3.689303419008496
 20
32.90336231848158
 30
0.0
 11
3.689303419008496
 21
23.73798059195332
 31
0.0
  0
LINE
  5
39A
330
1F
100
AcDbEntity
  8
DETAILS
  6
Continuous
 62
     7
370
    25
100
AcDbLine
 10
3.947194325520499
 20
25.9634351151537
 30
0.0
 11
3.947194325520499
 21
27.36896237382571
 31
0.0
  0
LINE
  5
39B
330
1F
100
AcDbEntity
  8
DETAILS
  6
Continuous
 62
     7
370
    25
100
AcDbLine
 10
3.947194325520499
 20
23.85492604532983
 30
0.0
 11
3.689303419008496
 21
23.73798059195332
 31
0.0
  0
LINE
  5
39C
330
1F
100
AcDbEntity
  8
DETAILS
  6
Continuous
 62
     7
370
    25
100
AcDbLine
 10
3.947194325520499
 20
24.55790785648169
 30
0.0
 11
3.947194325520499
 21
25.9634351151537
 31
0.0
  0
LINE
  5
39D
330
1F
100
AcDbEntity
  8
DETAILS
  6
Continuous
 62
     7
370
    25
100
AcDbLine
 10
4.499630683632531
 20
23.40285332257753
 30
0.0
 11
4.499630683632531
 21
24.80794421761738
 31
0.0
  0
LINE
  5
39E
330
1F
100
AcDbEntity
  8
DETAILS
  6
Continuous
 62
     7
370
    25
100
AcDbLine
 10
4.499630683632531
 20
24.80794421761738
 30
0.0
 11
3.947194325520541
 21
24.55790785648169
 31
0.0
  0
LINE
  5
39F
330
1F
100
AcDbEntity
  8
DETAILS
  6
Continuous
 62
     7
370
    25
100
AcDbLine
 10
3.136430697264501
 20
22.78452605603361
 30
0.0
 11
3.136430697264501
 21
24.19005331470561
 31
0.0
  0
LINE
  5
3A0
330
1F
100
AcDbEntity
  8
DETAILS
  6
Continuous
 62
     7
370
    25
100
AcDbLine
 10
3.689303419008496
 20
24.44052603947348
 30
0.0
 11
3.136430697264501
 21
24.19005331470561
 31
0.0
  0
LINE
  5
3A1
330
1F
100
AcDbEntity
  8
DETAILS
  6
Continuous
 62
     7
370
    25
100
AcDbLine
 10
4.499630683632531
 20
23.40285332257753
 30
0.0
 11
3.136430697264501
 21
22.78452605603361
 31
0.0
  0
LINE
  5
3A2
330
1F
100
AcDbEntity
  8
DETAILS
  6
Continuous
 62
     7
370
    25
100
AcDbLine
 10
3.947194325520499
 20
33.02074413548935
 30
0.0
 11
3.689303419008496
 21
32.90336231848158
 31
0.0
  0
LINE
  5
3A3
330
1F
100
AcDbEntity
  8
DETAILS
  6
Continuous
 62
     7
370
    25
100
AcDbLine
 10
4.499630683632531
 20
32.56823504910534
 30
0.0
 11
4.499630683632531
 21
33.97419867140952
 31
0.0
  0
LINE
  5
3A4
330
1F
100
AcDbEntity
  8
DETAILS
  6
Continuous
 62
     7
370
    25
100
AcDbLine
 10
4.499630683632531
 20
32.56823504910534
 30
0.0
 11
3.947194325520499
 21
32.31776232433749
 31
0.0
  0
LINE
  5
3A5
330
1F
100
AcDbEntity
  8
DETAILS
  6
Continuous
 62
     7
370
    25
100
AcDbLine
 10
3.136430697264501
 20
31.95034414619358
 30
0.0
 11
3.136430697264501
 21
33.3563077684973
 31
0.0
  0
LINE
  5
3A6
330
1F
100
AcDbEntity
  8
DETAILS
  6
Continuous
 62
     7
370
    25
100
AcDbLine
 10
3.689303419008496
 20
32.20038050732973
 30
0.0
 11
3.136430697264501
 21
31.95034414619358
 31
0.0
  0
LINE
  5
3A7
330
1F
100
AcDbEntity
  8
DETAILS
  6
Continuous
 62
     7
370
    25
100
AcDbLine
 10
3.689303419008496
 20
31.69943505779356
 30
0.0
 11
3.136430697264501
 21
31.95034414619358
 31
0.0
  0
LINE
  5
3A8
330
1F
100
AcDbEntity
  8
DETAILS
  6
Continuous
 62
     7
370
    25
100
AcDbLine
 10
3.136430697264501
 20
33.3563077684973
 30
0.0
 11
4.499630683632531
 21
33.97419867140952
 31
0.0
  0
LINE
  5
3A9
330
1F
100
AcDbEntity
  8
DETAILS
  6
Continuous
 62
     7
370
    25
100
AcDbLine
 10
31.15256048882171
 20
19.98354170418879
 30
0.0
 11
27.68122871135173
 21
21.5573551839287
 31
0.0
  0
LINE
  5
3AA
330
1F
100
AcDbEntity
  8
DETAILS
  6
Continuous
 62
     7
370
    25
100
AcDbLine
 10
31.15256048882171
 20
10.0807116070393
 30
0.0
 11
23.96590296079342
 21
13.33947591259576
 31
0.0
  0
LINE
  5
3AB
330
1F
100
AcDbEntity
  8
DETAILS
  6
Continuous
 62
     7
370
    25
100
AcDbLine
 10
31.15256048882162
 20
21.88754092596327
 30
0.0
 11
29.7807138115014
 21
22.50965044222226
 31
0.0
  0
LINE
  5
3AC
330
1F
100
AcDbEntity
  8
DETAILS
  6
Continuous
 62
     7
370
    25
100
AcDbLine
 10
31.15256048882173
 20
20.48135344122756
 30
0.0
 11
28.23048571841384
 21
21.80649000435323
 31
0.0
  0
LINE
  5
3AD
330
1F
100
AcDbEntity
  8
DETAILS
  6
Continuous
 62
     7
370
    25
100
AcDbLine
 10
31.15256048882163
 20
11.31666912014607
 30
0.0
 11
23.96590296079342
 21
14.5755703861009
 31
0.0
  0
LINE
  5
3AE
330
1F
100
AcDbEntity
  8
DETAILS
  6
Continuous
 62
     7
370
    25
100
AcDbLine
 10
31.15256048882165
 20
12.72245896176237
 30
0.0
 11
23.96590296079342
 21
15.98117176477091
 31
0.0
  0
LINE
  5
3AF
330
1F
100
AcDbEntity
  8
DETAILS
  6
Continuous
 62
     7
370
    25
100
AcDbLine
 10
32.71624898683444
 20
19.27457651798449
 30
0.0
 11
31.15256048882171
 21
19.98351308586252
 31
0.0
  0
LINE
  5
3B0
330
1F
100
AcDbEntity
  8
DETAILS
  6
Continuous
 62
     7
370
    25
100
AcDbLine
 10
33.26560902695974
 20
10.35803534718134
 30
0.0
 11
31.15256048882173
 21
11.31622996395635
 31
0.0
  0
LINE
  5
3B1
330
1F
100
AcDbEntity
  8
DETAILS
  6
Continuous
 62
     7
370
    25
100
AcDbLine
 10
33.26560902695974
 20
11.76399896948505
 30
0.0
 11
31.15256048882168
 21
12.72213817366373
 31
0.0
  0
LINE
  5
3B2
330
1F
100
AcDbEntity
  8
DETAILS
  6
Continuous
 62
     7
370
    25
100
AcDbLine
 10
33.26560902695974
 20
19.52341707370915
 30
0.0
 11
31.15256048882171
 21
20.48157226226676
 31
0.0
  0
LINE
  5
3B3
330
1F
100
AcDbEntity
  8
DETAILS
  6
Continuous
 62
     7
370
    25
100
AcDbLine
 10
33.26560902695974
 20
20.92938069601332
 30
0.0
 11
31.15256048882182
 21
21.88754092596327
 31
0.0
  0
LINE
  5
3B4
330
1F
100
AcDbEntity
  8
DETAILS
  6
Continuous
 62
     7
370
    25
100
AcDbLine
 10
33.26560902695974
 20
10.35803534718134
 30
0.0
 11
31.90284540422374
 21
9.740144444269117
 31
0.0
  0
LINE
  5
3B5
330
1F
100
AcDbEntity
  8
DETAILS
  6
Continuous
 62
     7
370
    25
100
AcDbLine
 10
31.90284540422374
 20
9.740144444269117
 30
0.0
 11
31.15256048882163
 21
10.08035847169067
 31
0.0
  0
LINE
  5
3B6
330
1F
100
AcDbEntity
  8
DETAILS
  6
Continuous
 62
     7
370
    25
100
AcDbLine
 10
32.71360903247972
 20
19.273380712573
 30
0.0
 11
32.71360903247972
 21
12.01429744861225
 31
0.0
  0
LINE
  5
3B7
330
1F
100
AcDbEntity
  8
DETAILS
  6
Continuous
 62
     7
370
    25
100
AcDbLine
 10
33.26560902695974
 20
19.52341707370915
 30
0.0
 11
33.26560902695974
 21
20.92938069601332
 31
0.0
  0
LINE
  5
3B8
330
1F
100
AcDbEntity
  8
DETAILS
  6
Continuous
 62
     7
370
    25
100
AcDbLine
 10
33.26560902695974
 20
10.35803534718134
 30
0.0
 11
33.26560902695974
 21
11.76399896948505
 31
0.0
  0
LINE
  5
3B9
330
1F
100
AcDbEntity
  8
DETAILS
  6
Continuous
 62
     7
370
    25
100
AcDbLine
 10
33.26560902695974
 20
19.52341707370915
 30
0.0
 11
32.71360903247972
 21
19.273380712573
 31
0.0
  0
LWPOLYLINE
  5
3BA
330
1F
100
AcDbEntity
  8
DETAILS
  6
Continuous
 62
     7
370
    25
100
AcDbPolyline
 90
        3
 70
     1
 43
0.0
 10
34.46265424253116
 20
28.40697307569853
 10
34.42511076599054
 20
28.78815838995864
 10
34.46265424253116
 20
28.76809098366537
  0
LWPOLYLINE
  5
3BB
330
1F
100
AcDbEntity
  8
DETAILS
  6
Continuous
 62
     7
370
    25
100
AcDbPolyline
 90
        3
 70
     1
 43
0.0
 10
34.46265424253116
 20
28.40697307569853
 10
34.46265424253116
 20
28.76809098366537
 10
34.49556137494158
 20
28.43397926133475
  0
LWPOLYLINE
  5
3BC
330
1F
100
AcDbEntity
  8
DETAILS
  6
Continuous
 62
     7
370
    25
100
AcDbPolyline
 90
        3
 70
     1
 43
0.0
 10
34.49556137494158
 20
28.43397926133475
 10
34.46265424253116
 20
28.76809098366537
 10
34.49556137494158
 20
28.74108479802915
  0
LWPOLYLINE
  5
3BD
330
1F
100
AcDbEntity
  8
DETAILS
  6
Continuous
 62
     7
370
    25
100
AcDbPolyline
 90
        3
 70
     1
 43
0.0
 10
34.49556137494158
 20
28.43397926133475
 10
34.49556137494158
 20
28.74108479802915
 10
34.52256756057781
 20
28.46688639374518
  0
LWPOLYLINE
  5
3BE
330
1F
100
AcDbEntity
  8
DETAILS
  6
Continuous
 62
     7
370
    25
100
AcDbPolyline
 90
        3
 70
     1
 43
0.0
 10
34.52256756057781
 20
28.46688639374518
 10
34.49556137494158
 20
28.74108479802915
 10
34.52256756057781
 20
28.70817766561873
  0
LWPOLYLINE
  5
3BF
330
1F
100
AcDbEntity
  8
DETAILS
  6
Continuous
 62
     7
370
    25
100
AcDbPolyline
 90
        3
 70
     1
 43
0.0
 10
34.52256756057781
 20
28.46688639374518
 10
34.52256756057781
 20
28.70817766561873
 10
34.54263496687108
 20
28.5044298702858
  0
LWPOLYLINE
  5
3C0
330
1F
100
AcDbEntity
  8
DETAILS
  6
Continuous
 62
     7
370
    25
100
AcDbPolyline
 90
        3
 70
     1
 43
0.0
 10
34.54263496687108
 20
28.5044298702858
 10
34.52256756057781
 20
28.70817766561873
 10
34.54263496687108
 20
28.67063418907811
  0
LWPOLYLINE
  5
3C1
330
1F
100
AcDbEntity
  8
DETAILS
  6
Continuous
 62
     7
370
    25
100
AcDbPolyline
 90
        3
 70
     1
 43
0.0
 10
34.54263496687108
 20
28.5044298702858
 10
34.54263496687108
 20
28.67063418907811
 10
34.55499241465147
 20
28.54516691620778
  0
LINE
  5
3C2
330
1F
100
AcDbEntity
  8
DETAILS
  6
Continuous
 62
     7
 48
4.0
370
    25
100
AcDbLine
 10
14.9375
 20
14.6875
 30
0.0
 11
18.36564070921002
 21
18.52055063850593
 31
0.0
  0
LINE
  5
3C3
330
1F
100
AcDbEntity
  8
DETAILS
  6
Continuous
 62
     7
370
    25
100
AcDbLine
 10
23.96590296079342
 20
22.50051002536927
 30
0.0
 11
32.69063943132412
 21
26.45792090204714
 31
0.0
  0
LINE
  5
3C4
330
1F
100
AcDbEntity
  8
DETAILS
  6
Continuous
 62
     7
370
    25
100
AcDbLine
 10
23.96590296079342
 20
19.87213860629238
 30
0.0
 11
35.58841216861236
 21
25.14393615669665
 31
0.0
  0
LWPOLYLINE
  5
3C5
330
1F
100
AcDbEntity
  8
DETAILS
  6
Continuous
 62
     7
370
    25
100
AcDbPolyline
 90
        3
 70
     1
 43
0.0
 10
34.55499241465147
 20
28.54516691620778
 10
34.54263496687108
 20
28.67063418907811
 10
34.55499241465147
 20
28.62989714315612
  0
LWPOLYLINE
  5
3C6
330
1F
100
AcDbEntity
  8
DETAILS
  6
Continuous
 62
     7
370
    25
100
AcDbPolyline
 90
        3
 70
     1
 43
0.0
 10
34.55499241465147
 20
28.54516691620778
 10
34.55499241465147
 20
28.62989714315612
 10
34.55916501413093
 20
28.58753202968195
  0
LINE
  5
3C7
330
1F
100
AcDbEntity
  8
DETAILS
  6
Continuous
 62
     7
370
    25
100
AcDbLine
 10
16.7782924876167
 20
19.24031667054038
 30
0.0
 11
23.53169074024077
 21
22.30355781137361
 31
0.0
  0
LINE
  5
3C8
330
1F
100
AcDbEntity
  8
DETAILS
  6
Continuous
 62
     7
370
    25
100
AcDbLine
 10
19.67608812023848
 20
17.92634231017774
 30
0.0
 11
23.53169074024077
 21
19.67518639229656
 31
0.0
  0
LINE
  5
3C9
330
1F
100
AcDbEntity
  8
DETAILS
  6
Continuous
 62
     7
370
    25
100
AcDbLine
 10
23.96590296079342
 20
8.659329591346818
 30
0.0
 11
23.96590296079342
 21
23.43480770572165
 31
0.0
  0
LINE
  5
3CA
330
1F
100
AcDbEntity
  8
DETAILS
  6
Continuous
 62
     7
370
    25
100
AcDbLine
 10
23.53169074024077
 20
8.659329591347667
 30
0.0
 11
23.53169074024077
 21
23.46624470487274
 31
0.0
  0
CIRCLE
  5
3CB
330
1F
100
AcDbEntity
  8
DETAILS
  6
Continuous
 62
     7
370
    25
100
AcDbCircle
 10
36.03250664472456
 20
27.8013639430481
 30
0.0
 40
0.2171564075365495
  0
LWPOLYLINE
  5
3CC
330
1F
100
AcDbEntity
  8
DETAILS
  6
Continuous
 62
     7
370
    25
100
AcDbPolyline
 90
        3
 70
     1
 43
0.0
 10
35.81904773769213
 20
27.76146155787248
 10
35.81535023718801
 20
27.8013639430481
 10
35.81904773769213
 20
27.84126632822372
  0
LWPOLYLINE
  5
3CD
330
1F
100
AcDbEntity
  8
DETAILS
  6
Continuous
 62
     7
370
    25
100
AcDbPolyline
 90
        3
 70
     1
 43
0.0
 10
35.81904773769213
 20
27.76146155787248
 10
35.81904773769213
 20
27.84126632822372
 10
35.83001432525951
 20
27.72291800056638
  0
LWPOLYLINE
  5
3CE
330
1F
100
AcDbEntity
  8
DETAILS
  6
Continuous
 62
     7
370
    25
100
AcDbPolyline
 90
        3
 70
     1
 43
0.0
 10
35.83001432525951
 20
27.72291800056638
 10
35.81904773769213
 20
27.84126632822372
 10
35.83001432525951
 20
27.87980988552982
  0
LWPOLYLINE
  5
3CF
330
1F
100
AcDbEntity
  8
DETAILS
  6
Continuous
 62
     7
370
    25
100
AcDbPolyline
 90
        3
 70
     1
 43
0.0
 10
35.83001432525951
 20
27.72291800056638
 10
35.83001432525951
 20
27.87980988552982
 10
35.8478765459035
 20
27.68704582574596
  0
LWPOLYLINE
  5
3D0
330
1F
100
AcDbEntity
  8
DETAILS
  6
Continuous
 62
     7
370
    25
100
AcDbPolyline
 90
        3
 70
     1
 43
0.0
 10
35.8478765459035
 20
27.68704582574596
 10
35.83001432525951
 20
27.87980988552982
 10
35.8478765459035
 20
27.91568206035025
  0
LWPOLYLINE
  5
3D1
330
1F
100
AcDbEntity
  8
DETAILS
  6
Continuous
 62
     7
370
    25
100
AcDbPolyline
 90
        3
 70
     1
 43
0.0
 10
35.8478765459035
 20
27.68704582574596
 10
35.8478765459035
 20
27.91568206035025
 10
35.87202612312344
 20
27.65506661730079
  0
LWPOLYLINE
  5
3D2
330
1F
100
AcDbEntity
  8
DETAILS
  6
Continuous
 62
     7
370
    25
100
AcDbPolyline
 90
        3
 70
     1
 43
0.0
 10
35.87202612312344
 20
27.65506661730079
 10
35.8478765459035
 20
27.91568206035025
 10
35.87202612312344
 20
27.94766126879541
  0
LWPOLYLINE
  5
3D3
330
1F
100
AcDbEntity
  8
DETAILS
  6
Continuous
 62
     7
370
    25
100
AcDbPolyline
 90
        3
 70
     1
 43
0.0
 10
35.87202612312344
 20
27.65506661730079
 10
35.87202612312344
 20
27.94766126879541
 10
35.90164067203134
 20
27.62806938881965
  0
LWPOLYLINE
  5
3D4
330
1F
100
AcDbEntity
  8
DETAILS
  6
Continuous
 62
     7
370
    25
100
AcDbPolyline
 90
        3
 70
     1
 43
0.0
 10
35.90164067203134
 20
27.62806938881965
 10
35.87202612312344
 20
27.94766126879541
 10
35.90164067203134
 20
27.97465849727656
  0
LWPOLYLINE
  5
3D5
330
1F
100
AcDbEntity
  8
DETAILS
  6
Continuous
 62
     7
370
    25
100
AcDbPolyline
 90
        3
 70
     1
 43
0.0
 10
35.90164067203134
 20
27.62806938881965
 10
35.90164067203134
 20
27.97465849727656
 10
35.93571170468287
 20
27.60697349853884
  0
LWPOLYLINE
  5
3D6
330
1F
100
AcDbEntity
  8
DETAILS
  6
Continuous
 62
     7
370
    25
100
AcDbPolyline
 90
        3
 70
     1
 43
0.0
 10
35.93571170468287
 20
27.60697349853884
 10
35.90164067203134
 20
27.97465849727656
 10
35.93571170468287
 20
27.99575438755736
  0
LWPOLYLINE
  5
3D7
330
1F
100
AcDbEntity
  8
DETAILS
  6
Continuous
 62
     7
370
    25
100
AcDbPolyline
 90
        3
 70
     1
 43
0.0
 10
35.93571170468287
 20
27.60697349853884
 10
35.93571170468287
 20
27.99575438755736
 10
35.97307897292479
 20
27.59249734170016
  0
LWPOLYLINE
  5
3D8
330
1F
100
AcDbEntity
  8
DETAILS
  6
Continuous
 62
     7
370
    25
100
AcDbPolyline
 90
        3
 70
     1
 43
0.0
 10
35.97307897292479
 20
27.59249734170016
 10
35.93571170468287
 20
27.99575438755736
 10
35.97307897292479
 20
28.01023054439604
  0
LWPOLYLINE
  5
3D9
330
1F
100
AcDbEntity
  8
DETAILS
  6
Continuous
 62
     7
370
    25
100
AcDbPolyline
 90
        3
 70
     1
 43
0.0
 10
35.97307897292479
 20
27.59249734170016
 10
35.97307897292479
 20
28.01023054439604
 10
36.01246997925421
 20
27.58513388646251
  0
LWPOLYLINE
  5
3DA
330
1F
100
AcDbEntity
  8
DETAILS
  6
Continuous
 62
     7
370
    25
100
AcDbPolyline
 90
        3
 70
     1
 43
0.0
 10
36.01246997925421
 20
27.58513388646251
 10
35.97307897292479
 20
28.01023054439604
 10
36.01246997925421
 20
28.0175939996337
  0
LWPOLYLINE
  5
3DB
330
1F
100
AcDbEntity
  8
DETAILS
  6
Continuous
 62
     7
370
    25
100
AcDbPolyline
 90
        3
 70
     1
 43
0.0
 10
36.01246997925421
 20
27.58513388646251
 10
36.01246997925421
 20
28.0175939996337
 10
36.0525433101949
 20
27.58513388646251
  0
LWPOLYLINE
  5
3DC
330
1F
100
AcDbEntity
  8
DETAILS
  6
Continuous
 62
     7
370
    25
100
AcDbPolyline
 90
        3
 70
     1
 43
0.0
 10
36.0525433101949
 20
27.58513388646251
 10
36.01246997925421
 20
28.0175939996337
 10
36.0525433101949
 20
28.0175939996337
  0
LWPOLYLINE
  5
3DD
330
1F
100
AcDbEntity
  8
DETAILS
  6
Continuous
 62
     7
370
    25
100
AcDbPolyline
 90
        3
 70
     1
 43
0.0
 10
36.0525433101949
 20
27.58513388646251
 10
36.0525433101949
 20
28.0175939996337
 10
36.09193431652432
 20
27.59249734170016
  0
LWPOLYLINE
  5
3DE
330
1F
100
AcDbEntity
  8
DETAILS
  6
Continuous
 62
     7
370
    25
100
AcDbPolyline
 90
        3
 70
     1
 43
0.0
 10
36.09193431652432
 20
27.59249734170016
 10
36.0525433101949
 20
28.0175939996337
 10
36.09193431652432
 20
28.01023054439604
  0
LWPOLYLINE
  5
3DF
330
1F
100
AcDbEntity
  8
DETAILS
  6
Continuous
 62
     7
370
    25
100
AcDbPolyline
 90
        3
 70
     1
 43
0.0
 10
36.09193431652432
 20
27.59249734170016
 10
36.09193431652432
 20
28.01023054439604
 10
36.12930158476624
 20
27.60697349853884
  0
LWPOLYLINE
  5
3E0
330
1F
100
AcDbEntity
  8
DETAILS
  6
Continuous
 62
     7
370
    25
100
AcDbPolyline
 90
        3
 70
     1
 43
0.0
 10
36.12930158476624
 20
27.60697349853884
 10
36.09193431652432
 20
28.01023054439604
 10
36.12930158476624
 20
27.99575438755736
  0
LWPOLYLINE
  5
3E1
330
1F
100
AcDbEntity
  8
DETAILS
  6
Continuous
 62
     7
370
    25
100
AcDbPolyline
 90
        3
 70
     1
 43
0.0
 10
36.12930158476624
 20
27.60697349853884
 10
36.12930158476624
 20
27.99575438755736
 10
36.16337261741777
 20
27.62806938881965
  0
LWPOLYLINE
  5
3E2
330
1F
100
AcDbEntity
  8
DETAILS
  6
Continuous
 62
     7
370
    25
100
AcDbPolyline
 90
        3
 70
     1
 43
0.0
 10
36.16337261741777
 20
27.62806938881965
 10
36.12930158476624
 20
27.99575438755736
 10
36.16337261741777
 20
27.97465849727656
  0
LWPOLYLINE
  5
3E3
330
1F
100
AcDbEntity
  8
DETAILS
  6
Continuous
 62
     7
370
    25
100
AcDbPolyline
 90
        3
 70
     1
 43
0.0
 10
36.16337261741777
 20
27.62806938881965
 10
36.16337261741777
 20
27.97465849727656
 10
36.19298716632567
 20
27.65506661730079
  0
LWPOLYLINE
  5
3E4
330
1F
100
AcDbEntity
  8
DETAILS
  6
Continuous
 62
     7
370
    25
100
AcDbPolyline
 90
        3
 70
     1
 43
0.0
 10
36.19298716632567
 20
27.65506661730079
 10
36.16337261741777
 20
27.97465849727656
 10
36.19298716632567
 20
27.94766126879541
  0
LWPOLYLINE
  5
3E5
330
1F
100
AcDbEntity
  8
DETAILS
  6
Continuous
 62
     7
370
    25
100
AcDbPolyline
 90
        3
 70
     1
 43
0.0
 10
36.19298716632567
 20
27.65506661730079
 10
36.19298716632567
 20
27.94766126879541
 10
36.21713674354562
 20
27.68704582574596
  0
LINE
  5
3E6
330
1F
100
AcDbEntity
  8
DETAILS
  6
Continuous
 62
     7
370
    25
100
AcDbLine
 10
22.92993609725482
 20
32.79057528041812
 30
0.0
 11
22.37706337551082
 21
32.54010255565026
 31
0.0
  0
LINE
  5
3E7
330
1F
100
AcDbEntity
  8
DETAILS
  6
Continuous
 62
     7
370
    25
100
AcDbLine
 10
23.18782700376682
 20
32.20497528627447
 30
0.0
 11
22.92993609725482
 21
32.08802983289797
 31
0.0
  0
LINE
  5
3E8
330
1F
100
AcDbEntity
  8
DETAILS
  6
Continuous
 62
     7
370
    25
100
AcDbLine
 10
22.92993609725482
 20
40.55042974827438
 30
0.0
 11
22.37706337551082
 21
40.30039338713822
 31
0.0
  0
LINE
  5
3E9
330
1F
100
AcDbEntity
  8
DETAILS
  6
Continuous
 62
     7
370
    25
100
AcDbLine
 10
22.37706337551082
 20
40.30039338713822
 30
0.0
 11
22.37706337551082
 21
41.70635700944195
 31
0.0
  0
LINE
  5
3EA
330
1F
100
AcDbEntity
  8
DETAILS
  6
Continuous
 62
     7
370
    25
100
AcDbLine
 10
23.18782700376682
 20
41.37079337643399
 30
0.0
 11
22.92993609725482
 21
41.25341155942623
 31
0.0
  0
LINE
  5
3EB
330
1F
100
AcDbEntity
  8
DETAILS
  6
Continuous
 62
     7
370
    25
100
AcDbLine
 10
23.18782700376682
 20
41.37079337643399
 30
0.0
 11
23.18782700376682
 21
32.20497528627493
 31
0.0
  0
LINE
  5
3EC
330
1F
100
AcDbEntity
  8
DETAILS
  6
Continuous
 62
     7
370
    25
100
AcDbLine
 10
22.92993609725482
 20
41.25341155942623
 30
0.0
 11
22.92993609725482
 21
32.08802983289797
 31
0.0
  0
LINE
  5
3ED
330
1F
100
AcDbEntity
  8
DETAILS
  6
Continuous
 62
     7
370
    25
100
AcDbLine
 10
22.92993609725482
 20
40.0494842987382
 30
0.0
 11
22.37706337551082
 21
40.30039338713822
 31
0.0
  0
LINE
  5
3EE
330
1F
100
AcDbEntity
  8
DETAILS
  6
Continuous
 62
     7
370
    25
100
AcDbLine
 10
23.74026336187886
 20
40.91828429004999
 30
0.0
 11
23.74026336187886
 21
42.32424791235415
 31
0.0
  0
LINE
  5
3EF
330
1F
100
AcDbEntity
  8
DETAILS
  6
Continuous
 62
     7
370
    25
100
AcDbLine
 10
23.74026336187886
 20
31.75290256352218
 30
0.0
 11
22.37706337551082
 21
31.13457529697825
 31
0.0
  0
LINE
  5
3F0
330
1F
100
AcDbEntity
  8
DETAILS
  6
Continuous
 62
     7
370
    25
100
AcDbLine
 10
23.74026336187886
 20
40.91828429004999
 30
0.0
 11
23.18782700376682
 21
40.66781156528214
 31
0.0
  0
LINE
  5
3F1
330
1F
100
AcDbEntity
  8
DETAILS
  6
Continuous
 62
     7
370
    25
100
AcDbLine
 10
23.74026336187886
 20
42.32424791235415
 30
0.0
 11
22.37706337551082
 21
41.70635700944195
 31
0.0
  0
LINE
  5
3F2
330
1F
100
AcDbEntity
  8
DETAILS
  6
Continuous
 62
     7
370
    25
100
AcDbLine
 10
22.37706337551082
 20
31.13457529697825
 30
0.0
 11
22.37706337551082
 21
32.54010255565026
 31
0.0
  0
LINE
  5
3F3
330
1F
100
AcDbEntity
  8
DETAILS
  6
Continuous
 62
     7
370
    25
100
AcDbLine
 10
23.74026336187886
 20
31.75290256352218
 30
0.0
 11
23.74026336187886
 21
33.15799345856203
 31
0.0
  0
LINE
  5
3F4
330
1F
100
AcDbEntity
  8
DETAILS
  6
Continuous
 62
     7
370
    25
100
AcDbLine
 10
23.74026336187886
 20
33.15799345856203
 30
0.0
 11
23.18782700376686
 21
32.90795709742633
 31
0.0
  0
LWPOLYLINE
  5
3F5
330
1F
100
AcDbEntity
  8
DETAILS
  6
Continuous
 62
     7
370
    25
100
AcDbPolyline
 90
        3
 70
     1
 43
0.0
 10
36.21713674354562
 20
27.68704582574596
 10
36.19298716632567
 20
27.94766126879541
 10
36.21713674354562
 20
27.91568206035025
  0
LWPOLYLINE
  5
3F6
330
1F
100
AcDbEntity
  8
DETAILS
  6
Continuous
 62
     7
370
    25
100
AcDbPolyline
 90
        3
 70
     1
 43
0.0
 10
36.21713674354562
 20
27.68704582574596
 10
36.21713674354562
 20
27.91568206035025
 10
36.2349989641896
 20
27.72291800056638
  0
LWPOLYLINE
  5
3F7
330
1F
100
AcDbEntity
  8
DETAILS
  6
Continuous
 62
     7
370
    25
100
AcDbPolyline
 90
        3
 70
     1
 43
0.0
 10
36.2349989641896
 20
27.72291800056638
 10
36.21713674354562
 20
27.91568206035025
 10
36.2349989641896
 20
27.87980988552982
  0
LWPOLYLINE
  5
3F8
330
1F
100
AcDbEntity
  8
DETAILS
  6
Continuous
 62
     7
370
    25
100
AcDbPolyline
 90
        3
 70
     1
 43
0.0
 10
36.2349989641896
 20
27.72291800056638
 10
36.2349989641896
 20
27.87980988552982
 10
36.24596555175698
 20
27.76146155787248
  0
LWPOLYLINE
  5
3F9
330
1F
100
AcDbEntity
  8
DETAILS
  6
Continuous
 62
     7
370
    25
100
AcDbPolyline
 90
        3
 70
     1
 43
0.0
 10
36.24596555175698
 20
27.76146155787248
 10
36.2349989641896
 20
27.87980988552982
 10
36.24596555175698
 20
27.84126632822372
  0
LWPOLYLINE
  5
3FA
330
1F
100
AcDbEntity
  8
DETAILS
  6
Continuous
 62
     7
370
    25
100
AcDbPolyline
 90
        3
 70
     1
 43
0.0
 10
36.24596555175698
 20
27.76146155787248
 10
36.24596555175698
 20
27.84126632822372
 10
36.24966305226111
 20
27.8013639430481
  0
CIRCLE
  5
3FB
330
1F
100
AcDbEntity
  8
DETAILS
  6
Continuous
 62
     7
370
    25
100
AcDbCircle
 10
35.33253666547034
 20
29.125
 30
0.0
 40
0.2171564075365495
  0
LWPOLYLINE
  5
3FC
330
1F
100
AcDbEntity
  8
DETAILS
  6
Continuous
 62
     7
370
    25
100
AcDbPolyline
 90
        3
 70
     1
 43
0.0
 10
35.11907775843792
 20
29.08509761482438
 10
35.11538025793379
 20
29.125
 10
35.11907775843792
 20
29.16490238517562
  0
LWPOLYLINE
  5
3FD
330
1F
100
AcDbEntity
  8
DETAILS
  6
Continuous
 62
     7
370
    25
100
AcDbPolyline
 90
        3
 70
     1
 43
0.0
 10
35.11907775843792
 20
29.08509761482438
 10
35.11907775843792
 20
29.16490238517562
 10
35.1300443460053
 20
29.04655405751828
  0
LWPOLYLINE
  5
3FE
330
1F
100
AcDbEntity
  8
DETAILS
  6
Continuous
 62
     7
370
    25
100
AcDbPolyline
 90
        3
 70
     1
 43
0.0
 10
35.1300443460053
 20
29.04655405751828
 10
35.11907775843792
 20
29.16490238517562
 10
35.1300443460053
 20
29.20344594248172
  0
LWPOLYLINE
  5
3FF
330
1F
100
AcDbEntity
  8
DETAILS
  6
Continuous
 62
     7
370
    25
100
AcDbPolyline
 90
        3
 70
     1
 43
0.0
 10
35.1300443460053
 20
29.04655405751828
 10
35.1300443460053
 20
29.20344594248172
 10
35.14790656664928
 20
29.01068188269786
  0
LWPOLYLINE
  5
400
330
1F
100
AcDbEntity
  8
DETAILS
  6
Continuous
 62
     7
370
    25
100
AcDbPolyline
 90
        3
 70
     1
 43
0.0
 10
35.14790656664928
 20
29.01068188269786
 10
35.1300443460053
 20
29.20344594248172
 10
35.14790656664928
 20
29.23931811730214
  0
LWPOLYLINE
  5
401
330
1F
100
AcDbEntity
  8
DETAILS
  6
Continuous
 62
     7
370
    25
100
AcDbPolyline
 90
        3
 70
     1
 43
0.0
 10
35.14790656664928
 20
29.01068188269786
 10
35.14790656664928
 20
29.23931811730214
 10
35.17205614386923
 20
28.97870267425269
  0
LWPOLYLINE
  5
402
330
1F
100
AcDbEntity
  8
DETAILS
  6
Continuous
 62
     7
370
    25
100
AcDbPolyline
 90
        3
 70
     1
 43
0.0
 10
35.17205614386923
 20
28.97870267425269
 10
35.14790656664928
 20
29.23931811730214
 10
35.17205614386923
 20
29.27129732574731
  0
LWPOLYLINE
  5
403
330
1F
100
AcDbEntity
  8
DETAILS
  6
Continuous
 62
     7
370
    25
100
AcDbPolyline
 90
        3
 70
     1
 43
0.0
 10
35.17205614386923
 20
28.97870267425269
 10
35.17205614386923
 20
29.27129732574731
 10
35.20167069277713
 20
28.95170544577154
  0
LWPOLYLINE
  5
404
330
1F
100
AcDbEntity
  8
DETAILS
  6
Continuous
 62
     7
370
    25
100
AcDbPolyline
 90
        3
 70
     1
 43
0.0
 10
35.20167069277713
 20
28.95170544577154
 10
35.17205614386923
 20
29.27129732574731
 10
35.20167069277713
 20
29.29829455422846
  0
LWPOLYLINE
  5
405
330
1F
100
AcDbEntity
  8
DETAILS
  6
Continuous
 62
     7
370
    25
100
AcDbPolyline
 90
        3
 70
     1
 43
0.0
 10
35.20167069277713
 20
28.95170544577154
 10
35.20167069277713
 20
29.29829455422846
 10
35.23574172542866
 20
28.93060955549074
  0
LWPOLYLINE
  5
406
330
1F
100
AcDbEntity
  8
DETAILS
  6
Continuous
 62
     7
370
    25
100
AcDbPolyline
 90
        3
 70
     1
 43
0.0
 10
35.23574172542866
 20
28.93060955549074
 10
35.20167069277713
 20
29.29829455422846
 10
35.23574172542866
 20
29.31939044450926
  0
LWPOLYLINE
  5
407
330
1F
100
AcDbEntity
  8
DETAILS
  6
Continuous
 62
     7
370
    25
100
AcDbPolyline
 90
        3
 70
     1
 43
0.0
 10
35.23574172542866
 20
28.93060955549074
 10
35.23574172542866
 20
29.31939044450926
 10
35.27310899367058
 20
28.91613339865206
  0
LWPOLYLINE
  5
408
330
1F
100
AcDbEntity
  8
DETAILS
  6
Continuous
 62
     7
370
    25
100
AcDbPolyline
 90
        3
 70
     1
 43
0.0
 10
35.27310899367058
 20
28.91613339865206
 10
35.23574172542866
 20
29.31939044450926
 10
35.27310899367058
 20
29.33386660134794
  0
LWPOLYLINE
  5
409
330
1F
100
AcDbEntity
  8
DETAILS
  6
Continuous
 62
     7
370
    25
100
AcDbPolyline
 90
        3
 70
     1
 43
0.0
 10
35.27310899367058
 20
28.91613339865206
 10
35.27310899367058
 20
29.33386660134794
 10
35.3125
 20
28.90876994341441
  0
LWPOLYLINE
  5
40A
330
1F
100
AcDbEntity
  8
DETAILS
  6
Continuous
 62
     7
370
    25
100
AcDbPolyline
 90
        3
 70
     1
 43
0.0
 10
35.3125
 20
28.90876994341441
 10
35.27310899367058
 20
29.33386660134794
 10
35.3125
 20
29.34123005658559
  0
LWPOLYLINE
  5
40B
330
1F
100
AcDbEntity
  8
DETAILS
  6
Continuous
 62
     7
370
    25
100
AcDbPolyline
 90
        3
 70
     1
 43
0.0
 10
35.3125
 20
28.90876994341441
 10
35.3125
 20
29.34123005658559
 10
35.35257333094069
 20
28.90876994341441
  0
LWPOLYLINE
  5
40C
330
1F
100
AcDbEntity
  8
DETAILS
  6
Continuous
 62
     7
370
    25
100
AcDbPolyline
 90
        3
 70
     1
 43
0.0
 10
35.35257333094069
 20
28.90876994341441
 10
35.3125
 20
29.34123005658559
 10
35.35257333094069
 20
29.34123005658559
  0
LWPOLYLINE
  5
40D
330
1F
100
AcDbEntity
  8
DETAILS
  6
Continuous
 62
     7
370
    25
100
AcDbPolyline
 90
        3
 70
     1
 43
0.0
 10
35.35257333094069
 20
28.90876994341441
 10
35.35257333094069
 20
29.34123005658559
 10
35.39196433727011
 20
28.91613339865206
  0
LWPOLYLINE
  5
40E
330
1F
100
AcDbEntity
  8
DETAILS
  6
Continuous
 62
     7
370
    25
100
AcDbPolyline
 90
        3
 70
     1
 43
0.0
 10
35.39196433727011
 20
28.91613339865206
 10
35.35257333094069
 20
29.34123005658559
 10
35.39196433727011
 20
29.33386660134794
  0
LWPOLYLINE
  5
40F
330
1F
100
AcDbEntity
  8
DETAILS
  6
Continuous
 62
     7
370
    25
100
AcDbPolyline
 90
        3
 70
     1
 43
0.0
 10
35.39196433727011
 20
28.91613339865206
 10
35.39196433727011
 20
29.33386660134794
 10
35.42933160551203
 20
28.93060955549074
  0
LWPOLYLINE
  5
410
330
1F
100
AcDbEntity
  8
DETAILS
  6
Continuous
 62
     7
370
    25
100
AcDbPolyline
 90
        3
 70
     1
 43
0.0
 10
35.42933160551203
 20
28.93060955549074
 10
35.39196433727011
 20
29.33386660134794
 10
35.42933160551203
 20
29.31939044450926
  0
LWPOLYLINE
  5
411
330
1F
100
AcDbEntity
  8
DETAILS
  6
Continuous
 62
     7
370
    25
100
AcDbPolyline
 90
        3
 70
     1
 43
0.0
 10
35.42933160551203
 20
28.93060955549074
 10
35.42933160551203
 20
29.31939044450926
 10
35.46340263816356
 20
28.95170544577154
  0
LWPOLYLINE
  5
412
330
1F
100
AcDbEntity
  8
DETAILS
  6
Continuous
 62
     7
370
    25
100
AcDbPolyline
 90
        3
 70
     1
 43
0.0
 10
35.46340263816356
 20
28.95170544577154
 10
35.42933160551203
 20
29.31939044450926
 10
35.46340263816356
 20
29.29829455422846
  0
LWPOLYLINE
  5
413
330
1F
100
AcDbEntity
  8
DETAILS
  6
Continuous
 62
     7
370
    25
100
AcDbPolyline
 90
        3
 70
     1
 43
0.0
 10
35.46340263816356
 20
28.95170544577154
 10
35.46340263816356
 20
29.29829455422846
 10
35.49301718707146
 20
28.97870267425269
  0
LWPOLYLINE
  5
414
330
1F
100
AcDbEntity
  8
DETAILS
  6
Continuous
 62
     7
370
    25
100
AcDbPolyline
 90
        3
 70
     1
 43
0.0
 10
35.49301718707146
 20
28.97870267425269
 10
35.46340263816356
 20
29.29829455422846
 10
35.49301718707146
 20
29.27129732574731
  0
LWPOLYLINE
  5
415
330
1F
100
AcDbEntity
  8
DETAILS
  6
Continuous
 62
     7
370
    25
100
AcDbPolyline
 90
        3
 70
     1
 43
0.0
 10
35.49301718707146
 20
28.97870267425269
 10
35.49301718707146
 20
29.27129732574731
 10
35.5171667642914
 20
29.01068188269786
  0
LWPOLYLINE
  5
416
330
1F
100
AcDbEntity
  8
DETAILS
  6
Continuous
 62
     7
370
    25
100
AcDbPolyline
 90
        3
 70
     1
 43
0.0
 10
35.5171667642914
 20
29.01068188269786
 10
35.49301718707146
 20
29.27129732574731
 10
35.5171667642914
 20
29.23931811730214
  0
LWPOLYLINE
  5
417
330
1F
100
AcDbEntity
  8
DETAILS
  6
Continuous
 62
     7
370
    25
100
AcDbPolyline
 90
        3
 70
     1
 43
0.0
 10
35.5171667642914
 20
29.01068188269786
 10
35.5171667642914
 20
29.23931811730214
 10
35.53502898493539
 20
29.04655405751828
  0
LWPOLYLINE
  5
418
330
1F
100
AcDbEntity
  8
DETAILS
  6
Continuous
 62
     7
370
    25
100
AcDbPolyline
 90
        3
 70
     1
 43
0.0
 10
35.53502898493539
 20
29.04655405751828
 10
35.5171667642914
 20
29.23931811730214
 10
35.53502898493539
 20
29.20344594248172
  0
LWPOLYLINE
  5
419
330
1F
100
AcDbEntity
  8
DETAILS
  6
Continuous
 62
     7
370
    25
100
AcDbPolyline
 90
        3
 70
     1
 43
0.0
 10
35.53502898493539
 20
29.04655405751828
 10
35.53502898493539
 20
29.20344594248172
 10
35.54599557250277
 20
29.08509761482438
  0
LWPOLYLINE
  5
41A
330
1F
100
AcDbEntity
  8
DETAILS
  6
Continuous
 62
     7
370
    25
100
AcDbPolyline
 90
        3
 70
     1
 43
0.0
 10
35.54599557250277
 20
29.08509761482438
 10
35.53502898493539
 20
29.20344594248172
 10
35.54599557250277
 20
29.16490238517562
  0
LWPOLYLINE
  5
41B
330
1F
100
AcDbEntity
  8
DETAILS
  6
Continuous
 62
     7
370
    25
100
AcDbPolyline
 90
        3
 70
     1
 43
0.0
 10
35.54599557250277
 20
29.08509761482438
 10
35.54599557250277
 20
29.16490238517562
 10
35.54969307300689
 20
29.125
  0
LINE
  5
41C
330
1F
100
AcDbEntity
  8
DETAILS
  6
Continuous
 62
     7
370
    25
100
AcDbLine
 10
43.29511011577632
 20
33.45657615390791
 30
0.0
 11
39.65008138459883
 21
35.10941162086647
 31
0.0
  0
LINE
  5
41D
330
1F
100
AcDbEntity
  8
DETAILS
  6
Continuous
 62
     7
370
    25
100
AcDbLine
 10
43.29511011577643
 20
32.05057978629975
 30
0.0
 11
37.59349958698282
 21
34.63595708014645
 31
0.0
  0
LINE
  5
41E
330
1F
100
AcDbEntity
  8
DETAILS
  6
Continuous
 62
     7
370
    25
100
AcDbLine
 10
44.85615865943435
 20
30.84241594051764
 30
0.0
 11
44.85615865943435
 21
23.58333267655689
 31
0.0
  0
LINE
  5
41F
330
1F
100
AcDbEntity
  8
DETAILS
  6
Continuous
 62
     7
370
    25
100
AcDbLine
 10
45.40815865391436
 20
21.92707057512598
 30
0.0
 11
44.04539503117836
 21
21.30917967221376
 31
0.0
  0
LINE
  5
420
330
1F
100
AcDbEntity
  8
DETAILS
  6
Continuous
 62
     7
370
    25
100
AcDbLine
 10
45.40815865391436
 20
21.92707057512598
 30
0.0
 11
43.29511011577635
 21
22.88526519190099
 31
0.0
  0
LINE
  5
421
330
1F
100
AcDbEntity
  8
DETAILS
  6
Continuous
 62
     7
370
    25
100
AcDbLine
 10
45.40815865391436
 20
23.33303419742969
 30
0.0
 11
43.29511011577629
 21
24.29117340160837
 31
0.0
  0
LINE
  5
422
330
1F
100
AcDbEntity
  8
DETAILS
  6
Continuous
 62
     7
370
    25
100
AcDbLine
 10
44.04539503117836
 20
21.30917967221376
 30
0.0
 11
43.29511011577626
 21
21.64939369963531
 31
0.0
  0
LINE
  5
423
330
1F
100
AcDbEntity
  8
DETAILS
  6
Continuous
 62
     7
370
    25
100
AcDbLine
 10
45.40815865391436
 20
21.92707057512598
 30
0.0
 11
45.40815865391436
 21
23.33303419742969
 31
0.0
  0
LINE
  5
424
330
1F
100
AcDbEntity
  8
DETAILS
  6
Continuous
 62
     7
370
    25
100
AcDbLine
 10
45.40815865391436
 20
31.09245230165379
 30
0.0
 11
44.85615865943435
 21
30.84241594051764
 31
0.0
  0
LINE
  5
425
330
1F
100
AcDbEntity
  8
DETAILS
  6
Continuous
 62
     7
370
    25
100
AcDbLine
 10
45.40815865391436
 20
32.49841592395796
 30
0.0
 11
43.29511011577643
 21
33.45657615390791
 31
0.0
  0
LINE
  5
426
330
1F
100
AcDbEntity
  8
DETAILS
  6
Continuous
 62
     7
370
    25
100
AcDbLine
 10
45.40815865391436
 20
31.09245230165379
 30
0.0
 11
43.29511011577632
 21
32.0506074902114
 31
0.0
  0
LINE
  5
427
330
1F
100
AcDbEntity
  8
DETAILS
  6
Continuous
 62
     7
370
    25
100
AcDbLine
 10
44.85879861378906
 20
30.84361174592913
 30
0.0
 11
43.29511011577632
 21
31.55254831380716
 31
0.0
  0
LINE
  5
428
330
1F
100
AcDbEntity
  8
DETAILS
  6
Continuous
 62
     7
370
    25
100
AcDbLine
 10
45.40815865391436
 20
31.09245230165379
 30
0.0
 11
45.40815865391436
 21
32.49841592395796
 31
0.0
  0
LINE
  5
429
330
1F
100
AcDbEntity
  8
DETAILS
  6
Continuous
 62
     7
370
    25
100
AcDbLine
 10
52.80480034869002
 20
52.76290703978293
 30
0.0
 11
52.80480034869002
 21
-0.0000015234968487
 31
0.0
  0
LINE
  5
42A
330
1F
100
AcDbEntity
  8
DETAILS
  6
Continuous
 62
     7
370
    25
100
AcDbLine
 10
23.06587859250938
 20
8.659329591348579
 30
0.0
 11
23.53064110195343
 21
8.659329591347669
 31
0.0
  0
LINE
  5
42B
330
1F
100
AcDbEntity
  8
DETAILS
  6
Continuous
 62
     7
370
    25
100
AcDbLine
 10
23.16481598121286
 20
8.534329591348119
 30
0.0
 11
24.44595021477253
 21
8.534329591347218
 31
0.0
  0
LINE
  5
42C
330
1F
100
AcDbEntity
  8
DETAILS
  6
Continuous
 62
     7
370
    25
100
AcDbLine
 10
23.13532059431713
 20
8.409329591347669
 30
0.0
 11
24.34580256352783
 21
8.409329591348579
 31
0.0
  0
ARC
  5
42D
330
1F
100
AcDbEntity
  8
DETAILS
  6
Continuous
 62
     7
370
    25
100
AcDbCircle
 10
23.73570429531249
 20
5.420318188032581
 30
0.0
 40
1.44
100
AcDbArc
 50
151.1657148054903
 51
30.23194736924091
  0
ARC
  5
42E
330
1F
100
AcDbEntity
  8
DETAILS
  6
Continuous
 62
     7
370
    25
100
AcDbCircle
 10
23.73570429531249
 20
5.420318188032581
 30
0.0
 40
1.315
100
AcDbArc
 50
151.1657148054903
 51
30.23194736924091
  0
LINE
  5
42F
330
1F
100
AcDbEntity
  8
DETAILS
  6
Continuous
 62
     7
370
    25
100
AcDbLine
 10
22.45855288970424
 20
6.085513112211231
 30
0.0
 11
23.06587859250951
 21
8.659329591349028
 31
0.0
  0
LINE
  5
430
330
1F
100
AcDbEntity
  8
DETAILS
  6
Continuous
 62
     7
370
    25
100
AcDbLine
 10
22.58021186598267
 20
6.056806083614051
 30
0.0
 11
23.16481598121285
 21
8.534329591348119
 31
0.0
  0
LINE
  5
431
330
1F
100
AcDbEntity
  8
DETAILS
  6
Continuous
 62
     7
370
    25
100
AcDbLine
 10
23.46814110195371
 20
8.284329591347669
 30
0.0
 11
24.03084337844472
 21
8.284329591348119
 31
0.0
  0
LINE
  5
432
330
1F
100
AcDbEntity
  8
DETAILS
  6
Continuous
 62
     7
370
    25
100
AcDbLine
 10
23.46814110195371
 20
8.284329591347669
 30
0.0
 11
23.46814110195361
 21
8.409329591348119
 31
0.0
  0
LINE
  5
433
330
1F
100
AcDbEntity
  8
DETAILS
  6
Continuous
 62
     7
370
    25
100
AcDbLine
 10
24.03084337844472
 20
8.284329591348119
 30
0.0
 11
24.03084337844465
 21
8.409329591348579
 31
0.0
  0
LINE
  5
434
330
1F
100
AcDbEntity
  8
DETAILS
  6
Continuous
 62
     7
370
    25
100
AcDbLine
 10
24.41801422286138
 20
8.659329591348579
 30
0.0
 11
23.96834496407191
 21
8.659710700176268
 31
0.0
  0
LINE
  5
435
330
1F
100
AcDbEntity
  8
DETAILS
  6
Continuous
 62
     7
370
    25
100
AcDbLine
 10
23.53064110195341
 20
8.65932959134813
 30
0.0
 11
23.96834205729272
 21
8.660664091135509
 31
0.0
  0
LINE
  5
436
330
1F
100
AcDbEntity
  8
DETAILS
  6
Continuous
 62
     7
370
    25
100
AcDbLine
 10
23.53048865842223
 20
8.709329358957397
 30
0.0
 11
23.96818961376152
 21
8.710663858744788
 31
0.0
  0
LINE
  5
437
330
1F
100
AcDbEntity
  8
DETAILS
  6
Continuous
 62
     7
370
    25
100
AcDbLine
 10
23.530336214891
 20
8.75932912656668
 30
0.0
 11
23.96803717023031
 21
8.760663626354068
 31
0.0
  0
LINE
  5
438
330
1F
100
AcDbEntity
  8
DETAILS
  6
Continuous
 62
     7
370
    25
100
AcDbLine
 10
23.53018377135981
 20
8.809328894175959
 30
0.0
 11
23.9678847266991
 21
8.810663393963349
 31
0.0
  0
LINE
  5
439
330
1F
100
AcDbEntity
  8
DETAILS
  6
Continuous
 62
     7
370
    25
100
AcDbLine
 10
23.5300313278286
 20
8.859328661785238
 30
0.0
 11
23.96773228316788
 21
8.860663161572628
 31
0.0
  0
LINE
  5
43A
330
1F
100
AcDbEntity
  8
DETAILS
  6
Continuous
 62
     7
370
    25
100
AcDbLine
 10
23.5298788842974
 20
8.90932842939452
 30
0.0
 11
23.96757983963669
 21
8.91066292918191
 31
0.0
  0
LINE
  5
43B
330
1F
100
AcDbEntity
  8
DETAILS
  6
Continuous
 62
     7
370
    25
100
AcDbLine
 10
23.52972644076618
 20
8.9593281970038
 30
0.0
 11
23.96742739610547
 21
8.96066269679119
 31
0.0
  0
LINE
  5
43C
330
1F
100
AcDbEntity
  8
DETAILS
  6
Continuous
 62
     7
370
    25
100
AcDbLine
 10
23.52957399723499
 20
9.00932796461308
 30
0.0
 11
23.96727495257428
 21
9.010662464400468
 31
0.0
  0
LINE
  5
43D
330
1F
100
AcDbEntity
  8
DETAILS
  6
Continuous
 62
     7
370
    25
100
AcDbLine
 10
23.52942155370376
 20
9.059327732222359
 30
0.0
 11
23.96712250904306
 21
9.060662232009749
 31
0.0
  0
LINE
  5
43E
330
1F
100
AcDbEntity
  8
DETAILS
  6
Continuous
 62
     7
370
    25
100
AcDbLine
 10
23.52926911017257
 20
9.109327499831638
 30
0.0
 11
23.96697006551186
 21
9.110661999619019
 31
0.0
  0
LINE
  5
43F
330
1F
100
AcDbEntity
  8
DETAILS
  6
Continuous
 62
     7
370
    25
100
AcDbLine
 10
23.52911666664135
 20
9.159327267440908
 30
0.0
 11
23.96681762198065
 21
9.160661767228298
 31
0.0
  0
LINE
  5
440
330
1F
100
AcDbEntity
  8
DETAILS
  6
Continuous
 62
     7
370
    25
100
AcDbLine
 10
23.52896422311016
 20
9.20932703505019
 30
0.0
 11
23.96666517844945
 21
9.21066153483758
 31
0.0
  0
LINE
  5
441
330
1F
100
AcDbEntity
  8
DETAILS
  6
Continuous
 62
     7
370
    25
100
AcDbLine
 10
23.52881177957894
 20
9.25932680265947
 30
0.0
 11
23.96651273491824
 21
9.26066130244686
 31
0.0
  0
LINE
  5
442
330
1F
100
AcDbEntity
  8
DETAILS
  6
Continuous
 62
     7
370
    25
100
AcDbLine
 10
23.52865933604774
 20
9.309326570268748
 30
0.0
 11
23.96636029138704
 21
9.310661070056138
 31
0.0
  0
LINE
  5
443
330
1F
100
AcDbEntity
  8
DETAILS
  6
Continuous
 62
     7
370
    25
100
AcDbLine
 10
23.52850689251652
 20
9.359326337878029
 30
0.0
 11
23.96620784785582
 21
9.360660837665419
 31
0.0
  0
LINE
  5
444
330
1F
100
AcDbEntity
  8
DETAILS
  6
Continuous
 62
     7
370
    25
100
AcDbLine
 10
23.52835444898533
 20
9.409326105487308
 30
0.0
 11
23.96605540432463
 21
9.4106606052747
 31
0.0
  0
LINE
  5
445
330
1F
100
AcDbEntity
  8
DETAILS
  6
Continuous
 62
     7
370
    25
100
AcDbLine
 10
24.41801422286138
 20
8.659329591348579
 30
0.0
 11
24.9798559294091
 21
6.145360746352312
 31
0.0
  0
LINE
  5
446
330
1F
100
AcDbEntity
  8
DETAILS
  6
Continuous
 62
     7
370
    25
100
AcDbLine
 10
24.34580256352783
 20
8.409329591348579
 30
0.0
 11
24.85786533314694
 21
6.118097319868925
 31
0.0
  0
LWPOLYLINE
  5
447
330
1F
100
AcDbEntity
  8
DETAILS
  6
Continuous
 62
     7
370
    25
100
AcDbPolyline
 90
        3
 70
     1
 43
0.0
 10
23.53114657802543
 20
23.41790534231675
 10
23.5274490775213
 20
23.45780772749237
 10
23.53114657802543
 20
23.49771011266799
  0
LWPOLYLINE
  5
448
330
1F
100
AcDbEntity
  8
DETAILS
  6
Continuous
 62
     7
370
    25
100
AcDbPolyline
 90
        3
 70
     1
 43
0.0
 10
23.53114657802543
 20
23.41790534231675
 10
23.53114657802543
 20
23.49771011266799
 10
23.54211316559281
 20
23.37936178501065
  0
LWPOLYLINE
  5
449
330
1F
100
AcDbEntity
  8
DETAILS
  6
Continuous
 62
     7
370
    25
100
AcDbPolyline
 90
        3
 70
     1
 43
0.0
 10
23.54211316559281
 20
23.37936178501065
 10
23.53114657802543
 20
23.49771011266799
 10
23.54211316559281
 20
23.53625366997409
  0
LWPOLYLINE
  5
44A
330
1F
100
AcDbEntity
  8
DETAILS
  6
Continuous
 62
     7
370
    25
100
AcDbPolyline
 90
        3
 70
     1
 43
0.0
 10
23.54211316559281
 20
23.37936178501065
 10
23.54211316559281
 20
23.53625366997409
 10
23.5599753862368
 20
23.34348961019023
  0
LWPOLYLINE
  5
44B
330
1F
100
AcDbEntity
  8
DETAILS
  6
Continuous
 62
     7
370
    25
100
AcDbPolyline
 90
        3
 70
     1
 43
0.0
 10
23.5599753862368
 20
23.34348961019023
 10
23.54211316559281
 20
23.53625366997409
 10
23.5599753862368
 20
23.57212584479451
  0
LWPOLYLINE
  5
44C
330
1F
100
AcDbEntity
  8
DETAILS
  6
Continuous
 62
     7
370
    25
100
AcDbPolyline
 90
        3
 70
     1
 43
0.0
 10
23.5599753862368
 20
23.34348961019023
 10
23.5599753862368
 20
23.57212584479451
 10
23.58412496345674
 20
23.31151040174506
  0
LWPOLYLINE
  5
44D
330
1F
100
AcDbEntity
  8
DETAILS
  6
Continuous
 62
     7
370
    25
100
AcDbPolyline
 90
        3
 70
     1
 43
0.0
 10
23.58412496345674
 20
23.31151040174506
 10
23.5599753862368
 20
23.57212584479451
 10
23.58412496345674
 20
23.60410505323968
  0
LWPOLYLINE
  5
44E
330
1F
100
AcDbEntity
  8
DETAILS
  6
Continuous
 62
     7
370
    25
100
AcDbPolyline
 90
        3
 70
     1
 43
0.0
 10
23.58412496345674
 20
23.31151040174506
 10
23.58412496345674
 20
23.60410505323968
 10
23.61373951236464
 20
23.28451317326391
  0
LWPOLYLINE
  5
44F
330
1F
100
AcDbEntity
  8
DETAILS
  6
Continuous
 62
     7
370
    25
100
AcDbPolyline
 90
        3
 70
     1
 43
0.0
 10
23.61373951236464
 20
23.28451317326391
 10
23.58412496345674
 20
23.60410505323968
 10
23.61373951236464
 20
23.63110228172082
  0
LWPOLYLINE
  5
450
330
1F
100
AcDbEntity
  8
DETAILS
  6
Continuous
 62
     7
370
    25
100
AcDbPolyline
 90
        3
 70
     1
 43
0.0
 10
23.61373951236464
 20
23.28451317326391
 10
23.61373951236464
 20
23.63110228172082
 10
23.64781054501617
 20
23.26341728298311
  0
LWPOLYLINE
  5
451
330
1F
100
AcDbEntity
  8
DETAILS
  6
Continuous
 62
     7
370
    25
100
AcDbPolyline
 90
        3
 70
     1
 43
0.0
 10
23.64781054501617
 20
23.26341728298311
 10
23.61373951236464
 20
23.63110228172082
 10
23.64781054501617
 20
23.65219817200163
  0
LWPOLYLINE
  5
452
330
1F
100
AcDbEntity
  8
DETAILS
  6
Continuous
 62
     7
370
    25
100
AcDbPolyline
 90
        3
 70
     1
 43
0.0
 10
23.64781054501617
 20
23.26341728298311
 10
23.64781054501617
 20
23.65219817200163
 10
23.68517781325809
 20
23.24894112614443
  0
LWPOLYLINE
  5
453
330
1F
100
AcDbEntity
  8
DETAILS
  6
Continuous
 62
     7
370
    25
100
AcDbPolyline
 90
        3
 70
     1
 43
0.0
 10
23.68517781325809
 20
23.24894112614443
 10
23.64781054501617
 20
23.65219817200163
 10
23.68517781325809
 20
23.66667432884031
  0
LWPOLYLINE
  5
454
330
1F
100
AcDbEntity
  8
DETAILS
  6
Continuous
 62
     7
370
    25
100
AcDbPolyline
 90
        3
 70
     1
 43
0.0
 10
23.68517781325809
 20
23.24894112614443
 10
23.68517781325809
 20
23.66667432884031
 10
23.72456881958751
 20
23.24157767090677
  0
LWPOLYLINE
  5
455
330
1F
100
AcDbEntity
  8
DETAILS
  6
Continuous
 62
     7
370
    25
100
AcDbPolyline
 90
        3
 70
     1
 43
0.0
 10
23.72456881958751
 20
23.24157767090677
 10
23.68517781325809
 20
23.66667432884031
 10
23.72456881958751
 20
23.67403778407796
  0
LWPOLYLINE
  5
456
330
1F
100
AcDbEntity
  8
DETAILS
  6
Continuous
 62
     7
370
    25
100
AcDbPolyline
 90
        3
 70
     1
 43
0.0
 10
23.72456881958751
 20
23.24157767090677
 10
23.72456881958751
 20
23.67403778407796
 10
23.7646421505282
 20
23.24157767090677
  0
LWPOLYLINE
  5
457
330
1F
100
AcDbEntity
  8
DETAILS
  6
Continuous
 62
     7
370
    25
100
AcDbPolyline
 90
        3
 70
     1
 43
0.0
 10
23.7646421505282
 20
23.24157767090677
 10
23.72456881958751
 20
23.67403778407796
 10
23.7646421505282
 20
23.67403778407796
  0
LWPOLYLINE
  5
458
330
1F
100
AcDbEntity
  8
DETAILS
  6
Continuous
 62
     7
370
    25
100
AcDbPolyline
 90
        3
 70
     1
 43
0.0
 10
23.7646421505282
 20
23.24157767090677
 10
23.7646421505282
 20
23.67403778407796
 10
23.80403315685762
 20
23.24894112614443
  0
LWPOLYLINE
  5
459
330
1F
100
AcDbEntity
  8
DETAILS
  6
Continuous
 62
     7
370
    25
100
AcDbPolyline
 90
        3
 70
     1
 43
0.0
 10
23.80403315685762
 20
23.24894112614443
 10
23.7646421505282
 20
23.67403778407796
 10
23.80403315685762
 20
23.66667432884031
  0
LWPOLYLINE
  5
45A
330
1F
100
AcDbEntity
  8
DETAILS
  6
Continuous
 62
     7
370
    25
100
AcDbPolyline
 90
        3
 70
     1
 43
0.0
 10
23.80403315685762
 20
23.24894112614443
 10
23.80403315685762
 20
23.66667432884031
 10
23.84140042509954
 20
23.26341728298311
  0
LWPOLYLINE
  5
45B
330
1F
100
AcDbEntity
  8
DETAILS
  6
Continuous
 62
     7
370
    25
100
AcDbPolyline
 90
        3
 70
     1
 43
0.0
 10
23.84140042509954
 20
23.26341728298311
 10
23.80403315685762
 20
23.66667432884031
 10
23.84140042509954
 20
23.65219817200163
  0
LWPOLYLINE
  5
45C
330
1F
100
AcDbEntity
  8
DETAILS
  6
Continuous
 62
     7
370
    25
100
AcDbPolyline
 90
        3
 70
     1
 43
0.0
 10
23.84140042509954
 20
23.26341728298311
 10
23.84140042509954
 20
23.65219817200163
 10
23.87547145775107
 20
23.28451317326391
  0
LWPOLYLINE
  5
45D
330
1F
100
AcDbEntity
  8
DETAILS
  6
Continuous
 62
     7
370
    25
100
AcDbPolyline
 90
        3
 70
     1
 43
0.0
 10
23.87547145775107
 20
23.28451317326391
 10
23.84140042509954
 20
23.65219817200163
 10
23.87547145775107
 20
23.63110228172082
  0
LWPOLYLINE
  5
45E
330
1F
100
AcDbEntity
  8
DETAILS
  6
Continuous
 62
     7
370
    25
100
AcDbPolyline
 90
        3
 70
     1
 43
0.0
 10
23.87547145775107
 20
23.28451317326391
 10
23.87547145775107
 20
23.63110228172082
 10
23.90508600665897
 20
23.31151040174506
  0
LWPOLYLINE
  5
45F
330
1F
100
AcDbEntity
  8
DETAILS
  6
Continuous
 62
     7
370
    25
100
AcDbPolyline
 90
        3
 70
     1
 43
0.0
 10
23.90508600665897
 20
23.31151040174506
 10
23.87547145775107
 20
23.63110228172082
 10
23.90508600665897
 20
23.60410505323968
  0
LWPOLYLINE
  5
460
330
1F
100
AcDbEntity
  8
DETAILS
  6
Continuous
 62
     7
370
    25
100
AcDbPolyline
 90
        3
 70
     1
 43
0.0
 10
23.90508600665897
 20
23.31151040174506
 10
23.90508600665897
 20
23.60410505323968
 10
23.92923558387891
 20
23.34348961019023
  0
LWPOLYLINE
  5
461
330
1F
100
AcDbEntity
  8
DETAILS
  6
Continuous
 62
     7
370
    25
100
AcDbPolyline
 90
        3
 70
     1
 43
0.0
 10
23.92923558387891
 20
23.34348961019023
 10
23.90508600665897
 20
23.60410505323968
 10
23.92923558387891
 20
23.57212584479451
  0
LWPOLYLINE
  5
462
330
1F
100
AcDbEntity
  8
DETAILS
  6
Continuous
 62
     7
370
    25
100
AcDbPolyline
 90
        3
 70
     1
 43
0.0
 10
23.92923558387891
 20
23.34348961019023
 10
23.92923558387891
 20
23.57212584479451
 10
23.9470978045229
 20
23.37936178501065
  0
LWPOLYLINE
  5
463
330
1F
100
AcDbEntity
  8
DETAILS
  6
Continuous
 62
     7
370
    25
100
AcDbPolyline
 90
        3
 70
     1
 43
0.0
 10
23.9470978045229
 20
23.37936178501065
 10
23.92923558387891
 20
23.57212584479451
 10
23.9470978045229
 20
23.53625366997409
  0
LWPOLYLINE
  5
464
330
1F
100
AcDbEntity
  8
DETAILS
  6
Continuous
 62
     7
370
    25
100
AcDbPolyline
 90
        3
 70
     1
 43
0.0
 10
23.9470978045229
 20
23.37936178501065
 10
23.9470978045229
 20
23.53625366997409
 10
23.95806439209028
 20
23.41790534231675
  0
LWPOLYLINE
  5
465
330
1F
100
AcDbEntity
  8
DETAILS
  6
Continuous
 62
     7
370
    25
100
AcDbPolyline
 90
        3
 70
     1
 43
0.0
 10
23.95806439209028
 20
23.41790534231675
 10
23.9470978045229
 20
23.53625366997409
 10
23.95806439209028
 20
23.49771011266799
  0
LWPOLYLINE
  5
466
330
1F
100
AcDbEntity
  8
DETAILS
  6
Continuous
 62
     7
370
    25
100
AcDbPolyline
 90
        3
 70
     1
 43
0.0
 10
23.95806439209028
 20
23.41790534231675
 10
23.95806439209028
 20
23.49771011266799
 10
23.9617618925944
 20
23.45780772749237
  0
TEXT
  5
467
330
1F
100
AcDbEntity
  8
DETAILS
 62
     7
370
    25
100
AcDbText
 10
1.925929359781505
 20
0.7158957568969031
 30
0.0
 40
1.2
  1
Verify hanger capacity with manufacturer.
  7
Arial
 11
1.925929359781505
 21
0.360804847805994
 31
0.0
100
AcDbText
 73
     1
  0
TEXT
  5
468
330
1F
100
AcDbEntity
  8
DETAILS
 62
     7
370
    25
100
AcDbText
 10
6.125
 20
47.65263181818182
 30
0.0
 40
1.19
  1
Assembly Capacity 270 lbs.
  7
Arial
 11
6.125
 21
47.3005
 31
0.0
100
AcDbText
 73
     1
  0
TEXT
  5
469
330
1F
100
AcDbEntity
  8
DETAILS
 62
     7
370
    25
100
AcDbText
 10
5.741516892118773
 20
49.70170009292907
 30
0.0
 40
1.75
  1
SPRINKLER SUPPORT
  7
Arial
 11
5.741516892118773
 21
49.18385918383816
 31
0.0
100
AcDbText
 73
     1
  0
TEXT
  5
46A
330
1F
100
AcDbEntity
  8
DETAILS
 62
     7
370
    25
100
AcDbText
 10
5.007507248581333
 20
36.61718329908958
 30
0.0
 40
1.2
  1
Fastener
  7
Arial
 11
5.007507248581333
 21
36.26209238999867
 31
0.0
100
AcDbText
 73
     1
  0
TEXT
  5
46B
330
1F
100
AcDbEntity
  8
DETAILS
 62
     7
370
    25
100
AcDbText
 10
1.3421875
 20
49.62429545454546
 30
0.0
 40
1.7
  1
S7
  7
Arial
 11
1.3421875
 21
49.12125
 31
0.0
100
AcDbText
 73
     1
  0
TEXT
  5
46C
330
1F
100
AcDbEntity
  8
DETAILS
 62
     7
370
    25
100
AcDbText
 10
37.79498537974104
 20
46.13382608867864
 30
0.0
 40
1.2
  1
4x6 cross member 
  7
Arial
 11
37.79498537974104
 21
47.33382608867864
 31
0.0
100
AcDbText
 73
     3
  0
TEXT
  5
46D
330
1F
100
AcDbEntity
  8
DETAILS
 62
     7
370
    25
100
AcDbText
 10
38.07623537974104
 20
44.24382608867864
 30
0.0
 40
1.2
  1
requires three 16d 
  7
Arial
 11
38.07623537974104
 21
45.44382608867864
 31
0.0
100
AcDbText
 73
     3
  0
TEXT
  5
46E
330
1F
100
AcDbEntity
  8
DETAILS
 62
     7
370
    25
100
AcDbText
 10
36.59498537974104
 20
42.35382608867864
 30
0.0
 40
1.2
  1
(3-1/2") nails per end
  7
Arial
 11
36.59498537974104
 21
43.55382608867864
 31
0.0
100
AcDbText
 73
     3
  0
TEXT
  5
46F
330
1F
100
AcDbEntity
  8
DETAILS
 62
     7
370
    25
100
AcDbText
 10
4.25
 20
14.42259090909091
 30
0.0
 40
1.2
  1
1/8" minimal 
  7
Arial
 11
4.25
 21
14.0675
 31
0.0
100
AcDbText
 73
     1
  0
TEXT
  5
470
330
1F
100
AcDbEntity
  8
DETAILS
 62
     7
370
    25
100
AcDbText
 10
4.090625
 20
12.53259090909091
 30
0.0
 40
1.2
  1
gap between 
  7
Arial
 11
4.090625
 21
12.1775
 31
0.0
100
AcDbText
 73
     1
  0
TEXT
  5
471
330
1F
100
AcDbEntity
  8
DETAILS
 62
     7
370
    25
100
AcDbText
 10
5.234375
 20
10.64259090909091
 30
0.0
 40
1.2
  1
block and 
  7
Arial
 11
5.234375
 21
10.2875
 31
0.0
100
AcDbText
 73
     1
  0
TEXT
  5
472
330
1F
100
AcDbEntity
  8
DETAILS
 62
     7
370
    25
100
AcDbText
 10
6.725000000000001
 20
8.752590909090909
 30
0.0
 40
1.2
  1
flange
  7
Arial
 11
6.725000000000001
 21
8.397499999999999
 31
0.0
100
AcDbText
 73
     1
  0
INSERT
  5
473
330
1F
100
AcDbEntity
  8
DETAILS
  6
ByBlock
 62
     7
100
AcDbBlockReference
  2
HATCH_0_ca533f48-3907-42ef-afc0-813098dcee19
 10
0.0
 20
0.0
 30
0.0
  0
INSERT
  5
474
330
1F
100
AcDbEntity
  8
DETAILS
  6
ByBlock
 62
     7
100
AcDbBlockReference
  2
HATCH_1_3bd31a3d-ffb2-43e4-9387-67ea97928493
 10
0.0
 20
0.0
 30
0.0
  0
INSERT
  5
475
330
1F
100
AcDbEntity
  8
DETAILS
  6
ByBlock
 62
     7
100
AcDbBlockReference
  2
HATCH_2_122be1bd-af64-4837-a7fa-a981a740e56d
 10
0.0
 20
0.0
 30
0.0
  0
INSERT
  5
476
330
1F
100
AcDbEntity
  8
DETAILS
  6
ByBlock
 62
     7
100
AcDbBlockReference
  2
HATCH_3_d4109019-1ebf-403f-8646-eef3807f4056
 10
0.0
 20
0.0
 30
0.0
  0
INSERT
  5
477
330
1F
100
AcDbEntity
  8
DETAILS
  6
ByBlock
 62
     7
100
AcDbBlockReference
  2
HATCH_4_ad96cf3a-d7cd-4564-b4ad-11d1a7030270
 10
0.0
 20
0.0
 30
0.0
  0
INSERT
  5
478
330
1F
100
AcDbEntity
  8
DETAILS
  6
ByBlock
 62
     7
100
AcDbBlockReference
  2
HATCH_5_fce4ca95-a225-40bd-83e9-34e144c094a7
 10
0.0
 20
0.0
 30
0.0
  0
INSERT
  5
479
330
1F
100
AcDbEntity
  8
DETAILS
  6
ByBlock
 62
     7
100
AcDbBlockReference
  2
HATCH_6_78f59fe4-2400-4b2a-aa1b-b75a38ebca24
 10
0.0
 20
0.0
 30
0.0
  0
INSERT
  5
47A
330
1F
100
AcDbEntity
  8
DETAILS
  6
ByBlock
 62
     7
100
AcDbBlockReference
  2
HATCH_7_bfdbf6da-738e-4377-8cf3-d0985bce0fc6
 10
0.0
 20
0.0
 30
0.0
  0
INSERT
  5
47B
330
1F
100
AcDbEntity
  8
DETAILS
  6
ByBlock
 62
     7
100
AcDbBlockReference
  2
HATCH_8_d9fec085-a566-48ff-b008-21e98854cb61
 10
0.0
 20
0.0
 30
0.0
  0
INSERT
  5
47C
330
1F
100
AcDbEntity
  8
DETAILS
  6
ByBlock
 62
     7
100
AcDbBlockReference
  2
HATCH_9_7836ad96-eeed-4ad5-9c8a-6e28176ac06f
 10
0.0
 20
0.0
 30
0.0
  0
INSERT
  5
47D
330
1F
100
AcDbEntity
  8
DETAILS
  6
ByBlock
 62
     7
100
AcDbBlockReference
  2
HATCH_10_61fff14e-11c7-45e3-b309-b8894ee71292
 10
0.0
 20
0.0
 30
0.0
  0
INSERT
  5
47E
330
1F
100
AcDbEntity
  8
DETAILS
  6
ByBlock
 62
     7
100
AcDbBlockReference
  2
HATCH_11_d0eee545-46dc-4603-a99a-c7fb92170b90
 10
0.0
 20
0.0
 30
0.0
  0
INSERT
  5
47F
330
1F
100
AcDbEntity
  8
DETAILS
  6
ByBlock
 62
     7
100
AcDbBlockReference
  2
HATCH_12_76df2f42-b0d4-4237-b95f-23b81fef4003
 10
0.0
 20
0.0
 30
0.0
  0
INSERT
  5
480
330
1F
100
AcDbEntity
  8
DETAILS
  6
ByBlock
 62
     7
100
AcDbBlockReference
  2
HATCH_13_0fb9547b-b129-4de7-9ac1-56383fcf059d
 10
0.0
 20
0.0
 30
0.0
  0
INSERT
  5
481
330
1F
100
AcDbEntity
  8
DETAILS
  6
ByBlock
 62
     7
100
AcDbBlockReference
  2
HATCH_14_ee7f17df-edda-42a6-b8d8-93256148efec
 10
0.0
 20
0.0
 30
0.0
  0
INSERT
  5
482
330
1F
100
AcDbEntity
  8
DETAILS
  6
ByBlock
 62
     7
100
AcDbBlockReference
  2
HATCH_15_a98eaeec-cea9-4e44-ae21-dc3c2008a16b
 10
0.0
 20
0.0
 30
0.0
  0
INSERT
  5
483
330
1F
100
AcDbEntity
  8
DETAILS
  6
ByBlock
 62
     7
100
AcDbBlockReference
  2
HATCH_16_ced48c52-240b-489e-b2e6-2465d7fc0d86
 10
0.0
 20
0.0
 30
0.0
  0
INSERT
  5
484
330
1F
100
AcDbEntity
  8
DETAILS
  6
ByBlock
 62
     7
100
AcDbBlockReference
  2
HATCH_17_bc44a6f4-7444-485b-93a8-d2c3650ac358
 10
0.0
 20
0.0
 30
0.0
  0
INSERT
  5
485
330
1F
100
AcDbEntity
  8
DETAILS
  6
ByBlock
 62
     7
100
AcDbBlockReference
  2
HATCH_18_0dc53ea7-c5f4-4286-b922-2183748db6f6
 10
0.0
 20
0.0
 30
0.0
  0
INSERT
  5
486
330
1F
100
AcDbEntity
  8
DETAILS
  6
ByBlock
 62
     7
100
AcDbBlockReference
  2
HATCH_19_25217a57-ce3a-4fc9-85e3-922c57b5028a
 10
0.0
 20
0.0
 30
0.0
  0
INSERT
  5
487
330
1F
100
AcDbEntity
  8
DETAILS
  6
ByBlock
 62
     7
100
AcDbBlockReference
  2
HATCH_20_e1fa339a-623f-42ea-a8ac-83d7c15bea09
 10
0.0
 20
0.0
 30
0.0
  0
INSERT
  5
488
330
1F
100
AcDbEntity
  8
DETAILS
  6
ByBlock
 62
     7
100
AcDbBlockReference
  2
HATCH_21_dc06ad7f-8b60-4b5f-9c41-102b3d6c4180
 10
0.0
 20
0.0
 30
0.0
  0
INSERT
  5
489
330
1F
100
AcDbEntity
  8
DETAILS
  6
ByBlock
 62
     7
100
AcDbBlockReference
  2
HATCH_22_4863c199-7154-41e4-90f2-baad2788ebef
 10
0.0
 20
0.0
 30
0.0
  0
INSERT
  5
48A
330
1F
100
AcDbEntity
  8
DETAILS
  6
ByBlock
 62
     7
100
AcDbBlockReference
  2
HATCH_23_a2f998b7-997d-43b7-be65-b7703bf06367
 10
0.0
 20
0.0
 30
0.0
  0
INSERT
  5
48B
330
1F
100
AcDbEntity
  8
DETAILS
  6
ByBlock
 62
     7
100
AcDbBlockReference
  2
HATCH_24_34706a88-e160-4cf1-8c86-48686afb8c2b
 10
0.0
 20
0.0
 30
0.0
  0
INSERT
  5
48C
330
1F
100
AcDbEntity
  8
DETAILS
  6
ByBlock
 62
     7
100
AcDbBlockReference
  2
HATCH_25_e86d6f95-03cb-47d3-b6b9-c439acbc318f
 10
0.0
 20
0.0
 30
0.0
  0
INSERT
  5
48D
330
1F
100
AcDbEntity
  8
DETAILS
  6
ByBlock
 62
     7
100
AcDbBlockReference
  2
HATCH_26_7df97556-db65-4318-a707-61ee7844ae3e
 10
0.0
 20
0.0
 30
0.0
  0
INSERT
  5
48E
330
1F
100
AcDbEntity
  8
DETAILS
  6
ByBlock
 62
     7
100
AcDbBlockReference
  2
HATCH_27_59f925c3-7b30-45b7-bbe0-ad17d080ee87
 10
0.0
 20
0.0
 30
0.0
  0
INSERT
  5
48F
330
1F
100
AcDbEntity
  8
DETAILS
  6
ByBlock
 62
     7
100
AcDbBlockReference
  2
HATCH_28_63b63f94-b513-427c-b1ff-69ee279fcbf3
 10
0.0
 20
0.0
 30
0.0
  0
INSERT
  5
490
330
1F
100
AcDbEntity
  8
DETAILS
  6
ByBlock
 62
     7
100
AcDbBlockReference
  2
HATCH_29_0f2da85a-96b1-4203-b059-02a324102dc7
 10
0.0
 20
0.0
 30
0.0
  0
INSERT
  5
491
330
1F
100
AcDbEntity
  8
DETAILS
  6
ByBlock
 62
     7
100
AcDbBlockReference
  2
HATCH_30_3117c716-2b67-4e6a-b9fe-f4117f8afb18
 10
0.0
 20
0.0
 30
0.0
  0
INSERT
  5
492
330
1F
100
AcDbEntity
  8
DETAILS
  6
ByBlock
 62
     7
100
AcDbBlockReference
  2
HATCH_31_d91ae28a-377e-413e-9170-c26f0374c630
 10
0.0
 20
0.0
 30
0.0
  0
INSERT
  5
493
330
1F
100
AcDbEntity
  8
DETAILS
  6
ByBlock
 62
     7
100
AcDbBlockReference
  2
HATCH_32_f2301a18-558e-4be9-8188-4331c49b7cc2
 10
0.0
 20
0.0
 30
0.0
  0
INSERT
  5
494
330
1F
100
AcDbEntity
  8
DETAILS
  6
ByBlock
 62
     7
100
AcDbBlockReference
  2
HATCH_33_569e081e-b5b7-465d-98b0-4f2d2e8bc564
 10
0.0
 20
0.0
 30
0.0
  0
INSERT
  5
495
330
1F
100
AcDbEntity
  8
DETAILS
  6
ByBlock
 62
     7
100
AcDbBlockReference
  2
HATCH_34_5e4a0200-9631-4026-8d1d-cb1007208075
 10
0.0
 20
0.0
 30
0.0
  0
INSERT
  5
496
330
1F
100
AcDbEntity
  8
DETAILS
  6
ByBlock
 62
     7
100
AcDbBlockReference
  2
HATCH_35_93c47104-0d5f-4791-b8ef-633faf8fced4
 10
0.0
 20
0.0
 30
0.0
  0
INSERT
  5
497
330
1F
100
AcDbEntity
  8
DETAILS
  6
ByBlock
 62
     7
100
AcDbBlockReference
  2
HATCH_36_29a11cf8-6d02-4d3b-9f1d-730da8159c43
 10
0.0
 20
0.0
 30
0.0
  0
INSERT
  5
498
330
1F
100
AcDbEntity
  8
DETAILS
  6
ByBlock
 62
     7
100
AcDbBlockReference
  2
HATCH_37_e6e56e3d-c8ff-4344-9601-52c225956e0b
 10
0.0
 20
0.0
 30
0.0
  0
INSERT
  5
499
330
1F
100
AcDbEntity
  8
DETAILS
  6
ByBlock
 62
     7
100
AcDbBlockReference
  2
HATCH_38_e3f5f46d-0cc9-4441-948d-5a8d1562e6e8
 10
0.0
 20
0.0
 30
0.0
  0
INSERT
  5
49A
330
1F
100
AcDbEntity
  8
DETAILS
  6
ByBlock
 62
     7
100
AcDbBlockReference
  2
HATCH_39_52459acd-0d10-4aaa-858f-107acd4bf8db
 10
0.0
 20
0.0
 30
0.0
  0
INSERT
  5
49B
330
1F
100
AcDbEntity
  8
DETAILS
  6
ByBlock
 62
     7
100
AcDbBlockReference
  2
HATCH_40_c9677c61-65ae-491b-a877-ec1877f64633
 10
0.0
 20
0.0
 30
0.0
  0
INSERT
  5
49C
330
1F
100
AcDbEntity
  8
DETAILS
  6
ByBlock
 62
     7
100
AcDbBlockReference
  2
HATCH_41_7894f058-fd88-4f0a-8289-975ad16745f9
 10
0.0
 20
0.0
 30
0.0
  0
INSERT
  5
49D
330
1F
100
AcDbEntity
  8
DETAILS
  6
ByBlock
 62
     7
100
AcDbBlockReference
  2
HATCH_42_be1ee807-a6f5-4db4-b9cd-6b6ca2ce55f1
 10
0.0
 20
0.0
 30
0.0
  0
INSERT
  5
49E
330
1F
100
AcDbEntity
  8
DETAILS
  6
ByBlock
 62
     7
100
AcDbBlockReference
  2
HATCH_43_c8aaab08-cdb3-4276-9c2c-923ee680bc47
 10
0.0
 20
0.0
 30
0.0
  0
INSERT
  5
49F
330
1F
100
AcDbEntity
  8
DETAILS
  6
ByBlock
 62
     7
100
AcDbBlockReference
  2
HATCH_44_89955287-20ce-4813-88db-f93d5481090e
 10
0.0
 20
0.0
 30
0.0
  0
INSERT
  5
4A0
330
1F
100
AcDbEntity
  8
DETAILS
  6
ByBlock
 62
     7
100
AcDbBlockReference
  2
HATCH_45_74672343-f8b0-4cd6-8f91-bea0d25f5bb5
 10
0.0
 20
0.0
 30
0.0
  0
INSERT
  5
4A1
330
1F
100
AcDbEntity
  8
DETAILS
  6
ByBlock
 62
     7
100
AcDbBlockReference
  2
HATCH_46_d1de6bfa-eba0-4f26-a7e6-4041489adda4
 10
0.0
 20
0.0
 30
0.0
  0
INSERT
  5
4A2
330
1F
100
AcDbEntity
  8
DETAILS
  6
ByBlock
 62
     7
100
AcDbBlockReference
  2
HATCH_47_eecba474-2b89-4c22-9f66-2b7ae3f5674c
 10
0.0
 20
0.0
 30
0.0
  0
INSERT
  5
4A3
330
1F
100
AcDbEntity
  8
DETAILS
  6
ByBlock
 62
     7
100
AcDbBlockReference
  2
HATCH_48_3902c1fc-d87f-454c-b95c-76ee462d3297
 10
0.0
 20
0.0
 30
0.0
  0
INSERT
  5
4A4
330
1F
100
AcDbEntity
  8
DETAILS
  6
ByBlock
 62
     7
100
AcDbBlockReference
  2
HATCH_49_697dc31c-2a4a-4b00-81d2-393e881536c2
 10
0.0
 20
0.0
 30
0.0
  0
INSERT
  5
4A5
330
1F
100
AcDbEntity
  8
DETAILS
  6
ByBlock
 62
     7
100
AcDbBlockReference
  2
HATCH_50_f7c13334-6eb6-4444-b100-2f7be932bf92
 10
0.0
 20
0.0
 30
0.0
  0
INSERT
  5
4A6
330
1F
100
AcDbEntity
  8
DETAILS
  6
ByBlock
 62
     7
100
AcDbBlockReference
  2
HATCH_51_01b88e33-479f-4fb8-9a80-8e3cdc26592d
 10
0.0
 20
0.0
 30
0.0
  0
INSERT
  5
4A7
330
1F
100
AcDbEntity
  8
DETAILS
  6
ByBlock
 62
     7
100
AcDbBlockReference
  2
HATCH_52_eaa21f8c-1148-4b89-97e8-193b8fa6e8a8
 10
0.0
 20
0.0
 30
0.0
  0
INSERT
  5
4A8
330
1F
100
AcDbEntity
  8
DETAILS
  6
ByBlock
 62
     7
100
AcDbBlockReference
  2
HATCH_53_5d8ace01-a3a0-4b25-ad4f-00b5dea677e8
 10
0.0
 20
0.0
 30
0.0
  0
INSERT
  5
4A9
330
1F
100
AcDbEntity
  8
DETAILS
  6
ByBlock
 62
     7
100
AcDbBlockReference
  2
HATCH_54_f55a958d-72b5-44bd-906a-912bd5cca131
 10
0.0
 20
0.0
 30
0.0
  0
INSERT
  5
4AA
330
1F
100
AcDbEntity
  8
DETAILS
  6
ByBlock
 62
     7
100
AcDbBlockReference
  2
HATCH_55_af6b1535-9239-437f-92cd-40bf4eef4858
 10
0.0
 20
0.0
 30
0.0
  0
INSERT
  5
4AB
330
1F
100
AcDbEntity
  8
DETAILS
  6
ByBlock
 62
     7
100
AcDbBlockReference
  2
HATCH_56_2eed3122-3684-41cd-b9d9-4d290b68b4be
 10
0.0
 20
0.0
 30
0.0
  0
INSERT
  5
4AC
330
1F
100
AcDbEntity
  8
DETAILS
  6
ByBlock
 62
     7
100
AcDbBlockReference
  2
HATCH_57_9de115dd-a9e2-480d-a856-e5b8d55869e6
 10
0.0
 20
0.0
 30
0.0
  0
INSERT
  5
4AD
330
1F
100
AcDbEntity
  8
DETAILS
  6
ByBlock
 62
     7
100
AcDbBlockReference
  2
HATCH_58_0c8ed01c-d37c-4b0a-9f54-33ac10b2e8b5
 10
0.0
 20
0.0
 30
0.0
  0
INSERT
  5
4AE
330
1F
100
AcDbEntity
  8
DETAILS
  6
ByBlock
 62
     7
100
AcDbBlockReference
  2
HATCH_59_ed51de47-9c2d-47e9-b09a-3ba4699dec29
 10
0.0
 20
0.0
 30
0.0
  0
INSERT
  5
4AF
330
1F
100
AcDbEntity
  8
DETAILS
  6
ByBlock
 62
     7
100
AcDbBlockReference
  2
HATCH_60_2a66bb18-acb8-46a7-877f-815e5236a9ae
 10
0.0
 20
0.0
 30
0.0
  0
INSERT
  5
4B0
330
1F
100
AcDbEntity
  8
DETAILS
  6
ByBlock
 62
     7
100
AcDbBlockReference
  2
HATCH_61_870d95a1-3910-4157-9f7c-77e04847945e
 10
0.0
 20
0.0
 30
0.0
  0
INSERT
  5
4B1
330
1F
100
AcDbEntity
  8
DETAILS
  6
ByBlock
 62
     7
100
AcDbBlockReference
  2
HATCH_62_806adc12-3597-4e96-aae1-d74ad016a3a0
 10
0.0
 20
0.0
 30
0.0
  0
INSERT
  5
4B2
330
1F
100
AcDbEntity
  8
DETAILS
  6
ByBlock
 62
     7
100
AcDbBlockReference
  2
HATCH_63_95568030-44a8-49be-8c83-d4bdffd8b209
 10
0.0
 20
0.0
 30
0.0
  0
INSERT
  5
4B3
330
1F
100
AcDbEntity
  8
DETAILS
  6
ByBlock
 62
     7
100
AcDbBlockReference
  2
HATCH_64_1a6d2104-1c13-422f-91f9-8cc8ac48f1cb
 10
0.0
 20
0.0
 30
0.0
  0
INSERT
  5
4B4
330
1F
100
AcDbEntity
  8
DETAILS
  6
ByBlock
 62
     7
100
AcDbBlockReference
  2
HATCH_65_de4aaf09-40c0-43d0-b2c6-5cdb2f3556f4
 10
0.0
 20
0.0
 30
0.0
  0
INSERT
  5
4B5
330
1F
100
AcDbEntity
  8
DETAILS
  6
ByBlock
 62
     7
100
AcDbBlockReference
  2
HATCH_66_0c79e35a-8427-4944-96b3-c028774280a5
 10
0.0
 20
0.0
 30
0.0
  0
INSERT
  5
4B6
330
1F
100
AcDbEntity
  8
DETAILS
  6
ByBlock
 62
     7
100
AcDbBlockReference
  2
HATCH_67_32a06ee8-bf8a-46e5-86f4-db153806900c
 10
0.0
 20
0.0
 30
0.0
  0
INSERT
  5
4B7
330
1F
100
AcDbEntity
  8
DETAILS
  6
ByBlock
 62
     7
100
AcDbBlockReference
  2
HATCH_68_6e373f72-144f-43cb-9c32-a6e3a3971823
 10
0.0
 20
0.0
 30
0.0
  0
INSERT
  5
4B8
330
1F
100
AcDbEntity
  8
DETAILS
  6
ByBlock
 62
     7
100
AcDbBlockReference
  2
HATCH_69_d59426a3-1195-4873-b1d2-d2592bc75113
 10
0.0
 20
0.0
 30
0.0
  0
INSERT
  5
4B9
330
1F
100
AcDbEntity
  8
DETAILS
  6
ByBlock
 62
     7
100
AcDbBlockReference
  2
HATCH_70_e1fadcc8-fc8d-4965-a729-d8c5f6c939e2
 10
0.0
 20
0.0
 30
0.0
  0
INSERT
  5
4BA
330
1F
100
AcDbEntity
  8
DETAILS
  6
ByBlock
 62
     7
100
AcDbBlockReference
  2
HATCH_71_8a00e229-67bf-47e1-8ecf-7566cec3d1a0
 10
0.0
 20
0.0
 30
0.0
  0
INSERT
  5
4BB
330
1F
100
AcDbEntity
  8
DETAILS
  6
ByBlock
 62
     7
100
AcDbBlockReference
  2
HATCH_72_8de62d3d-6678-40d0-b36c-179266edf828
 10
0.0
 20
0.0
 30
0.0
  0
INSERT
  5
4BC
330
1F
100
AcDbEntity
  8
DETAILS
  6
ByBlock
 62
     7
100
AcDbBlockReference
  2
HATCH_73_84e61a23-ded2-42e7-bfbc-92cd201edd0c
 10
0.0
 20
0.0
 30
0.0
  0
INSERT
  5
4BD
330
1F
100
AcDbEntity
  8
DETAILS
  6
ByBlock
 62
     7
100
AcDbBlockReference
  2
HATCH_74_37d70ac7-61ff-48c4-86af-b7d85979f652
 10
0.0
 20
0.0
 30
0.0
  0
INSERT
  5
4BE
330
1F
100
AcDbEntity
  8
DETAILS
  6
ByBlock
 62
     7
100
AcDbBlockReference
  2
HATCH_75_2bb704e2-8a32-4e99-a2f2-e0b143f2f2f7
 10
0.0
 20
0.0
 30
0.0
  0
INSERT
  5
4BF
330
1F
100
AcDbEntity
  8
DETAILS
  6
ByBlock
 62
     7
100
AcDbBlockReference
  2
HATCH_76_f8980270-8fd9-448d-9f03-bf2dacb3a7b8
 10
0.0
 20
0.0
 30
0.0
  0
INSERT
  5
4C0
330
1F
100
AcDbEntity
  8
DETAILS
  6
ByBlock
 62
     7
100
AcDbBlockReference
  2
HATCH_77_9218871e-e6a1-47ef-ab10-31505be93a23
 10
0.0
 20
0.0
 30
0.0
  0
INSERT
  5
4C1
330
1F
100
AcDbEntity
  8
DETAILS
  6
ByBlock
 62
     7
100
AcDbBlockReference
  2
HATCH_78_e4857cb0-99f8-4213-b954-206fc8e825f3
 10
0.0
 20
0.0
 30
0.0
  0
INSERT
  5
4C2
330
1F
100
AcDbEntity
  8
DETAILS
  6
ByBlock
 62
     7
100
AcDbBlockReference
  2
HATCH_79_cf4f8da1-ab2b-41f9-95a8-380503d6c506
 10
0.0
 20
0.0
 30
0.0
  0
INSERT
  5
4C3
330
1F
100
AcDbEntity
  8
DETAILS
  6
ByBlock
 62
     7
100
AcDbBlockReference
  2
HATCH_80_89aed6c9-53cc-4e14-9edd-5855cb8a5c36
 10
0.0
 20
0.0
 30
0.0
  0
INSERT
  5
4C4
330
1F
100
AcDbEntity
  8
DETAILS
  6
ByBlock
 62
     7
100
AcDbBlockReference
  2
HATCH_81_9dbf4994-31aa-4e7b-99c4-afd0ed7786b6
 10
0.0
 20
0.0
 30
0.0
  0
INSERT
  5
4C5
330
1F
100
AcDbEntity
  8
DETAILS
  6
ByBlock
 62
     7
100
AcDbBlockReference
  2
HATCH_82_51ea89fd-31e0-4380-ae8d-b006a419f61d
 10
0.0
 20
0.0
 30
0.0
  0
INSERT
  5
4C6
330
1F
100
AcDbEntity
  8
DETAILS
  6
ByBlock
 62
     7
100
AcDbBlockReference
  2
HATCH_83_3563fc0b-4699-4d87-8d51-84c47f434f41
 10
0.0
 20
0.0
 30
0.0
  0
INSERT
  5
4C7
330
1F
100
AcDbEntity
  8
DETAILS
  6
ByBlock
 62
     7
100
AcDbBlockReference
  2
HATCH_84_69f1073a-e0f4-4560-8bc2-af2538fd1beb
 10
0.0
 20
0.0
 30
0.0
  0
INSERT
  5
4C8
330
1F
100
AcDbEntity
  8
DETAILS
  6
ByBlock
 62
     7
100
AcDbBlockReference
  2
HATCH_85_695aaf7f-bace-4a4c-9738-9104f8d33eab
 10
0.0
 20
0.0
 30
0.0
  0
INSERT
  5
4C9
330
1F
100
AcDbEntity
  8
DETAILS
  6
ByBlock
 62
     7
100
AcDbBlockReference
  2
HATCH_86_2e66f997-7437-4a3e-b3a9-12fcc693da69
 10
0.0
 20
0.0
 30
0.0
  0
INSERT
  5
4CA
330
1F
100
AcDbEntity
  8
DETAILS
  6
ByBlock
 62
     7
100
AcDbBlockReference
  2
HATCH_87_bdedea60-aaf8-40a7-ac0b-dcef0294a9f9
 10
0.0
 20
0.0
 30
0.0
  0
INSERT
  5
4CB
330
1F
100
AcDbEntity
  8
DETAILS
  6
ByBlock
 62
     7
100
AcDbBlockReference
  2
HATCH_88_11540f9c-0423-4675-846d-cd999addc27e
 10
0.0
 20
0.0
 30
0.0
  0
INSERT
  5
4CC
330
1F
100
AcDbEntity
  8
DETAILS
  6
ByBlock
 62
     7
100
AcDbBlockReference
  2
HATCH_89_379d4989-8c64-42ad-bde2-1bf3add2a1c1
 10
0.0
 20
0.0
 30
0.0
  0
INSERT
  5
4CD
330
1F
100
AcDbEntity
  8
DETAILS
  6
ByBlock
 62
     7
100
AcDbBlockReference
  2
HATCH_90_53300fb0-1592-43f8-b204-75ada581a7f4
 10
0.0
 20
0.0
 30
0.0
  0
INSERT
  5
4CE
330
1F
100
AcDbEntity
  8
DETAILS
  6
ByBlock
 62
     7
100
AcDbBlockReference
  2
HATCH_91_0ba6774c-d5ac-4559-8a4b-59426edf56d6
 10
0.0
 20
0.0
 30
0.0
  0
INSERT
  5
4CF
330
1F
100
AcDbEntity
  8
DETAILS
  6
ByBlock
 62
     7
100
AcDbBlockReference
  2
HATCH_92_bc46cd0d-45c6-4d40-955d-11404aafa19d
 10
0.0
 20
0.0
 30
0.0
  0
INSERT
  5
4D0
330
1F
100
AcDbEntity
  8
DETAILS
  6
ByBlock
 62
     7
100
AcDbBlockReference
  2
HATCH_93_f3dc577b-6f93-41ff-ba1f-ea3ec6dfe0ab
 10
0.0
 20
0.0
 30
0.0
  0
INSERT
  5
4D1
330
1F
100
AcDbEntity
  8
DETAILS
  6
ByBlock
 62
     7
100
AcDbBlockReference
  2
HATCH_94_00b2efcd-29ef-4393-9912-380441c50cb3
 10
0.0
 20
0.0
 30
0.0
  0
INSERT
  5
4D2
330
1F
100
AcDbEntity
  8
DETAILS
  6
ByBlock
 62
     7
100
AcDbBlockReference
  2
HATCH_95_4b69dedd-7938-4af0-9acf-94c570152b24
 10
0.0
 20
0.0
 30
0.0
  0
INSERT
  5
4D3
330
1F
100
AcDbEntity
  8
DETAILS
  6
ByBlock
 62
     7
100
AcDbBlockReference
  2
HATCH_96_295f2f2b-2779-4750-91ea-b7f4c2a7804d
 10
0.0
 20
0.0
 30
0.0
  0
INSERT
  5
4D4
330
1F
100
AcDbEntity
  8
DETAILS
  6
ByBlock
 62
     7
100
AcDbBlockReference
  2
HATCH_97_8ad8a228-4999-499b-b67a-1af0a5ebe763
 10
0.0
 20
0.0
 30
0.0
  0
INSERT
  5
4D5
330
1F
100
AcDbEntity
  8
DETAILS
  6
ByBlock
 62
     7
100
AcDbBlockReference
  2
HATCH_98_4faec769-ea9c-49fb-bc66-9dc9d4f2ffc7
 10
0.0
 20
0.0
 30
0.0
  0
INSERT
  5
4D6
330
1F
100
AcDbEntity
  8
DETAILS
  6
ByBlock
 62
     7
100
AcDbBlockReference
  2
HATCH_99_6a807723-0adf-491a-960e-c69f0fba8ad8
 10
0.0
 20
0.0
 30
0.0
  0
INSERT
  5
4D7
330
1F
100
AcDbEntity
  8
DETAILS
  6
ByBlock
 62
     7
100
AcDbBlockReference
  2
HATCH_100_140c9563-cd0e-43f7-a5c9-3c8a04cc6973
 10
0.0
 20
0.0
 30
0.0
  0
INSERT
  5
4D8
330
1F
100
AcDbEntity
  8
DETAILS
  6
ByBlock
 62
     7
100
AcDbBlockReference
  2
HATCH_101_9b90fa6d-8b5c-4aa7-b8ad-d2c30f7238ab
 10
0.0
 20
0.0
 30
0.0
  0
INSERT
  5
4D9
330
1F
100
AcDbEntity
  8
DETAILS
  6
ByBlock
 62
     7
100
AcDbBlockReference
  2
HATCH_102_687ead84-0e01-4ab1-8b9a-881113552716
 10
0.0
 20
0.0
 30
0.0
  0
INSERT
  5
4DA
330
1F
100
AcDbEntity
  8
DETAILS
  6
ByBlock
 62
     7
100
AcDbBlockReference
  2
HATCH_103_9f6b0850-6169-4f2f-82da-f21f48028529
 10
0.0
 20
0.0
 30
0.0
  0
INSERT
  5
4DB
330
1F
100
AcDbEntity
  8
DETAILS
  6
ByBlock
 62
     7
100
AcDbBlockReference
  2
HATCH_104_880acef1-a137-415c-abc9-df6e85791cd0
 10
0.0
 20
0.0
 30
0.0
  0
INSERT
  5
4DC
330
1F
100
AcDbEntity
  8
DETAILS
  6
ByBlock
 62
     7
100
AcDbBlockReference
  2
HATCH_105_b9a4bc57-20ea-429d-8979-d1f16e87447e
 10
0.0
 20
0.0
 30
0.0
  0
INSERT
  5
4DD
330
1F
100
AcDbEntity
  8
DETAILS
  6
ByBlock
 62
     7
100
AcDbBlockReference
  2
HATCH_106_df2e185b-8d85-48ca-a692-bc4bd57bc02f
 10
0.0
 20
0.0
 30
0.0
  0
INSERT
  5
4DE
330
1F
100
AcDbEntity
  8
DETAILS
  6
ByBlock
 62
     7
100
AcDbBlockReference
  2
HATCH_107_e56c9748-0709-4dfd-93ca-b901242b8849
 10
0.0
 20
0.0
 30
0.0
  0
INSERT
  5
4DF
330
1F
100
AcDbEntity
  8
DETAILS
  6
ByBlock
 62
     7
100
AcDbBlockReference
  2
HATCH_108_9dc060f4-b7b1-4f8b-bdd1-fadc7461aa06
 10
0.0
 20
0.0
 30
0.0
  0
INSERT
  5
4E0
330
1F
100
AcDbEntity
  8
DETAILS
  6
ByBlock
 62
     7
100
AcDbBlockReference
  2
HATCH_109_473960c7-6e4b-45af-91c3-ab357991fb3c
 10
0.0
 20
0.0
 30
0.0
  0
INSERT
  5
4E1
330
1F
100
AcDbEntity
  8
DETAILS
  6
ByBlock
 62
     7
100
AcDbBlockReference
  2
HATCH_110_26200a72-0eee-42ce-8d68-ce269b951a79
 10
0.0
 20
0.0
 30
0.0
  0
INSERT
  5
4E2
330
1F
100
AcDbEntity
  8
DETAILS
  6
ByBlock
 62
     7
100
AcDbBlockReference
  2
HATCH_111_ea24ddcf-da69-48b1-89fb-1be51f8ef6a7
 10
0.0
 20
0.0
 30
0.0
  0
INSERT
  5
4E3
330
1F
100
AcDbEntity
  8
DETAILS
  6
ByBlock
 62
     7
100
AcDbBlockReference
  2
HATCH_112_a1a578cc-d9e1-48be-9267-f31ccc1203f5
 10
0.0
 20
0.0
 30
0.0
  0
INSERT
  5
4E4
330
1F
100
AcDbEntity
  8
DETAILS
  6
ByBlock
 62
     7
100
AcDbBlockReference
  2
HATCH_113_3f65b772-8a51-4fad-8252-e74444d5d29b
 10
0.0
 20
0.0
 30
0.0
  0
INSERT
  5
4E5
330
1F
100
AcDbEntity
  8
DETAILS
  6
ByBlock
 62
     7
100
AcDbBlockReference
  2
HATCH_114_ea43e1c6-d9c5-4fc2-b256-45d43132699a
 10
0.0
 20
0.0
 30
0.0
  0
INSERT
  5
4E6
330
1F
100
AcDbEntity
  8
DETAILS
  6
ByBlock
 62
     7
100
AcDbBlockReference
  2
HATCH_115_8010f4c2-c4f7-42dd-be3f-74b28318ab0d
 10
0.0
 20
0.0
 30
0.0
  0
INSERT
  5
4E7
330
1F
100
AcDbEntity
  8
DETAILS
  6
ByBlock
 62
     7
100
AcDbBlockReference
  2
HATCH_116_896b27d4-9343-4ee3-b376-95644b2a82d7
 10
0.0
 20
0.0
 30
0.0
  0
INSERT
  5
4E8
330
1F
100
AcDbEntity
  8
DETAILS
  6
ByBlock
 62
     7
100
AcDbBlockReference
  2
HATCH_117_40641e2d-7b49-420b-8702-07f88fb5a366
 10
0.0
 20
0.0
 30
0.0
  0
INSERT
  5
4E9
330
1F
100
AcDbEntity
  8
DETAILS
  6
ByBlock
 62
     7
100
AcDbBlockReference
  2
HATCH_118_f80cbd75-d76b-41ad-96fc-14a7e8c41f0a
 10
0.0
 20
0.0
 30
0.0
  0
INSERT
  5
4EA
330
1F
100
AcDbEntity
  8
DETAILS
  6
ByBlock
 62
     7
100
AcDbBlockReference
  2
HATCH_119_2e7c20da-e463-4bde-b6e0-6ca9998012a0
 10
0.0
 20
0.0
 30
0.0
  0
INSERT
  5
4EB
330
1F
100
AcDbEntity
  8
DETAILS
  6
ByBlock
 62
     7
100
AcDbBlockReference
  2
HATCH_120_fbd83f68-c924-47d9-ae1e-4a857329a75b
 10
0.0
 20
0.0
 30
0.0
  0
INSERT
  5
4EC
330
1F
100
AcDbEntity
  8
DETAILS
  6
ByBlock
 62
     7
100
AcDbBlockReference
  2
HATCH_121_e9f78dbe-e597-4111-9c11-56eef3ba0698
 10
0.0
 20
0.0
 30
0.0
  0
INSERT
  5
4ED
330
1F
100
AcDbEntity
  8
DETAILS
  6
ByBlock
 62
     7
100
AcDbBlockReference
  2
HATCH_122_7512231b-7c61-42a4-8b16-ff60e39f2f5c
 10
0.0
 20
0.0
 30
0.0
  0
INSERT
  5
4EE
330
1F
100
AcDbEntity
  8
DETAILS
  6
ByBlock
 62
     7
100
AcDbBlockReference
  2
HATCH_123_caa8bfc5-4ce7-43e1-aadd-2008f7d5c515
 10
0.0
 20
0.0
 30
0.0
  0
INSERT
  5
4EF
330
1F
100
AcDbEntity
  8
DETAILS
  6
ByBlock
 62
     7
100
AcDbBlockReference
  2
HATCH_124_7ff65752-8d6e-49fa-9a7b-4831c353147c
 10
0.0
 20
0.0
 30
0.0
  0
INSERT
  5
4F0
330
1F
100
AcDbEntity
  8
DETAILS
  6
ByBlock
 62
     7
100
AcDbBlockReference
  2
HATCH_125_7cc5c943-e8bd-47e5-b4bc-5dff8da27614
 10
0.0
 20
0.0
 30
0.0
  0
ENDSEC
  0
SECTION
  2
OBJECTS
  0
DICTIONARY
  5
C
330
0
100
AcDbDictionary
281
     1
  3
ACAD_GROUP
350
D
  3
ACAD_LAYOUT
350
1A
  3
ACAD_MATERIAL
350
3B
  3
ACAD_MLEADERSTYLE
350
4F3
  3
ACAD_MLINESTYLE
350
17
  3
ACAD_PLOTSETTINGS
350
19
  3
ACAD_PLOTSTYLENAME
350
E
  3
ACAD_VISUALSTYLE
350
2A
  3
AcDbVariableDictionary
350
4F1
  0
DICTIONARY
  5
D
102
{ACAD_REACTORS
330
C
102
}
330
C
100
AcDbDictionary
281
     1
  0
DICTIONARY
  5
1A
102
{ACAD_REACTORS
330
C
102
}
330
C
100
AcDbDictionary
281
     1
  3
Layout1
350
1E
  3
Layout2
350
26
  3
Model
350
22
  0
DICTIONARY
  5
3B
102
{ACAD_REACTORS
330
C
102
}
330
C
100
AcDbDictionary
281
     1
  3
ByBlock
350
3D
  3
ByLayer
350
3C
  3
Global
350
3E
  0
DICTIONARY
  5
4F3
102
{ACAD_REACTORS
330
C
102
}
330
C
100
AcDbDictionary
281
     1
  0
DICTIONARY
  5
17
102
{ACAD_REACTORS
330
C
102
}
330
C
100
AcDbDictionary
281
     1
  3
Standard
350
18
  0
DICTIONARY
  5
19
102
{ACAD_REACTORS
330
C
102
}
330
C
100
AcDbDictionary
281
     1
  0
ACDBDICTIONARYWDFLT
  5
E
102
{ACAD_REACTORS
330
C
102
}
330
C
100
AcDbDictionary
281
     1
  3
Normal
350
F
100
AcDbDictionaryWithDefault
340
F
  0
DICTIONARY
  5
2A
102
{ACAD_REACTORS
330
C
102
}
330
C
100
AcDbDictionary
281
     1
  3
2dWireframe
350
2F
  3
3D Hidden
350
31
  3
3dWireframe
350
30
  3
Basic
350
32
  3
Brighten
350
36
  3
ColorChange
350
3A
  3
Conceptual
350
34
  3
Dim
350
35
  3
Facepattern
350
39
  3
Flat
350
2B
  3
FlatWithEdges
350
2C
  3
Gouraud
350
2D
  3
GouraudWithEdges
350
2E
  3
Linepattern
350
38
  3
Realistic
350
33
  3
Thicken
350
37
  0
DICTIONARY
  5
4F1
102
{ACAD_REACTORS
330
C
102
}
330
C
100
AcDbDictionary
281
     1
  3
DIMASSOC
350
4F4
  3
HIDETEXT
350
4F5
  0
LAYOUT
  5
1E
102
{ACAD_REACTORS
330
1A
102
}
330
1A
100
AcDbPlotSettings
  1

  2
none_device
  4

  6

 40
0.0
 41
0.0
 42
0.0
 43
0.0
 44
0.0
 45
0.0
 46
0.0
 47
0.0
 48
0.0
 49
0.0
140
0.0
141
0.0
142
1.0
143
1.0
 70
   688
 72
     0
 73
     0
 74
     5
  7

 75
    16
147
1.0
148
0.0
149
0.0
100
AcDbLayout
  1
Layout1
 70
     1
 71
     1
 10
0.0
 20
0.0
 11
12.0
 21
9.0
 12
0.0
 22
0.0
 32
0.0
 14
1.000000000000000E+20
 24
1.000000000000000E+20
 34
1.000000000000000E+20
 15
-1.000000000000000E+20
 25
-1.000000000000000E+20
 35
-1.000000000000000E+20
146
0.0
 13
0.0
 23
0.0
 33
0.0
 16
1.0
 26
0.0
 36
0.0
 17
0.0
 27
1.0
 37
0.0
 76
     0
330
1B
  0
LAYOUT
  5
26
102
{ACAD_REACTORS
330
1A
102
}
330
1A
100
AcDbPlotSettings
  1

  2
none_device
  4

  6

 40
0.0
 41
0.0
 42
0.0
 43
0.0
 44
0.0
 45
0.0
 46
0.0
 47
0.0
 48
0.0
 49
0.0
140
0.0
141
0.0
142
1.0
143
1.0
 70
   688
 72
     0
 73
     0
 74
     5
  7

 75
    16
147
1.0
148
0.0
149
0.0
100
AcDbLayout
  1
Layout2
 70
     1
 71
     2
 10
0.0
 20
0.0
 11
0.0
 21
0.0
 12
0.0
 22
0.0
 32
0.0
 14
0.0
 24
0.0
 34
0.0
 15
0.0
 25
0.0
 35
0.0
146
0.0
 13
0.0
 23
0.0
 33
0.0
 16
1.0
 26
0.0
 36
0.0
 17
0.0
 27
1.0
 37
0.0
 76
     0
330
23
  0
LAYOUT
  5
22
102
{ACAD_REACTORS
330
1A
102
}
330
1A
100
AcDbPlotSettings
  1

  2
none_device
  4

  6

 40
0.0
 41
0.0
 42
0.0
 43
0.0
 44
0.0
 45
0.0
 46
0.0
 47
0.0
 48
0.0
 49
0.0
140
0.0
141
0.0
142
1.0
143
1.0
 70
  1712
 72
     0
 73
     0
 74
     0
  7

 75
     0
147
1.0
148
0.0
149
0.0
100
AcDbLayout
  1
Model
 70
     1
 71
     0
 10
-2.640239096859542
 20
-2.638146951660838
 11
55.44504032228762
 21
55.40105246794692
 12
0.0
 22
0.0
 32
0.0
 14
-2.640239096859542
 24
-2.638146951660838
 34
0.0
 15
55.44504032228762
 25
55.40105246794692
 35
0.0
146
0.0
 13
0.0
 23
0.0
 33
0.0
 16
1.0
 26
0.0
 36
0.0
 17
0.0
 27
1.0
 37
0.0
 76
     0
330
1F
331
29
  0
MATERIAL
  5
3D
102
{ACAD_REACTORS
330
3B
102
}
102
{ACAD_XDICTIONARY
360
518
102
}
330
3B
100
AcDbMaterial
  1
ByBlock
  0
MATERIAL
  5
3C
102
{ACAD_REACTORS
330
3B
102
}
102
{ACAD_XDICTIONARY
360
516
102
}
330
3B
100
AcDbMaterial
  1
ByLayer
  0
MATERIAL
  5
3E
102
{ACAD_REACTORS
330
3B
102
}
102
{ACAD_XDICTIONARY
360
51A
102
}
330
3B
100
AcDbMaterial
  1
Global
  0
MLINESTYLE
  5
18
102
{ACAD_REACTORS
330
17
102
}
330
17
100
AcDbMlineStyle
  2
Standard
 70
     0
  3

 62
   256
 51
90.0
 52
90.0
 71
     2
 49
0.5
 62
   256
  6
BYLAYER
 49
-0.5
 62
   256
  6
BYLAYER
  0
ACDBPLACEHOLDER
  5
F
102
{ACAD_REACTORS
330
E
102
}
330
E
  0
VISUALSTYLE
  5
2F
102
{ACAD_REACTORS
330
2A
102
}
102
{ACAD_XDICTIONARY
360
4FE
102
}
330
2A
100
AcDbVisualStyle
  2
2dWireframe
 70
     4
 71
     0
 72
     2
 73
     0
 90
        0
 40
-0.6
 41
-30.0
 62
     5
 63
     7
 74
     1
 91
        4
 64
     7
 65
   257
 75
     1
175
     1
 42
1.0
 92
        0
 66
   257
 43
1.0
 76
     1
 77
     6
 78
     2
 67
     7
 79
     5
170
     0
171
     0
290
     0
174
     0
 93
        1
 44
0.0
173
     0
291
     0
 45
0.0
1001
ACAD
1000
AcDbSavedByObjectVersion
1070
     0
  0
VISUALSTYLE
  5
31
102
{ACAD_REACTORS
330
2A
102
}
102
{ACAD_XDICTIONARY
360
502
102
}
330
2A
100
AcDbVisualStyle
  2
3D Hidden
 70
     6
 71
     1
 72
     2
 73
     2
 90
        0
 40
-0.6
 41
-30.0
 62
     5
 63
     7
 74
     2
 91
        2
 64
     7
 65
   257
 75
     2
175
     1
 42
40.0
 92
        0
 66
   257
 43
1.0
 76
     1
 77
     6
 78
     2
 67
     7
 79
     3
170
     0
171
     0
290
     0
174
     0
 93
        1
 44
0.0
173
     0
291
     0
 45
0.0
1001
ACAD
1000
AcDbSavedByObjectVersion
1070
     0
  0
VISUALSTYLE
  5
30
102
{ACAD_REACTORS
330
2A
102
}
102
{ACAD_XDICTIONARY
360
500
102
}
330
2A
100
AcDbVisualStyle
  2
3dWireframe
 70
     5
 71
     0
 72
     2
 73
     0
 90
        0
 40
-0.6
 41
-30.0
 62
     5
 63
     7
 74
     1
 91
        4
 64
     7
 65
   257
 75
     1
175
     1
 42
1.0
 92
        0
 66
   257
 43
1.0
 76
     1
 77
     6
 78
     2
 67
     7
 79
     5
170
     0
171
     0
290
     0
174
     0
 93
        1
 44
0.0
173
     0
291
     0
 45
0.0
1001
ACAD
1000
AcDbSavedByObjectVersion
1070
     0
  0
VISUALSTYLE
  5
32
102
{ACAD_REACTORS
330
2A
102
}
102
{ACAD_XDICTIONARY
360
504
102
}
330
2A
100
AcDbVisualStyle
  2
Basic
 70
     7
 71
     1
 72
     0
 73
     1
 90
        0
 40
-0.6
 41
-30.0
 62
     5
 63
     7
 74
     0
 91
        4
 64
     7
 65
   257
 75
     1
175
     1
 42
1.0
 92
        8
 66
     7
 43
1.0
 76
     1
 77
     6
 78
     2
 67
     7
 79
     5
170
     0
171
     0
290
     0
174
     0
 93
        1
 44
0.0
173
     0
291
     1
 45
0.0
1001
ACAD
1000
AcDbSavedByObjectVersion
1070
     0
  0
VISUALSTYLE
  5
36
102
{ACAD_REACTORS
330
2A
102
}
102
{ACAD_XDICTIONARY
360
50C
102
}
330
2A
100
AcDbVisualStyle
  2
Brighten
 70
    12
 71
     2
 72
     2
 73
     0
 90
        0
 40
-0.6
 41
-30.0
 62
     5
 63
     7
 74
     1
 91
        4
 64
     7
 65
   257
 75
     1
175
     1
 42
1.0
 92
        8
 66
     7
 43
1.0
 76
     1
 77
     6
 78
     2
 67
     7
 79
     5
170
     0
171
     0
290
     0
174
     0
 93
        1
 44
50.0
173
     0
291
     1
 45
0.0
1001
ACAD
1000
AcDbSavedByObjectVersion
1070
     0
  0
VISUALSTYLE
  5
3A
102
{ACAD_REACTORS
330
2A
102
}
102
{ACAD_XDICTIONARY
360
514
102
}
330
2A
100
AcDbVisualStyle
  2
ColorChange
 70
    16
 71
     2
 72
     2
 73
     3
 90
        0
 40
-0.6
 41
-30.0
 62
     5
 63
     8
 74
     1
 91
        4
 64
     7
 65
   257
 75
     1
175
     1
 42
1.0
 92
        8
 66
     8
 43
1.0
 76
     1
 77
     6
 78
     2
 67
     7
 79
     5
170
     0
171
     0
290
     0
174
     0
 93
        1
 44
0.0
173
     0
291
     1
 45
0.0
1001
ACAD
1000
AcDbSavedByObjectVersion
1070
     0
  0
VISUALSTYLE
  5
34
102
{ACAD_REACTORS
330
2A
102
}
102
{ACAD_XDICTIONARY
360
508
102
}
330
2A
100
AcDbVisualStyle
  2
Conceptual
 70
     9
 71
     3
 72
     2
 73
     0
 90
        0
 40
-0.6
 41
-30.0
 62
     5
 63
     7
 74
     2
 91
        2
 64
     7
 65
   257
 75
     1
175
     1
 42
40.0
 92
        8
 66
     7
 43
1.0
 76
     1
 77
     6
 78
     2
 67
     7
 79
     3
170
     0
171
     0
290
     0
174
     0
 93
        1
 44
0.0
173
     0
291
     0
 45
0.0
1001
ACAD
1000
AcDbSavedByObjectVersion
1070
     0
  0
VISUALSTYLE
  5
35
102
{ACAD_REACTORS
330
2A
102
}
102
{ACAD_XDICTIONARY
360
50A
102
}
330
2A
100
AcDbVisualStyle
  2
Dim
 70
    11
 71
     2
 72
     2
 73
     0
 90
        0
 40
-0.6
 41
-30.0
 62
     5
 63
     7
 74
     1
 91
        4
 64
     7
 65
   257
 75
     1
175
     1
 42
1.0
 92
        8
 66
     7
 43
1.0
 76
     1
 77
     6
 78
     2
 67
     7
 79
     5
170
     0
171
     0
290
     0
174
     0
 93
        1
 44
-50.0
173
     0
291
     1
 45
0.0
1001
ACAD
1000
AcDbSavedByObjectVersion
1070
     0
  0
VISUALSTYLE
  5
39
102
{ACAD_REACTORS
330
2A
102
}
102
{ACAD_XDICTIONARY
360
512
102
}
330
2A
100
AcDbVisualStyle
  2
Facepattern
 70
    15
 71
     2
 72
     2
 73
     0
 90
        0
 40
-0.6
 41
-30.0
 62
     5
 63
     7
 74
     1
 91
        4
 64
     7
 65
   257
 75
     1
175
     1
 42
1.0
 92
        8
 66
     7
 43
1.0
 76
     1
 77
     6
 78
     2
 67
     7
 79
     5
170
     0
171
     0
290
     0
174
     0
 93
        1
 44
0.0
173
     0
291
     1
 45
0.0
1001
ACAD
1000
AcDbSavedByObjectVersion
1070
     0
  0
VISUALSTYLE
  5
2B
102
{ACAD_REACTORS
330
2A
102
}
102
{ACAD_XDICTIONARY
360
4F6
102
}
330
2A
100
AcDbVisualStyle
  2
Flat
 70
     0
 71
     2
 72
     1
 73
     1
 90
        2
 40
-0.6
 41
30.0
 62
     5
 63
     7
 74
     0
 91
        4
 64
     7
 65
   257
 75
     1
175
     1
 42
1.0
 92
        8
 66
     7
 43
1.0
 76
     1
 77
     6
 78
     2
 67
     7
 79
     5
170
     0
171
     0
290
     0
174
     0
 93
       13
 44
0.0
173
     0
291
     1
 45
0.0
1001
ACAD
1000
AcDbSavedByObjectVersion
1070
     0
  0
VISUALSTYLE
  5
2C
102
{ACAD_REACTORS
330
2A
102
}
102
{ACAD_XDICTIONARY
360
4F8
102
}
330
2A
100
AcDbVisualStyle
  2
FlatWithEdges
 70
     1
 71
     2
 72
     1
 73
     1
 90
        2
 40
-0.6
 41
30.0
 62
     5
 63
     7
 74
     1
 91
        4
 64
     7
 65
   257
 75
     1
175
     1
 42
1.0
 92
        0
 66
   257
 43
1.0
 76
     1
 77
     6
 78
     2
 67
     7
 79
     5
170
     0
171
     0
290
     0
174
     0
 93
       13
 44
0.0
173
     0
291
     1
 45
0.0
1001
ACAD
1000
AcDbSavedByObjectVersion
1070
     0
  0
VISUALSTYLE
  5
2D
102
{ACAD_REACTORS
330
2A
102
}
102
{ACAD_XDICTIONARY
360
4FA
102
}
330
2A
100
AcDbVisualStyle
  2
Gouraud
 70
     2
 71
     2
 72
     2
 73
     1
 90
        2
 40
-0.6
 41
30.0
 62
     5
 63
     7
 74
     0
 91
        4
 64
     7
 65
   257
 75
     1
175
     1
 42
1.0
 92
        0
 66
     7
 43
1.0
 76
     1
 77
     6
 78
     2
 67
     7
 79
     5
170
     0
171
     0
290
     0
174
     0
 93
       13
 44
0.0
173
     0
291
     1
 45
0.0
1001
ACAD
1000
AcDbSavedByObjectVersion
1070
     0
  0
VISUALSTYLE
  5
2E
102
{ACAD_REACTORS
330
2A
102
}
102
{ACAD_XDICTIONARY
360
4FC
102
}
330
2A
100
AcDbVisualStyle
  2
GouraudWithEdges
 70
     3
 71
     2
 72
     2
 73
     1
 90
        2
 40
-0.6
 41
30.0
 62
     5
 63
     7
 74
     1
 91
        4
 64
     7
 65
   257
 75
     1
175
     1
 42
1.0
 92
        0
 66
   257
 43
1.0
 76
     1
 77
     6
 78
     2
 67
     7
 79
     5
170
     0
171
     0
290
     0
174
     0
 93
       13
 44
0.0
173
     0
291
     1
 45
0.0
1001
ACAD
1000
AcDbSavedByObjectVersion
1070
     0
  0
VISUALSTYLE
  5
38
102
{ACAD_REACTORS
330
2A
102
}
102
{ACAD_XDICTIONARY
360
510
102
}
330
2A
100
AcDbVisualStyle
  2
Linepattern
 70
    14
 71
     2
 72
     2
 73
     0
 90
        0
 40
-0.6
 41
-30.0
 62
     5
 63
     7
 74
     1
 91
        4
 64
     7
 65
   257
 75
     7
175
     7
 42
1.0
 92
        8
 66
     7
 43
1.0
 76
     1
 77
     6
 78
     2
 67
     7
 79
     5
170
     0
171
     0
290
     0
174
     0
 93
        1
 44
0.0
173
     0
291
     1
 45
0.0
1001
ACAD
1000
AcDbSavedByObjectVersion
1070
     0
  0
VISUALSTYLE
  5
33
102
{ACAD_REACTORS
330
2A
102
}
102
{ACAD_XDICTIONARY
360
506
102
}
330
2A
100
AcDbVisualStyle
  2
Realistic
 70
     8
 71
     2
 72
     2
 73
     0
 90
        0
 40
-0.6
 41
-30.0
 62
     5
 63
     7
 74
     1
 91
        0
 64
     7
 65
   257
 75
     1
175
     1
 42
1.0
 92
        8
 66
     8
 43
1.0
 76
     1
 77
     6
 78
     2
 67
     7
 79
     5
170
     0
171
     0
290
     0
174
     0
 93
       13
 44
0.0
173
     0
291
     0
 45
0.0
1001
ACAD
1000
AcDbSavedByObjectVersion
1070
     0
  0
VISUALSTYLE
  5
37
102
{ACAD_REACTORS
330
2A
102
}
102
{ACAD_XDICTIONARY
360
50E
102
}
330
2A
100
AcDbVisualStyle
  2
Thicken
 70
    13
 71
     2
 72
     2
 73
     0
 90
        0
 40
-0.6
 41
-30.0
 62
     5
 63
     7
 74
     1
 91
        4
 64
     7
 65
   257
 75
     1
175
     1
 42
1.0
 92
       12
 66
     7
 43
1.0
 76
     1
 77
     6
 78
     2
 67
     7
 79
     5
170
     0
171
     0
290
     0
174
     0
 93
        1
 44
0.0
173
     0
291
     1
 45
0.0
1001
ACAD
1000
AcDbSavedByObjectVersion
1070
     0
  0
DICTIONARYVAR
  5
4F4
102
{ACAD_REACTORS
330
4F1
102
}
330
4F1
100
DictionaryVariables
280
     0
  1
2
  0
DICTIONARYVAR
  5
4F5
102
{ACAD_REACTORS
330
4F1
102
}
330
4F1
100
DictionaryVariables
280
     0
  1
1
  0
DICTIONARY
  5
518
330
3D
100
AcDbDictionary
280
     1
281
     1
  3
ACAD_XREC_ROUNDTRIP
360
519
  0
DICTIONARY
  5
516
330
3C
100
AcDbDictionary
280
     1
281
     1
  3
ACAD_XREC_ROUNDTRIP
360
517
  0
DICTIONARY
  5
51A
330
3E
100
AcDbDictionary
280
     1
281
     1
  3
ACAD_XREC_ROUNDTRIP
360
51B
  0
DICTIONARY
  5
4FE
330
2F
100
AcDbDictionary
280
     1
281
     1
  3
ACAD_XREC_ROUNDTRIP
360
4FF
  0
DICTIONARY
  5
502
330
31
100
AcDbDictionary
280
     1
281
     1
  3
ACAD_XREC_ROUNDTRIP
360
503
  0
DICTIONARY
  5
500
330
30
100
AcDbDictionary
280
     1
281
     1
  3
ACAD_XREC_ROUNDTRIP
360
501
  0
DICTIONARY
  5
504
330
32
100
AcDbDictionary
280
     1
281
     1
  3
ACAD_XREC_ROUNDTRIP
360
505
  0
DICTIONARY
  5
50C
330
36
100
AcDbDictionary
280
     1
281
     1
  3
ACAD_XREC_ROUNDTRIP
360
50D
  0
DICTIONARY
  5
514
330
3A
100
AcDbDictionary
280
     1
281
     1
  3
ACAD_XREC_ROUNDTRIP
360
515
  0
DICTIONARY
  5
508
330
34
100
AcDbDictionary
280
     1
281
     1
  3
ACAD_XREC_ROUNDTRIP
360
509
  0
DICTIONARY
  5
50A
330
35
100
AcDbDictionary
280
     1
281
     1
  3
ACAD_XREC_ROUNDTRIP
360
50B
  0
DICTIONARY
  5
512
330
39
100
AcDbDictionary
280
     1
281
     1
  3
ACAD_XREC_ROUNDTRIP
360
513
  0
DICTIONARY
  5
4F6
330
2B
100
AcDbDictionary
280
     1
281
     1
  3
ACAD_XREC_ROUNDTRIP
360
4F7
  0
DICTIONARY
  5
4F8
330
2C
100
AcDbDictionary
280
     1
281
     1
  3
ACAD_XREC_ROUNDTRIP
360
4F9
  0
DICTIONARY
  5
4FA
330
2D
100
AcDbDictionary
280
     1
281
     1
  3
ACAD_XREC_ROUNDTRIP
360
4FB
  0
DICTIONARY
  5
4FC
330
2E
100
AcDbDictionary
280
     1
281
     1
  3
ACAD_XREC_ROUNDTRIP
360
4FD
  0
DICTIONARY
  5
510
330
38
100
AcDbDictionary
280
     1
281
     1
  3
ACAD_XREC_ROUNDTRIP
360
511
  0
DICTIONARY
  5
506
330
33
100
AcDbDictionary
280
     1
281
     1
  3
ACAD_XREC_ROUNDTRIP
360
507
  0
DICTIONARY
  5
50E
330
37
100
AcDbDictionary
280
     1
281
     1
  3
ACAD_XREC_ROUNDTRIP
360
50F
  0
XRECORD
  5
519
102
{ACAD_REACTORS
330
518
102
}
330
518
100
AcDbXrecord
280
     1
102
MATERIAL
148
0.0
149
0.0
149
0.0
 93
        0
 94
      127
282
     0
 72
     1
 77
     1
171
     1
175
     1
179
     1
273
     0
  0
XRECORD
  5
517
102
{ACAD_REACTORS
330
516
102
}
330
516
100
AcDbXrecord
280
     1
102
MATERIAL
148
0.0
149
0.0
149
0.0
 93
        0
 94
      127
282
     0
 72
     1
 77
     1
171
     1
175
     1
179
     1
273
     0
  0
XRECORD
  5
51B
102
{ACAD_REACTORS
330
51A
102
}
330
51A
100
AcDbXrecord
280
     1
102
MATERIAL
148
0.0
149
0.0
149
0.0
 93
        0
 94
      127
282
     0
 72
     1
 77
     1
171
     1
175
     1
179
     1
273
     0
  0
XRECORD
  5
4FF
102
{ACAD_REACTORS
330
4FE
102
}
330
4FE
100
AcDbXrecord
280
     1
102
RTVSPropertyOp0
 70
     1
102
RTVSPropertyOp1
 70
     1
102
RTVSPropertyOp2
 70
     1
102
RTVSPropertyOp3
 70
     1
102
RTVSPropertyOp4
 70
     1
102
RTVSPropertyOp5
 70
     1
102
RTVSPropertyOp6
 70
     1
102
RTVSPropertyOp7
 70
     1
102
RTVSPropertyOp8
 70
     1
102
RTVSPropertyOp9
 70
     1
102
RTVSPropertyOp10
 70
     1
102
RTVSPropertyOp11
 70
     1
102
RTVSPropertyOp12
 70
     1
102
RTVSPropertyOp13
 70
     1
102
RTVSPropertyOp14
 70
     1
102
RTVSPropertyOp15
 70
     1
102
RTVSPropertyOp16
 70
     1
102
RTVSPropertyOp17
 70
     1
102
RTVSPropertyOp18
 70
     1
102
RTVSPropertyOp19
 70
     1
102
RTVSPropertyOp20
 70
     1
102
RTVSPropertyOp21
 70
     1
102
RTVSPropertyOp22
 70
     1
102
RTVSPropertyOp23
 70
     1
102
RTVSPropertyOp24
 70
     1
102
RTVSPropertyOp25
 70
     1
102
RTVSPropertyOp26
 70
     1
102
RTVSPropertyOp27
 70
     1
  0
XRECORD
  5
503
102
{ACAD_REACTORS
330
502
102
}
330
502
100
AcDbXrecord
280
     1
102
RTVSPropertyOp0
 70
     1
102
RTVSPropertyOp1
 70
     1
102
RTVSPropertyOp2
 70
     1
102
RTVSPropertyOp3
 70
     1
102
RTVSPropertyOp4
 70
     1
102
RTVSPropertyOp5
 70
     1
102
RTVSPropertyOp6
 70
     1
102
RTVSPropertyOp7
 70
     1
102
RTVSPropertyOp8
 70
     1
102
RTVSPropertyOp9
 70
     1
102
RTVSPropertyOp10
 70
     1
102
RTVSPropertyOp11
 70
     1
102
RTVSPropertyOp12
 70
     1
102
RTVSPropertyOp13
 70
     1
102
RTVSPropertyOp14
 70
     1
102
RTVSPropertyOp15
 70
     1
102
RTVSPropertyOp16
 70
     1
102
RTVSPropertyOp17
 70
     1
102
RTVSPropertyOp18
 70
     1
102
RTVSPropertyOp19
 70
     1
102
RTVSPropertyOp20
 70
     1
102
RTVSPropertyOp21
 70
     1
102
RTVSPropertyOp22
 70
     1
102
RTVSPropertyOp23
 70
     1
102
RTVSPropertyOp24
 70
     1
102
RTVSPropertyOp25
 70
     1
102
RTVSPropertyOp26
 70
     1
102
RTVSPropertyOp27
 70
     1
  0
XRECORD
  5
501
102
{ACAD_REACTORS
330
500
102
}
330
500
100
AcDbXrecord
280
     1
102
RTVSPropertyOp0
 70
     1
102
RTVSPropertyOp1
 70
     1
102
RTVSPropertyOp2
 70
     1
102
RTVSPropertyOp3
 70
     1
102
RTVSPropertyOp4
 70
     1
102
RTVSPropertyOp5
 70
     1
102
RTVSPropertyOp6
 70
     1
102
RTVSPropertyOp7
 70
     1
102
RTVSPropertyOp8
 70
     1
102
RTVSPropertyOp9
 70
     1
102
RTVSPropertyOp10
 70
     1
102
RTVSPropertyOp11
 70
     1
102
RTVSPropertyOp12
 70
     1
102
RTVSPropertyOp13
 70
     1
102
RTVSPropertyOp14
 70
     1
102
RTVSPropertyOp15
 70
     1
102
RTVSPropertyOp16
 70
     1
102
RTVSPropertyOp17
 70
     1
102
RTVSPropertyOp18
 70
     1
102
RTVSPropertyOp19
 70
     1
102
RTVSPropertyOp20
 70
     1
102
RTVSPropertyOp21
 70
     1
102
RTVSPropertyOp22
 70
     1
102
RTVSPropertyOp23
 70
     1
102
RTVSPropertyOp24
 70
     1
102
RTVSPropertyOp25
 70
     1
102
RTVSPropertyOp26
 70
     1
102
RTVSPropertyOp27
 70
     1
  0
XRECORD
  5
505
102
{ACAD_REACTORS
330
504
102
}
330
504
100
AcDbXrecord
280
     1
102
RTVSPropertyOp0
 70
     1
102
RTVSPropertyOp1
 70
     1
102
RTVSPropertyOp2
 70
     1
102
RTVSPropertyOp3
 70
     1
102
RTVSPropertyOp4
 70
     1
102
RTVSPropertyOp5
 70
     1
102
RTVSPropertyOp6
 70
     1
102
RTVSPropertyOp7
 70
     1
102
RTVSPropertyOp8
 70
     1
102
RTVSPropertyOp9
 70
     1
102
RTVSPropertyOp10
 70
     1
102
RTVSPropertyOp11
 70
     1
102
RTVSPropertyOp12
 70
     1
102
RTVSPropertyOp13
 70
     1
102
RTVSPropertyOp14
 70
     1
102
RTVSPropertyOp15
 70
     1
102
RTVSPropertyOp16
 70
     1
102
RTVSPropertyOp17
 70
     1
102
RTVSPropertyOp18
 70
     1
102
RTVSPropertyOp19
 70
     1
102
RTVSPropertyOp20
 70
     1
102
RTVSPropertyOp21
 70
     1
102
RTVSPropertyOp22
 70
     1
102
RTVSPropertyOp23
 70
     1
102
RTVSPropertyOp24
 70
     1
102
RTVSPropertyOp25
 70
     1
102
RTVSPropertyOp26
 70
     1
102
RTVSPropertyOp27
 70
     1
  0
XRECORD
  5
50D
102
{ACAD_REACTORS
330
50C
102
}
330
50C
100
AcDbXrecord
280
     1
102
RTVSPropertyOp0
 70
     1
102
RTVSPropertyOp1
 70
     1
102
RTVSPropertyOp2
 70
     1
102
RTVSPropertyOp3
 70
     1
102
RTVSPropertyOp4
 70
     1
102
RTVSPropertyOp5
 70
     1
102
RTVSPropertyOp6
 70
     1
102
RTVSPropertyOp7
 70
     1
102
RTVSPropertyOp8
 70
     1
102
RTVSPropertyOp9
 70
     1
102
RTVSPropertyOp10
 70
     1
102
RTVSPropertyOp11
 70
     1
102
RTVSPropertyOp12
 70
     1
102
RTVSPropertyOp13
 70
     1
102
RTVSPropertyOp14
 70
     1
102
RTVSPropertyOp15
 70
     1
102
RTVSPropertyOp16
 70
     1
102
RTVSPropertyOp17
 70
     1
102
RTVSPropertyOp18
 70
     1
102
RTVSPropertyOp19
 70
     1
102
RTVSPropertyOp20
 70
     1
102
RTVSPropertyOp21
 70
     1
102
RTVSPropertyOp22
 70
     1
102
RTVSPropertyOp23
 70
     1
102
RTVSPropertyOp24
 70
     1
102
RTVSPropertyOp25
 70
     1
102
RTVSPropertyOp26
 70
     1
102
RTVSPropertyOp27
 70
     1
  0
XRECORD
  5
515
102
{ACAD_REACTORS
330
514
102
}
330
514
100
AcDbXrecord
280
     1
102
RTVSPropertyOp0
 70
     1
102
RTVSPropertyOp1
 70
     1
102
RTVSPropertyOp2
 70
     1
102
RTVSPropertyOp3
 70
     1
102
RTVSPropertyOp4
 70
     1
102
RTVSPropertyOp5
 70
     1
102
RTVSPropertyOp6
 70
     1
102
RTVSPropertyOp7
 70
     1
102
RTVSPropertyOp8
 70
     1
102
RTVSPropertyOp9
 70
     1
102
RTVSPropertyOp10
 70
     1
102
RTVSPropertyOp11
 70
     1
102
RTVSPropertyOp12
 70
     1
102
RTVSPropertyOp13
 70
     1
102
RTVSPropertyOp14
 70
     1
102
RTVSPropertyOp15
 70
     1
102
RTVSPropertyOp16
 70
     1
102
RTVSPropertyOp17
 70
     1
102
RTVSPropertyOp18
 70
     1
102
RTVSPropertyOp19
 70
     1
102
RTVSPropertyOp20
 70
     1
102
RTVSPropertyOp21
 70
     1
102
RTVSPropertyOp22
 70
     1
102
RTVSPropertyOp23
 70
     1
102
RTVSPropertyOp24
 70
     1
102
RTVSPropertyOp25
 70
     1
102
RTVSPropertyOp26
 70
     1
102
RTVSPropertyOp27
 70
     1
  0
XRECORD
  5
509
102
{ACAD_REACTORS
330
508
102
}
330
508
100
AcDbXrecord
280
     1
102
RTVSPropertyOp0
 70
     1
102
RTVSPropertyOp1
 70
     1
102
RTVSPropertyOp2
 70
     1
102
RTVSPropertyOp3
 70
     1
102
RTVSPropertyOp4
 70
     1
102
RTVSPropertyOp5
 70
     1
102
RTVSPropertyOp6
 70
     1
102
RTVSPropertyOp7
 70
     1
102
RTVSPropertyOp8
 70
     1
102
RTVSPropertyOp9
 70
     1
102
RTVSPropertyOp10
 70
     1
102
RTVSPropertyOp11
 70
     1
102
RTVSPropertyOp12
 70
     1
102
RTVSPropertyOp13
 70
     1
102
RTVSPropertyOp14
 70
     1
102
RTVSPropertyOp15
 70
     1
102
RTVSPropertyOp16
 70
     1
102
RTVSPropertyOp17
 70
     1
102
RTVSPropertyOp18
 70
     1
102
RTVSPropertyOp19
 70
     1
102
RTVSPropertyOp20
 70
     1
102
RTVSPropertyOp21
 70
     1
102
RTVSPropertyOp22
 70
     1
102
RTVSPropertyOp23
 70
     1
102
RTVSPropertyOp24
 70
     1
102
RTVSPropertyOp25
 70
     1
102
RTVSPropertyOp26
 70
     1
102
RTVSPropertyOp27
 70
     1
  0
XRECORD
  5
50B
102
{ACAD_REACTORS
330
50A
102
}
330
50A
100
AcDbXrecord
280
     1
102
RTVSPropertyOp0
 70
     1
102
RTVSPropertyOp1
 70
     1
102
RTVSPropertyOp2
 70
     1
102
RTVSPropertyOp3
 70
     1
102
RTVSPropertyOp4
 70
     1
102
RTVSPropertyOp5
 70
     1
102
RTVSPropertyOp6
 70
     1
102
RTVSPropertyOp7
 70
     1
102
RTVSPropertyOp8
 70
     1
102
RTVSPropertyOp9
 70
     1
102
RTVSPropertyOp10
 70
     1
102
RTVSPropertyOp11
 70
     1
102
RTVSPropertyOp12
 70
     1
102
RTVSPropertyOp13
 70
     1
102
RTVSPropertyOp14
 70
     1
102
RTVSPropertyOp15
 70
     1
102
RTVSPropertyOp16
 70
     1
102
RTVSPropertyOp17
 70
     1
102
RTVSPropertyOp18
 70
     1
102
RTVSPropertyOp19
 70
     1
102
RTVSPropertyOp20
 70
     1
102
RTVSPropertyOp21
 70
     1
102
RTVSPropertyOp22
 70
     1
102
RTVSPropertyOp23
 70
     1
102
RTVSPropertyOp24
 70
     1
102
RTVSPropertyOp25
 70
     1
102
RTVSPropertyOp26
 70
     1
102
RTVSPropertyOp27
 70
     1
  0
XRECORD
  5
513
102
{ACAD_REACTORS
330
512
102
}
330
512
100
AcDbXrecord
280
     1
102
RTVSPropertyOp0
 70
     1
102
RTVSPropertyOp1
 70
     1
102
RTVSPropertyOp2
 70
     1
102
RTVSPropertyOp3
 70
     1
102
RTVSPropertyOp4
 70
     1
102
RTVSPropertyOp5
 70
     1
102
RTVSPropertyOp6
 70
     1
102
RTVSPropertyOp7
 70
     1
102
RTVSPropertyOp8
 70
     1
102
RTVSPropertyOp9
 70
     1
102
RTVSPropertyOp10
 70
     1
102
RTVSPropertyOp11
 70
     1
102
RTVSPropertyOp12
 70
     1
102
RTVSPropertyOp13
 70
     1
102
RTVSPropertyOp14
 70
     1
102
RTVSPropertyOp15
 70
     1
102
RTVSPropertyOp16
 70
     1
102
RTVSPropertyOp17
 70
     1
102
RTVSPropertyOp18
 70
     1
102
RTVSPropertyOp19
 70
     1
102
RTVSPropertyOp20
 70
     1
102
RTVSPropertyOp21
 70
     1
102
RTVSPropertyOp22
 70
     1
102
RTVSPropertyOp23
 70
     1
102
RTVSPropertyOp24
 70
     1
102
RTVSPropertyOp25
 70
     1
102
RTVSPropertyOp26
 70
     1
102
RTVSPropertyOp27
 70
     1
  0
XRECORD
  5
4F7
102
{ACAD_REACTORS
330
4F6
102
}
330
4F6
100
AcDbXrecord
280
     1
102
RTVSPropertyOp0
 70
     1
102
RTVSPropertyOp1
 70
     1
102
RTVSPropertyOp2
 70
     1
102
RTVSPropertyOp3
 70
     1
102
RTVSPropertyOp4
 70
     1
102
RTVSPropertyOp5
 70
     1
102
RTVSPropertyOp6
 70
     1
102
RTVSPropertyOp7
 70
     1
102
RTVSPropertyOp8
 70
     1
102
RTVSPropertyOp9
 70
     1
102
RTVSPropertyOp10
 70
     1
102
RTVSPropertyOp11
 70
     1
102
RTVSPropertyOp12
 70
     1
102
RTVSPropertyOp13
 70
     1
102
RTVSPropertyOp14
 70
     1
102
RTVSPropertyOp15
 70
     1
102
RTVSPropertyOp16
 70
     1
102
RTVSPropertyOp17
 70
     1
102
RTVSPropertyOp18
 70
     1
102
RTVSPropertyOp19
 70
     1
102
RTVSPropertyOp20
 70
     1
102
RTVSPropertyOp21
 70
     1
102
RTVSPropertyOp22
 70
     1
102
RTVSPropertyOp23
 70
     1
102
RTVSPropertyOp24
 70
     1
102
RTVSPropertyOp25
 70
     1
102
RTVSPropertyOp26
 70
     1
102
RTVSPropertyOp27
 70
     1
  0
XRECORD
  5
4F9
102
{ACAD_REACTORS
330
4F8
102
}
330
4F8
100
AcDbXrecord
280
     1
102
RTVSPropertyOp0
 70
     1
102
RTVSPropertyOp1
 70
     1
102
RTVSPropertyOp2
 70
     1
102
RTVSPropertyOp3
 70
     1
102
RTVSPropertyOp4
 70
     1
102
RTVSPropertyOp5
 70
     1
102
RTVSPropertyOp6
 70
     1
102
RTVSPropertyOp7
 70
     1
102
RTVSPropertyOp8
 70
     1
102
RTVSPropertyOp9
 70
     1
102
RTVSPropertyOp10
 70
     1
102
RTVSPropertyOp11
 70
     1
102
RTVSPropertyOp12
 70
     1
102
RTVSPropertyOp13
 70
     1
102
RTVSPropertyOp14
 70
     1
102
RTVSPropertyOp15
 70
     1
102
RTVSPropertyOp16
 70
     1
102
RTVSPropertyOp17
 70
     1
102
RTVSPropertyOp18
 70
     1
102
RTVSPropertyOp19
 70
     1
102
RTVSPropertyOp20
 70
     1
102
RTVSPropertyOp21
 70
     1
102
RTVSPropertyOp22
 70
     1
102
RTVSPropertyOp23
 70
     1
102
RTVSPropertyOp24
 70
     1
102
RTVSPropertyOp25
 70
     1
102
RTVSPropertyOp26
 70
     1
102
RTVSPropertyOp27
 70
     1
  0
XRECORD
  5
4FB
102
{ACAD_REACTORS
330
4FA
102
}
330
4FA
100
AcDbXrecord
280
     1
102
RTVSPropertyOp0
 70
     1
102
RTVSPropertyOp1
 70
     1
102
RTVSPropertyOp2
 70
     1
102
RTVSPropertyOp3
 70
     1
102
RTVSPropertyOp4
 70
     1
102
RTVSPropertyOp5
 70
     1
102
RTVSPropertyOp6
 70
     1
102
RTVSPropertyOp7
 70
     1
102
RTVSPropertyOp8
 70
     1
102
RTVSPropertyOp9
 70
     1
102
RTVSPropertyOp10
 70
     1
102
RTVSPropertyOp11
 70
     1
102
RTVSPropertyOp12
 70
     1
102
RTVSPropertyOp13
 70
     1
102
RTVSPropertyOp14
 70
     1
102
RTVSPropertyOp15
 70
     1
102
RTVSPropertyOp16
 70
     1
102
RTVSPropertyOp17
 70
     1
102
RTVSPropertyOp18
 70
     1
102
RTVSPropertyOp19
 70
     1
102
RTVSPropertyOp20
 70
     1
102
RTVSPropertyOp21
 70
     1
102
RTVSPropertyOp22
 70
     1
102
RTVSPropertyOp23
 70
     1
102
RTVSPropertyOp24
 70
     1
102
RTVSPropertyOp25
 70
     1
102
RTVSPropertyOp26
 70
     1
102
RTVSPropertyOp27
 70
     1
  0
XRECORD
  5
4FD
102
{ACAD_REACTORS
330
4FC
102
}
330
4FC
100
AcDbXrecord
280
     1
102
RTVSPropertyOp0
 70
     1
102
RTVSPropertyOp1
 70
     1
102
RTVSPropertyOp2
 70
     1
102
RTVSPropertyOp3
 70
     1
102
RTVSPropertyOp4
 70
     1
102
RTVSPropertyOp5
 70
     1
102
RTVSPropertyOp6
 70
     1
102
RTVSPropertyOp7
 70
     1
102
RTVSPropertyOp8
 70
     1
102
RTVSPropertyOp9
 70
     1
102
RTVSPropertyOp10
 70
     1
102
RTVSPropertyOp11
 70
     1
102
RTVSPropertyOp12
 70
     1
102
RTVSPropertyOp13
 70
     1
102
RTVSPropertyOp14
 70
     1
102
RTVSPropertyOp15
 70
     1
102
RTVSPropertyOp16
 70
     1
102
RTVSPropertyOp17
 70
     1
102
RTVSPropertyOp18
 70
     1
102
RTVSPropertyOp19
 70
     1
102
RTVSPropertyOp20
 70
     1
102
RTVSPropertyOp21
 70
     1
102
RTVSPropertyOp22
 70
     1
102
RTVSPropertyOp23
 70
     1
102
RTVSPropertyOp24
 70
     1
102
RTVSPropertyOp25
 70
     1
102
RTVSPropertyOp26
 70
     1
102
RTVSPropertyOp27
 70
     1
  0
XRECORD
  5
511
102
{ACAD_REACTORS
330
510
102
}
330
510
100
AcDbXrecord
280
     1
102
RTVSPropertyOp0
 70
     1
102
RTVSPropertyOp1
 70
     1
102
RTVSPropertyOp2
 70
     1
102
RTVSPropertyOp3
 70
     1
102
RTVSPropertyOp4
 70
     1
102
RTVSPropertyOp5
 70
     1
102
RTVSPropertyOp6
 70
     1
102
RTVSPropertyOp7
 70
     1
102
RTVSPropertyOp8
 70
     1
102
RTVSPropertyOp9
 70
     1
102
RTVSPropertyOp10
 70
     1
102
RTVSPropertyOp11
 70
     1
102
RTVSPropertyOp12
 70
     1
102
RTVSPropertyOp13
 70
     1
102
RTVSPropertyOp14
 70
     1
102
RTVSPropertyOp15
 70
     1
102
RTVSPropertyOp16
 70
     1
102
RTVSPropertyOp17
 70
     1
102
RTVSPropertyOp18
 70
     1
102
RTVSPropertyOp19
 70
     1
102
RTVSPropertyOp20
 70
     1
102
RTVSPropertyOp21
 70
     1
102
RTVSPropertyOp22
 70
     1
102
RTVSPropertyOp23
 70
     1
102
RTVSPropertyOp24
 70
     1
102
RTVSPropertyOp25
 70
     1
102
RTVSPropertyOp26
 70
     1
102
RTVSPropertyOp27
 70
     1
  0
XRECORD
  5
507
102
{ACAD_REACTORS
330
506
102
}
330
506
100
AcDbXrecord
280
     1
102
RTVSPropertyOp0
 70
     1
102
RTVSPropertyOp1
 70
     1
102
RTVSPropertyOp2
 70
     1
102
RTVSPropertyOp3
 70
     1
102
RTVSPropertyOp4
 70
     1
102
RTVSPropertyOp5
 70
     1
102
RTVSPropertyOp6
 70
     1
102
RTVSPropertyOp7
 70
     1
102
RTVSPropertyOp8
 70
     1
102
RTVSPropertyOp9
 70
     1
102
RTVSPropertyOp10
 70
     1
102
RTVSPropertyOp11
 70
     1
102
RTVSPropertyOp12
 70
     1
102
RTVSPropertyOp13
 70
     1
102
RTVSPropertyOp14
 70
     1
102
RTVSPropertyOp15
 70
     1
102
RTVSPropertyOp16
 70
     1
102
RTVSPropertyOp17
 70
     1
102
RTVSPropertyOp18
 70
     1
102
RTVSPropertyOp19
 70
     1
102
RTVSPropertyOp20
 70
     1
102
RTVSPropertyOp21
 70
     1
102
RTVSPropertyOp22
 70
     1
102
RTVSPropertyOp23
 70
     1
102
RTVSPropertyOp24
 70
     1
102
RTVSPropertyOp25
 70
     1
102
RTVSPropertyOp26
 70
     1
102
RTVSPropertyOp27
 70
     1
  0
XRECORD
  5
50F
102
{ACAD_REACTORS
330
50E
102
}
330
50E
100
AcDbXrecord
280
     1
102
RTVSPropertyOp0
 70
     1
102
RTVSPropertyOp1
 70
     1
102
RTVSPropertyOp2
 70
     1
102
RTVSPropertyOp3
 70
     1
102
RTVSPropertyOp4
 70
     1
102
RTVSPropertyOp5
 70
     1
102
RTVSPropertyOp6
 70
     1
102
RTVSPropertyOp7
 70
     1
102
RTVSPropertyOp8
 70
     1
102
RTVSPropertyOp9
 70
     1
102
RTVSPropertyOp10
 70
     1
102
RTVSPropertyOp11
 70
     1
102
RTVSPropertyOp12
 70
     1
102
RTVSPropertyOp13
 70
     1
102
RTVSPropertyOp14
 70
     1
102
RTVSPropertyOp15
 70
     1
102
RTVSPropertyOp16
 70
     1
102
RTVSPropertyOp17
 70
     1
102
RTVSPropertyOp18
 70
     1
102
RTVSPropertyOp19
 70
     1
102
RTVSPropertyOp20
 70
     1
102
RTVSPropertyOp21
 70
     1
102
RTVSPropertyOp22
 70
     1
102
RTVSPropertyOp23
 70
     1
102
RTVSPropertyOp24
 70
     1
102
RTVSPropertyOp25
 70
     1
102
RTVSPropertyOp26
 70
     1
102
RTVSPropertyOp27
 70
     1
  0
ENDSEC
  0
SECTION
  2
THUMBNAILIMAGE
 90
    45386
310
28000000D2000000D1000000010008000000000014AD000000000000000000000000000000000000000000000000330000006600000099000000CC000000FF00003300000033330000336600003399000033CC000033FF00006600000066330000666600006699000066CC000066FF00009900000099330000996600009999
310
000099CC000099FF0000CC000000CC330000CC660000CC990000CCCC0000CCFF0000FF000000FF330000FF660000FF990000FFCC0000FFFF00330000003300330033006600330099003300CC003300FF00333300003333330033336600333399003333CC003333FF00336600003366330033666600336699003366CC003366
310
FF00339900003399330033996600339999003399CC003399FF0033CC000033CC330033CC660033CC990033CCCC0033CCFF0033FF000033FF330033FF660033FF990033FFCC0033FFFF00660000006600330066006600660099006600CC006600FF00663300006633330066336600663399006633CC006633FF006666000066
310
66330066666600666699006666CC006666FF00669900006699330066996600669999006699CC006699FF0066CC000066CC330066CC660066CC990066CCCC0066CCFF0066FF000066FF330066FF660066FF990066FFCC0066FFFF00990000009900330099006600990099009900CC009900FF00993300009933330099336600
310
993399009933CC009933FF00996600009966330099666600996699009966CC009966FF00999900009999330099996600999999009999CC009999FF0099CC000099CC330099CC660099CC990099CCCC0099CCFF0099FF000099FF330099FF660099FF990099FFCC0099FFFF00CC000000CC003300CC006600CC009900CC00CC
310
00CC00FF00CC330000CC333300CC336600CC339900CC33CC00CC33FF00CC660000CC663300CC666600CC669900CC66CC00CC66FF00CC990000CC993300CC996600CC999900CC99CC00CC99FF00CCCC0000CCCC3300CCCC6600CCCC9900CCCCCC00CCCCFF00CCFF0000CCFF3300CCFF6600CCFF9900CCFFCC00CCFFFF00FF00
310
0000FF003300FF006600FF009900FF00CC00FF00FF00FF330000FF333300FF336600FF339900FF33CC00FF33FF00FF660000FF663300FF666600FF669900FF66CC00FF66FF00FF990000FF993300FF996600FF999900FF99CC00FF99FF00FFCC0000FFCC3300FFCC6600FFCC9900FFCCCC00FFCCFF00FFFF0000FFFF3300FF
310
FF6600FFFF9900FFFFCC00FFFFFF0000000000000000000000000000000000000000000000000000000000000000000000000000000000000000000000000000000000000000000000000000000000000000000000000000000000000000000000000000000000000000000000000000000000000000000000000000000000
310
000000000000000000000000000000000000000000000000000000000000000000000000000000000000000000000000D7D7D7D7D7D7D7D7D7D7D7D7D7D7D7D7D7D7D7D7D7D7D7D7D7D7D7D7D7D7D7D7D7D7D7D7D7D7D7D7D7D7D7D7D7D7D7D7D7D7D7D7D7D7D7D7D7D7D7D7D7D7D7D7D7D7D7D7D7D7D7D7D7D7D7D7D7D7D7
310
D7D7D7D7D7D7D7D7D7D7D7D7D7D7D7D7D7D7D7D7D7D7D7D7D7D7D7D7D7D7D7D7D7D7D7D7D7D7D7D7D7D7D7D7D7D7D7D7D7D7D7D7D7D7D7D7D7D7D7D7D7D7D7D7D7D7D7D7D7D7D7D7D7D7D7D7D7D7D7D7D7D7D7D7D7D7D7D7D7D7D7D7D7D7D7D7D7D7D7D7D7D7D7D7D7D7D7D7D7D7D7D7D7D7D7D7D7D7D7D7D7D7D7D7D7D7D7
310
D7D7D7D70000D7D7D7D7D7D7D7D7D7D7D7D7D7D7D7D7D7D7D7D7D7D7D7D7D7D7D7D7D7D7D7D7D7D7D7D7D7D7D7D7D7D7D7D7D7D7D7D7D7D7D7D7D7D7D7D7D7D7D7D7D7D7D7D7D7D7D7D7D7D7D7D7D7D7D7D7D7D7D7D7D7D7D7D7D7D7D7D7D7D7D7D7D7D7D7D7D7D7D7D7D7D7D7D7D7D7D7D7D7D7D7D7D7D7D7D7D7D7D7D7D7
310
D7D7D7D7D7D7D7D7D7D7D7D7D7D7D7D7D7D7D7D7D7D7D7D7D7D7D7D7D7D7D7D7D7D7D7D7D7D7D7D7D7D7D7D7D7D7D7D7D7D7D7D7D7D7D7D7D7D7D7D7D7D7D7D7D7D7D7D7D7D7D7D7D7D7D7D7D7D7D7D7D7D7D7D7D7D7D7D7D70000D7D7D7D7D7D7D7D7D7D7D7D7D7D7D7D7D7D7D7D7D7D7D7D7D7D7D7D7D7D7D7D7D7D7D7D7
310
D7D7D7D7D7D7D7D7D7D7D7D7D7D7D7D7D7D7D7D7D7D7D7D7D7D7D7D7D7D7D7D7D7D7D7D7D7D7D7D7D7D7D7D7D7D7D7D7D7D7D7D7D7D7D7D7D7D7D7D7D7D7D7D7D7D7D7D7D7D7D7D7D7D7D7D7D7D7D7D7D7D7D7D7D7D7D7D7D7D7D7D7D7D7D7D7D7D7D7D7D7D7D7D7D7D7D7D7D7D7D7D7D7D7D7D7D7D7D7D7D7D7D7D7D7D7D7
310
D7D7D7D7D7D7D7D7D7D7D7D7D7D7D7D7D7D7D7D7D7D7D7D7D7D7D7D7D7D7D7D7D7D7D7D7D7D7D7D7D7D7D7D7D7D7D70000D7D7D7D7D7D7D7D7D7D7D7D7D7D7D7D7D7D7D7D7D7D7D7D7D7D7D7D7D7D7D7D7D7D7D7D7D7D7D7D7D7D7D7D7D7D7D7D7D7D7D7D7D7D7D7D7D7D7D7D7D7D7D7D7D7D7D7D7D7D7D7D7D7D7D7D7D7D7
310
D7D7D7D7D7D7D7D7D7D7D7D7D7D7D7D7D7D7D7D7D7D7D7D7D7D7D7D7D7D7D7D7D7D7D7D7D7D7D7D7D7D7D7D7D7D7D7D7D7D7D7D7D7D7D7D7D7D7D7D7D7D7D7D7D7D7D7D7D7D7D7D7D7D7D7D7D7D7D7D7D7D7D7D7D7D7D7D7D7D7D7D7D7D7D7D7D7D7D7D7D7D7D7D7D7D7D7D7D7D7D7D7D7D7D7D7D7D7D7D7D7D7D7D7D7D7D7
310
D7D7D7D7D70000D7D7D7D7D7D7D7D7D7D7D7D7D7D7D7D7D7D7D7D7D7D7D7D7D7D7D7D7D7D7D7D7D7D7D7D7D7D7D7D7D7D7D7D7D7D7D7D7D7D7D7D7D7D7D7D7D7D7D7D7D7D7D7D7D7D7D7D7D7D7D7D7D7D7D7D7D7D7D7D7D7D7D7D7D7D7D7D7D7D7D7D7D7D7D7D7D7D7D7D7D7D7D7D7D7D7D7D7D7D7D7D7D7D7D7D7D7D7D7D7
310
D7D7D7D7D7D7D7D7D7D7D7D7D7D7D7D7D7D7D7D7D7D7D7D7D7D7D7D7D7D7D7D7D7D7D7D7D7D7D7D7D7D7D7D7D7D7D7D7D7D7D7D7D7D7D7D7D7D7D7D7D7D7D7D7D7D7D7D7D7D7D7D7D7D7D7D7D7D7D7D7D7D7D7D7D7D7D7D7D7D70000D7D7D7D7D7D7D7D7D7D7D7D7D7D7D7D7D7D7D7D7D7D7D7D7D7D7D7D7D7D7D7D7D7D7D7
310
D7D7D7D7D7D7D7D7D7D7D7D7D7D7D7D7D7D7D7D7D7D7D7D7D7D7D7D7D7D7D7D7D7D7D7D7D7D7D7D7D7D7D7D7D7D7D7D7D7D7D7D7D7D7D7D7D7D7D7D7D7D7D7D7D7D7D7D7D7D7D7D7D7D7D7D7D7D7D7D7D7D7D7D7D7D7D7D7D7D7D7D7D7D7D7D7D7D7D7D7D7D7D7D7D7D7D7D7D7D7D7D7D7D7D7D7D7D7D7D7D7D7D7D7D7D7D7
310
D7D7D7D7D7D7D7D7D7D7D7D7D7D7D7D7D7D7D7D7D7D7D7D7D7D7D7D7D7D7D7D7D7D7D7D7D7D7D7D7D7D7D7D7D7D7D7D70000D7D7D7D7D7D7D7D7D7D7D7D7D7D7D7D7D7D7D7D7D7D7D7D7D7D7D7D7D7D7D7D7D7D7D7D7D7D7D7D7D7D7D7D7D7D7D7D7D7D7D7D7D7D7D7D7D7D7D7D7D7D7D7D7D7D7D7D7D7D7D7D7D7D7D7D7D7
310
D7D7D7D7D7D7D7D7D7D7D7D7D7D7D7D7D7D7D7D7D7D7D7D7D7D7D7D7D7D7D7D7D7D7D7D7D7D7D7D7D7D7D7D7D7D7D7D7D7D7D7D7D7D7D7D7D7D7D7D7D7D7D7D7D7D7D7D7D7D7D7D7D7D7D7D7D7D7D7D7D7D7D7D7D7D7D7D7D7D7D7D7D7D7D7D7D7D7D7D7D7D7D7D7D7D7D7D7D7D7D7D7D7D7D7D7D7D7D7D7D7D7D7D7D7D7D7
310
D7D7D7D7D7D70000D7D7D7D7D7D7D7D7D7D7D7D7D7D7D7D7D7D7D7D7D7D7D7D7D7D7D7D7D7D7D7D7D7D7D7D7D7D7D7D7D7D7D7D7D7D7D7D7D7D7D7D7D7D7D7D7D7D7D7D7D7D7D7D7D7D7D7D7D7D7D7D7D7D7D7D7D7D7D7D7D7D7D7D7D7D7D7D7D7D7D7D7D7D7D7D7D7D7D7D7D7D7D7D7D7D7D7D7D7D7D7D7D7D7D7D7D7D7D7
310
D7D7D7D7D7D7D7D7D7D7D7D7D7D7D7D7D7D7D7D7D7D7D7D7D7D7D7D7D7D7D7D7D7D7D7D7D7D7D7D7D7D7D7D7D7D7D7D7D7D7D7D7D7D7D7D7D7D7D7D7D7D7D7D7D7D7D7D7D7D7D7D7D7D7D7D7D7D7D7D7D7D7D7D7D7D7D7D7D7D7D70000D7D7D7D7D7D7D7D7D7D7D7D7D7D7D7D7D7D7D7D7D7D7D7D7D7D7D7D7D7D7D7D7D7D7
310
D7D7D7D7D7D7D7D7D7D7D7D7D7D7D7D7D7D7D7D7D7D7D7D7D7D7D7D7D7D7D7D7D7D7D7D7D7D7D7D7D7D7D7D7D7D7D7D7D7D7D7D7D7D7D7D7D7D7D7D7D7D7D7D7D7D7D7D7D7D7D7D7D7D7D7D7D7D7D7D7D7D7D7D7D7D7D7D7D7D7D7D7D7D7D7D7D7D7D7D7D7D7D7D7D7D7D7D7D7D7D7D7D7D7D7D7D7D7D7D7D7D7D7D7D7D7D7
310
D7D7D7D7D7D7D7D7D7D7D7D7D7D7D7D7D7D7D7D7D7D7D7D7D7D7D7D7D7D7D7D7D7D7D7D7D7D7D7D7D7D7D7D7D7D7D7D7D70000D7D7D7D7D7D7D7D7D700000000000000000000000000000000000000000000000000000000000000000000000000000000000000000000000000000000000000000000000000000000000000
310
0000000000000000000000000000000000000000000000000000000000000000000000000000000000000000000000000000000000000000000000000000000000000000000000000000000000000000000000000000000000000000000000000000000000000000000000000000000000000000000000000000000000D7D7
310
D7D7D7D7D7D7D70000D7D7D7D7D7D7D7D7D700D7D7D7D7D7D7D7D7D7D7D7D7D7D7D7D7D7D7D7D7D7D7D7D7D7D7D7D7D7D7D7D7D70000D7D7D7D7D7D7D7D7D7D7D7D7D7D7D7D7D7D7D7D7D7D7D7D7D7D7D700D7D7D7D7D7D7D7D7D7D7D7D7D7D7D7D7D7D7D7D7D7D7D7D7D7D7D7D7D7D7D7D7D7D7D7D7D7D7D7D7D7D7D7D7D7
310
D7D7D7D7D7D7D7D7D7D7D7D7D7D7D7D7D7D7D7D7D7D7D7D7D7D7D7D7D7D7D7D7D7D7D7D7D7D7D7D7D7D7D7D7D7D7D7D7D7D7D7D7D7D7D7D7D7D7D7D7D7D7D7D7D7D7D7D7D7D7D7D7D7D7D7D7D7D7D7D7D7D700D7D7D7D7D7D7D7D7D70000D7D7D7D7D7D7D7D7D700D7D7D7D7D7D7D7D7D7D7D7D7D7D7D7D7D7D7D7D7D7D7D7
310
D7D7D7D7D7D7D7D7D7D7D7D700D7D7D7D7D7D7D7D7D7D7D7D7D7D7D7D7D7D7D7D7D7D7D7D7D7D700D7D7D7D7D7D7D7D7D7D7D7D7D7D7D7D7D7D7D7D7D7D7D7D7D7D7D7D7D7D7D7D7D7D7D7D7D7D7D7D7D7D7D7D7D7D7D7D7D7D7D7D7D7D7D7D7D7D7D7D7D7D7D7D7D7D7D7D7D7D7D7D7D7D7D7D7D7D7D7D7D7D7D7D7D7D7D7
310
D7D7D7D7D7D7D7D7D7D7D7D7D7D7D7D7D7D7D7D7D7D7D7D7D7D7D7D7D7D7D7D7D7D7D7D7D7D7D7D700D7D7D7D7D7D7D7D7D70000D7D7D7D7D7D7D7D7D700D7D7D7D7D7D7D7D7D700D7D7D7D7D7D7D7D7D70000D7D7D700D7D7D7D7D7D700D700D70000D7D7D700D7D700D70000D700D7D7D7D7D7D7D700D700D7D700D700D7
310
D70000D7D7D700D7D700D7D7D700D7D7D7D700D700D700D7D70000D7D7D7D7D7D700D70000D700D7D700D7D7D7D700D7D7D7D7D7D7D7D7D7D7D7D7D7D7D7D7D7D7D7D7D7D7D7D7D7D7D7D7D7D7D7D7D7D7D7D7D7D7D7D7D7D7D7D7D7D7D7D7D7D7D7D7D7D7D7D7D7D7D7D7D7D7D7D7D7D7D7D7D7D7D7D7D7D7D7D7D7D700D7
310
D7D7D7D7D7D7D7D70000D7D7D7D7D7D7D7D7D700D7D7D7D7D7D7D7D7D700D7D700D7D7D7D7D7D70000D7D7D700D7D7D7D7D7D700D700D70000D7D7D700D7D700D700D7D700D7D7D7D7D7D7D700D700D7D700D700D7D70000D7D7D700D7D700D7D7D700D7D7D7D7D7D700D700D7D70000D7D7D7D7D7D700D70000D700D7D700
310
D7D7D7D700D7D7D7D7D7D7D7D7D7D7D7D7D7D7D7D7D7D7D7D7D7D7D7D7D7D7D7D7D7D7D7D7D7D7D7D7D7D7D7D7D7D7D7D7D7D7D7D7D7D7D7D7D7D7D7D7D7D7D7D7D7D7D7D7D7D7D7D7D7D7D7D7D7D7D7D7D7D700D7D7D7D7D7D7D7D7D70000D7D7D7D7D7D7D7D7D700D7D7D7D7D7D7D700D7D7D700D7D7D700D70000D7D700
310
D7D700D7D70000D7D7D7D7D70000D700D7D700D7D7D700D7000000D70000D70000D7D700D7D70000D7D7D7D70000D7D7D7000000D7D7D7D7000000D7D7000000D700D7D70000D700000000D7D700D700D700D7D7000000D7D70000D7D7D7D7D7D7D7D7D7D7D7D7D7D7D7D7D7D7D7D7D7D7D7D7D7D7D7D7D7D7D7D7D7D7D7D7
310
D7D7D7D7D7D7D7D7D7D7D7D7D7D7D7D7D7D7D7D7D7D7D7D7D7D7D7D7D7D7D7D7D7D7D7D7D7D7D7D7D700D7D7D7D7D7D7D7D7D70000D7D7D7D7D7D7D7D7D700D7D7D7D7D7D7D7D7D7D7D7D7D7D7D7D7D7D7D7D7D7D7D7D7D7D7D7D7D7D7D7D7D7D7D7D7D7D7D7D7D7D7D7D7D7D7D7D7D7D7D7D7D7D7D7D7D7D7D7D7D7D7D7D7
310
D7D7D7D7D7D7D7D7D7D7D7D7D7D7D7D7D7D7D7D7D7D7D7D7D7D7D7D7D7D7D7D7D7D7D7D7D7D7D7D7D7D7D7D7D7D7D7D7D7D7D7D7D7D7D7D7D7D7D7D7D7D7D7D7D7D7D7D7D7D7D7D7D7D7D7D7D7D7D7D7D7D7D7D7D7D7D7D7D7D7D7D7D7D7D7D7D7D7D7D7D7D7D7D7D7D7D7D7D7D7D7D7D7D7D7D7D7D7D7D7D7D7D7D7D7D700
310
D7D7D7D7D7D7D7D7D70000D7D7D7D7D7D7D7D7D700D7D7D7D7D7D7D7D7D7D7D7D7D7D7D7D7D7D7D7D7D7D7D7D7D7D7D7D7D7D7D7D7D7D7D7D7D7D7D7D7D7D7D7D7D7D7D7D7D7D7D7D7D7D7D7D7D7D7D7D7D7D7D7D7D7D7D7D7D7D7D7D7D7D7D7D7D7D7D7D7D7D7D7D7D7D7D7D7D7D7D7D7D7D7D7D7D7D7D7D7D7D7D7D7D7D7
310
D7D7D7D7D7D7D7D7D7D7D7D7D7D7D7D7D7D7D7D7D7D7D7D7D7D7D7D7D7D7D7D7D7D7D7D7D7D7D7D7D7D7D7D7D7D7D7D7D7D7D7D7D7D7D7D7D7D7D7D7D7D7D7D7D7D7D7D7D7D7D7D7D7D7D7D7D7D7D7D7D7D7D7D700D7D7D7D7D7D7D7D7D70000D7D7D7D7D7D7D7D7D700D7D7D7D7D7D7D7D7D7D7D7D7D7D7D7D7D7D7D7D7D7
310
D7D7D7D7D7D7D7D7D7D7D7D7D7D7D7D7D7D7D7D7D7D7D7D7D7D7D7D7D7D7D7D7D7D7D7D7D7D7D7D7D7D7D7D7D7D7D7D7D7D7D7D7D7D7D7D7D7D7D7D7D7D7D7D7D7D7D7D7D7D7D7D7D7D7D7D7D7D7D7D7D7D7D7D7D7D7D7D7D7D7D7D7D7D7D7D7D7D7D7D7D7D7D7D7D7D7D7D7D7D7D7D7D7D7D7D7D7D7D7D7D7D7D7D7D7D7D7
310
D7D7D7D7D7D7D7D7D7D7D7D7D7D7D7D7D7D7D7D7D7D7D7D7D7D7D7D7D7D7D7D7D7D7D7D7D7D7D7D7D7D700D7D7D7D7D7D7D7D7D70000D7D7D7D7D7D7D7D7D700D7D7D7D7D7D7D7D7D7D7D7D7D7D7D7D7D7D7D7D7D7D7D7D7D7D7D7D7D7D7D7D7D7D7D7D7D7D7D7D7D7D7D7D7D7D7D7D7D7D7D7D7D7D7D7D7D7D7D7D7D7D7D7
310
D7D7D7D7D7D7D7D7D7D7D7D7D7D7D7D7D7D7D7D7D7D7D7D7D7D7D7D7D7D7D7D7D7D7D7D7D7D7D7D7D7D7D7D7D7D7D7D7D7D7D7D7D7D7D7D7D7D7D7D7D7D7D7D7D7D7D7D7D7D7D7D7D7D7D7D7D7D7D7D7D7D7D7D7D7D7D7D7D7D7D7D7D7D7D7D7D7D7D7D7D7D7D7D7D7D7D7D7D7D7D7D7D7D7D7D7D7D7D7D7D7D7D7D7D7D7D7
310
00D7D7D7D7D7D7D7D7D70000D7D7D7D7D7D7D7D7D700D7D7D7D7D7D7D7D7D7D7D7D7D7D7D7D7D7D7D7D7D7D7D7D7D7D7D7D7D7D7D7D7D7D7D7D7D7D7D7D7D7D7D7D7D7D7D7D7D7D7D7D7D7D7D7D7D7D7D7D7D7D7D7D7D7D7D7D7D7D7D7D7D7D7D7D7D7D7D7D7D7D7D7D7D7D7D7D7D7D7D7D7D7D7D7D7D7D7D7D7D7D7D7D7D7
310
D7D7D7D7D7D7D7D7D7D7D7D7D7D7D7D7D7D7D7D7D7D7D7D7D7D7D7D7D7D7D7D7D7D7D7D7D7D7D7D7D7D7D7D7D7D7D7D7D7D7D7D7D7D7D7D7D7D7D7D7D7D7D7D7D7D7D7D7D7D7D7D7D7D7D7D7D7D7D7D7D7D7D7D7D700D7D7D7D7D7D7D7D7D70000D7D7D7D7D7D7D7D7D700D7D7D7D7D7D7D7D7D7D7D7D7D7D7D7D7D7D7D7D7
310
D7D7D7D7D7D7D7D7D7D7D7D7D7D7D7D7D7D7D7D7D7D7D7D7D7D7D7D7D7D7D7D7D7D7D7D7D7D7D7D7D7D7D7D7D7D7D7D7D7D7D7D7D7D7D7D7D7D7D7D7D7D7D7D7D7D7D7D7D7D7D7D7D7D7D7D7D7D7D7D7D7D7D7D7D7D7D7D7D7D7D7D7D7D7D7D7D7D7D7D7D7D7D7D7D7D7D7D7D7D7D7D7D7D7D7D7D7D7D7D7D7D7D7D7D7D7D7
310
D7D7D7D7D7D7D7D7D7D7D7D7D7D7D7D7D7D7D7D7D7D7D7D7D7D7D7D7D7D7D7D7D7D7D7D7D7D7D7D7D7D7D700D7D7D7D7D7D7D7D7D70000D7D7D7D7D7D7D7D7D700D7D7D7D7D7D7D7D7D7D7D7D7D7D7D7D7D7D7D7D7D7D7D7D7D7D7D7D7D7D7D7D7D7D7D7D7D7D7D7D7D7D7D7D7D7D7D7D7D7D7D7D7D7D7D7D7D7D7D7D7D7D7
310
D7D7D7D7D7D7D7D7D7D7D7D7D7D7D7D7D7D7D7D7D7D7D7D7D7D7D7D7D7D7D7D7D7D7D7D7D7D7D7D7D7D7D7D7D7D7D7D7D7D7D7D7D7D7D7D7D7D7D7D7D7D7D7D7D7D7D7D7D7D7D7D7D7D7D7D7D7D7D7D7D7D7D7D7D7D7D7D7D7D7D7D7D7D7D7D7D7D7D7D7D7D7D7D7D7D7D7D7D7D7D7D7D7D7D7D7D7D7D7D7D7D7D7D7D7D7D7
310
D700D7D7D7D7D7D7D7D7D70000D7D7D7D7D7D7D7D7D700D7D7D7D7D7D7D7D7D7D7D7D7D7D7D7D7D7D7D7D7D7D7D7D7D7D7D7D7D7D7D7D7D7D7D7D7D7D7D7D7D7D7D7D7D7D7D7D7D7D7D7D7D7D7D7D7D7D7D7D7D7D7D7D7D7D7D7D7D7D7D7D7D7D7D7D7D7D7D7D7D7D7D7D7D7D7D7D7D7D7D7D7D7D7D7D7D7D7D7D7D7D7D7D7
310
D7D7D7D7D7D7D7D7D7D7D7D7D7D7D7D7D7D7D7D7D7D7D7D7D7D7D7D7D7D7D7D7D7D7D7D7D7D7D7D7D7D7D7D7D7D7D7D7D7D7D7D7D7D7D7D7D7D7D7D7D7D7D7D7D7D7D7D7D7D7D7D7D7D7D7D7D7D7D7D7D7D7D7D7D7D700D7D7D7D7D7D7D7D7D70000D7D7D7D7D7D7D7D7D700D7D7D7D7D7D7D7D7D7D7D7D7D7D7D7D7D7D7D7
310
D7D7D7D7D7D7D7D7D7D7D7D7D7D7D7D7D7D7D7D7D7D7D7D7D7D7D7D7D7D7D7D7D7D7D7D7D7D7D7D7D7D7D7D7D7D7D7D7D7D7D7D7D7D7D7D7D7D7D7D7D7D7D7D7D7D7D7D7D7D7D7D7D7D7D7D7D7D7D7D7D7D7D7D7D7D7D7D7D7D7D7D7D7D7D7D7D7D7D7D7D7D7D7D7D7D7D7D7D7D7D7D7D7D7D7D7D7D7D7D7D7D7D7D7D7D7D7
310
D7D7D7D7D7D7D7D7D7D7D7D7D7D7D7D7D7D7D7D7D7D7D7D7D7D7D7D7D7D7D7D7D7D7D7D7D7D7D7D7D7D7D7D700D7D7D7D7D7D7D7D7D70000D7D7D7D7D7D7D7D7D700D7D7D7D7D7D7D7D7D7D7D7D7D7D7D7D7D7D7D7D7D7D7D7D7D7D7D7D7D7D7D7D7D7D7D7D7D7D7D7D7D7D7D7D7D7D7D7D7D7D7D7D7D7D7D7D7D7D7D7D7D7
310
D7D7D7D7D7D7D7D7D7D7D7D7D7D7D7D7D7D7D7D7D7D70000000000D7D7D7D7D7D7D7D7D7D7D7D7D7D7D7D7D7D7D7D7D7D7D7D7D7D7D7D7D7D7D7D7D7D7D7D7D7D7D7D7D7D7D7D7D7D7D7D7D7D7D7D7D7D7D7D7D7D7D7D7D7D7D7D7D7D7D7D7D7D7D7D7D7D7D7D7D7D7D7D7D7D7D7D7D7D7D7D7D7D7D7D7D7D7D7D7D7D7D7D7
310
D7D700D7D7D7D7D7D7D7D7D70000D7D7D7D7D7D7D7D7D700D7D7D7D7D7D7D7D7D7D7D7D7D7D7D7D7D7D7D7D7D7D7D7D7D7D7D7D7D7D7D7D7D7D7D7D7D7D7D7D7D7D7D7D7D7D7D7D7D7D7D7D7D7D7D7D7D7D7D7D7D7D7D7D7D7D7D7D7D7D7D7D7D7D7D7D7D7D7D7D7D70000D7D7D7D7D70000D7D7D7D7D7D7D7D7D7D7D7D7D7
310
D7D7D7D7D7D7D7D7D7D7D7D7D7D7D7D7D7D7D7D7D7D7D7D7D7D7D7D7D7D7D7D7D7D7D7D7D7D7D7D7D7D7D7D7D7D7D7D7D7D7D7D7D7D7D7D7D7D7D7D7D7D7D7D7D7D7D7D7D7D7D7D7D7D7D7D7D7D7D7D7D7D7D7D7D7D7D700D7D7D7D7D7D7D7D7D70000D7D7D7D7D7D7D7D7D700D7D7D7D7D7D7D7D7D7D7D7D7D7D7D7D7D7D7
310
D7D7D7D7D7D7D7D7D7D7D7D7D7D7D7D7D7D7D7D7D7D7D7D7D7D7D7D7D7D7D7D7D7D7D7D7D7D7D7D7D7D7D7D7D7D7D7D7D7D7D7D7D7D7D7D7D7D7D7D7D7D7D700D7D7D7D7D7D7D700D7D7D7D7D7D7D7D7D7D7D7D7D7D7D7D7D7D7D7D7D7D7D7D7D7D7D7D7D7D7D7D7D7D7D7D7D7D7D7D7D7D7D7D7D7D7D7D7D7D7D7D7D7D7D7
310
D7D7D7D7D7D7D7D7D7D7D7D7D7D7D7D7D7D7D7D7D7D7D7D7D7D7D7D7D7D7D7D7D7D7D7D7D7D7D7D7D7D7D7D7D700D7D7D7D7D7D7D7D7D70000D7D7D7D7D7D7D7D7D700D7D7D7D7D7D7D7D7D7D7D7D7D7D7D7D7D7D7D7D7D7D7D7D7D7D7D7D7D7D7D7D7D7D7D7D7D7D7D7D7D7D7D7D7D7D7D7D7D7D7D7D7D7D7D7D7D7D7D7D7
310
D7D7D7D7D7D7D7D7D7D7D7D7D7D7D7D7D7D7D7D700D7D7D7D7D7D7D7D7D700D7D7D7D7D7D7D7D7D7D7D7D7D7D7D7D7D7D7D7D7D7D7D7D7D7D7D7D7D7D7D7D7D7D7D7D7D7D7D7D7D7D7D7D7D7D7D7D7D7D7D7D7D7D7D7D7D7D7D7D7D7D7D7D7D7D7D7D7D7D7D7D7D7D7D7D7D7D7D7D7D7D7D7D7D7D7D7D7D7D7D7D7D7D7D7D7
310
D7D7D700D7D7D7D7D7D7D7D7D70000D7D7D7D7D7D7D7D7D700D7D7D7D7D7D7D7D7D7D7D7D7D7D7D7D7D7D7D7D7D7D7D7D7D7D7D7D7D7D7D7D7D7D7D7D7D7D7D7D7D7D7D7D7D7D7D7D7D7D7D7D7D7D7D7D7D7D7D7D7D7D7D7D7D7D7D7D7D7D7D7D7D7D7D7D7D7D7D7D700D7D7D7D7D7D7D7D7D700D7D7D7D7D7D7D7D7D7D7D7
310
D7D7D7D7D7D7D7D7D7D7D7D7D7D7D7D7D7D7D7D7D7D7D7D7D7D7D7D7D7D7D7D7D7D7D7D7D7D7D7D7D7D7D7D7D7D7D7D7D7D7D7D7D7D7D7D7D7D7D7D7D7D7D7D7D7D7D7D7D7D7D7D7D7D7D7D7D7D7D7D7D7D7D7D7D7D7D7D700D7D7D7D7D7D7D7D7D70000D7D7D7D7D7D7D7D7D700D7D7D7D7D7D7D7D7D7D7D7D7D7D7D7D7D7
310
D7D7D7D7D7D7D7D7D7D7D7D7D7D7D7D7D7D7D7D7D7D7D7D7D7D7D7D7D7D7D7D7D7D7D7D7D7D7D7D7D7D7D7D7D7D7D7D7D7D7D7D7D7D7D7D7D7D7D7D7D7D7D700D7D7D7D7D7D7D7D7D700D7D7D7D7D7D7D7D7D7D7D7D7D7D7D7D7D7D7D7D7D7D7D7D7D7D7D7D7D7D7D7D7D7D7D7D7D7D7D7D7D7D7D7D7D7D7D7D7D7D7D7D7D7
310
D7D7D7D7D7D7D7D7D7D7D7D7D7D7D7D7D7D7D7D7D7D7D7D7D7D7D7D7D7D7D7D7D7D7D7D7D7D7D7D7D7D7D7D7D7D700D7D7D7D7D7D7D7D7D70000D7D7D7D7D7D7D7D7D700D7D7D7D7D7D7D7D7D7D7D7D7D7D7D7D7D7D7D7D7D7D7D7D7D7D7D7D7D7D7D7D7D7D7D7D7D7D7D7D7D7D7D7D7D7D7D7D7D7D7D7D7D7D7D7D7D7D7D7
310
D7D7D7D7D7D7D7D7D7D7D7D7D7D7D7D7D7D7D7D7D700D7D7D7D7D7D7D7D7D700D7D7D7D7D7D7D7D7D7D7D7D7D7D7D7D7D7D7D7D7D7D7D7D7D7D7D7D7D7D7D7D7D7D7D7D7D7D7D7D7D7D7D7D7D7D7D7D7D7D7D7D7D7D7D7D7D7D7D7D7D7D7D7D7D7D7D7D7D7D7D7D7D7D7D7D7D7D7D7D7D7D7D7D7D7D7D7D7D7D7D7D7D7D7D7
310
D7D7D7D700D7D7D7D7D7D7D7D7D70000D7D7D7D7D7D7D7D7D700D7D7D7D7D7D7D7D7D7D7D7D7D7D7D7D7D7D7D7D7D7D7D7D7D7D7D7D7D7D7D7D7D7D7D7D7D7D7D7D7D7D7D7D7D7D7D7D7D7D7D7D7D7D7D7D7D7D7D7D7D7D7D7D7D7D7D7D7D7D7D7D7D7D7D7D7D7D7D7D7D7D7D7D7D7D7D7D7D700D7D7D7D7D7D7D7D7D7D7D7
310
D7D7D7D7D7D7D7D7D7D7D7D7D7D7D7D7D7D7D7D7D7D7D7D7D7D7D7D7D7D7D7D7D7D7D7D7D7D7D7D7D7D7D7D7D7D7D7D7D7D7D7D7D7D7D7D7D7D7D7D7D7D7D7D7D7D7D7D7D7D7D7D7D7D7D7D7D7D7D7D7D7D7D7D7D7D7D7D7D700D7D7D7D7D7D7D7D7D70000D7D7D7D7D7D7D7D7D700D7D7D7D7D7D7D7D7D7D7D7D7D7D7D7D7
310
D7D7D7D7D7D7D7D7D7D7D7D7D7D7D7D7D7D7D7D7D7D7D7D7D7D7D7D7D7D7D7D7D7D7D7D7D7D7D7D7D7D7D7D7D7D7D7D7D7D7D7D7D7D7D7D7D7D7D7D7D7D7D7D7D700D7D7D7D7D7D7D700D7D7D7D7D7D7D7D7D7D7D7D7D7D7D7D7D7D7D7D7D7D7D7D7D7D7D7D7D7D7D7D7D7D7D7D7D7D7D7D7D7D7D7D7D7D7D7D7D7D7D7D7D7
310
D7D7D7D7D7D7D7D7D7D7D7D7D7D7D7D7D7D7D7D7D7D7D7D7D7D7D7D7D7D7D7D7D7D7D7D7D7D7D7D7D7D7D7D7D7D7D700D7D7D7D7D7D7D7D7D70000D7D7D7D7D7D7D7D7D700D7D7D7D7D7D7D7D7D7D7D7D7D7D7D7D7D7D7D7D7D7D7D7D7D7D7D7D7D7D7D7D7D7D7D7D7D7D7D7D7D7D7D7D7D7D7D7D7D7D7D7D7D7D7D7D7D7D7
310
D7D7D7D7D7D7D7D7D7D7D7D7D7D7D7D7D7D7D7D7D7D7D700D7D7D7D7D7D70000D7D7D7D7D7D7D7D7D7D7D7D7D7D7D7D7D7D7D7D7D7D7D7D7D7D7D7D7D7D7D7D7D7D7D7D7D7D7D7D7D7D7D7D7D7D7D7D7D7D7D7D7D7D7D7D7D7D7D7D7D7D7D7D7D7D7D7D7D7D7D7D7D7D7D7D7D7D7D7D7D7D7D7D7D7D7D7D7D7D7D7D7D7D7D7
310
D7D7D7D7D700D7D7D7D7D7D7D7D7D70000D7D7D7D7D7D7D7D7D700D7D7D7D7D7D7D7D7D7D7D7D7D7D7D7D7D7D7D7D7D7D7D7D7D7D7D7D7D7D7D7D7D7D7D7D7D7D7D7D7D7D7D7D7D7D7D7D7D7D7D7D7D7D7D7D7D7D7D7D7D7D7D7D7D7D7D7D7D7D7D7D7D7D7D7D7D7D7D7D7D700D7D7D7D7D7D70000D7D7D7D7D7D7D7D7D7D7
310
D7D7D7D7D7D7D7D7D7D7D7D7D7D7D7D7D7D7D7D7D7D7D7D7D7D7D7D7D7D7D7D7D7D7D7D7D7D7D7D7D7D7D7D7D7D7D7D7D7D7D7D7D7D7D7D7D7D7D7D7D7D7D7D7D7D7D7D7D7D7D7D7D7D7D7D7D7D7D7D7D7D7D7D7D7D7D7D7D7D700D7D7D7D7D7D7D7D7D70000D7D7D7D7D7D7D7D7D700D7D7D7D7D7D7D7D7D7D7D7D7D7D7D7
310
D7D7D7D7D7D7D7D7D7D7D7D7D7D7D7D7D7D7D7D7D7D7D7D7D7D7D7D7D7D7D7D7D7D7D7D7D7D7D7D7D7D7D7D7D7D7D7D7D7D7D7D7D7D7D7D7D7D7D7D7D7D7D7D7D7D70000D7D7D7D7D70000D7D7D7D7D7D7D7D7D7D7D7D7D7D7D7D7D7D7D7D7D7D7D7D7D7D7D7D7D7D7D7D7D7D7D7D7D7D7D7D7D7D7D7D7D7D7D7D7D7D7D7D7
310
D7D7D7D7D7D7D7D7D7D7D7D7D7D7D7D7D7D7D7D7D7D7D7D7D7D7D7D7D7D7D7D7D7D7D7D7D7D7D7D7D7D7D7D7D7D7D7D700D7D7D7D7D7D7D7D7D70000D7D7D7D7D7D7D7D7D700D7D7D7D7D7D7D7D7D7D7D7D7D7D7D7D7D7D7D7D7D7D7D7D7D7D7D7D7D7D7D7D7D7D7D7D7D7D7D7D7D7D7D7D7D7D7D7D7D7D7D7D7D7D7D7D7D7
310
D7D7D7D7D7D7D7D7D7D7D7D7D7D7D7D7D7D7D7D7D7D7D7D7D700D7D7D7D7D700D7D7D7D7D7D7D7D7D7D7D7D7D7D7D7D7D7D7D7D7D7D7D7D7D7D7D7D7D7D7D7D7D7D7D7D7D7D7D7D7D7D7D7D7D7D7D7D7D7D7D7D7D7D7D7D7D7D7D7D7D7D7D7D7D7D7D7D7D7D7D7D7D7D7D7D7D7D7D7D7D7D7D7D7D7D7D7D7D7D7D7D7D7D7D7
310
D7D7D7D7D7D700D7D7D7D7D7D7D7D7D70000D7D7D7D7D7D7D7D7D700D7D7D7D7D7D7D7D7D7D7D7D7D7D7D7D7D7D7D7D7D7D7D7D7D7D7D7D7D7D7D7D7D7D7D7D7D7D7D7D7D7D7D7D7D7D7D7D7D7D7D7D7D7D7D7D7D7D7D7D7D7D7D7D7D7D7D7D7D7D7D7D7D7D7D7D7D7D7D7D7D7D700D7D7D7D7D700D7D7D7D7D7D7D7D7D7D7
310
D7D7D7D7D7D7D7D7D7D7D7D7D7D7D7D7D7D7D7D7D7D7D7D7D7D7D7D7D7D7D7D7D7D7D7D7D7D7D7D7D7D7D7D7D7D7D7D7D7D7D7D7D7D7D7D7D7D7D7D7D7D7D7D7D7D7D7D7D7D7D7D7D7D7D7D7D7D7D7D7D7D7D7D7D7D7D7D7D7D7D700D7D7D7D7D7D7D7D7D70000D7D7D7D7D7D7D7D7D700D7D7D7D7D7D7D7D7D7D7D7D7D7D7
310
D7D7D7D7D7D7D7D7D7D7D7D7D7D7D7D7D7D7D7D7D7D7D7D7D7D7D7D7D7D7D7D7D7D7D7D7D7D7D7D7D7D7D7D7D7D7D7D7D7D7D7D7D7D7D7D7D7D7D7D7D7D7D7D7D7D7D7D700D7D7D7D70000D7D7D7D7D7D7D7D7D7D7D7D7D7D7D7D7D7D7D7D7D7D7D7D7D7D7D7D7D7D7D7D7D7D7D7D7D7D7D7D7D7D7D7D7D7D7D7D7D7D7D7D7
310
D7D7D7D7D7D7D7D7D7D7D7D7D7D7D7D7D7D7D7D7D7D7D7D7D7D7D7D7D7D7D7D7D7D7D7D7D7D7D7D7D7D7D7D7D7D7D7D7D700D7D7D7D7D7D7D7D7D70000D7D7D7D7D7D7D7D7D700D7D7D7D7D7D7D7D7D7D7D7D7D7D7D7D7D7D7D7D7D7D7D7D7D7D7D7D7D7D7D7D7D7D70000D7D7D7D7D7D7D7D7D7D7D7D7D7D7D7D7D7D7D7D7
310
D7D7D7D7D7D7D7D7D7D7D7D7D7D7D7D7D7D7D7D7D7D7D7D7D7D7D70000000000D7D7D7D7D7D7D7D7D7D7D7D7D7D7D7D7D7D7D7D7D7D7D7D7D7D7D7D7D7D7D7D7D7D7D7D7D7D7D7D7D7D7D7D7D7D7D7D7D7D7D7D7D7D7D7D7D7D7D7D7D7D7D7D7D7D7D7D7D7D7D7D7D7D7D7D7D7D7D7D7D7D7D7D7D7D7D7D7D7D7D7D7D7D7D7
310
D7D7D7D7D7D7D700D7D7D7D7D7D7D7D7D70000D7D7D7D7D7D7D7D7D700D7D7D7D7D7D7D7D7D7D7D7D7D7D7D7D7D7D7D7D7D7D7D7D7D7D7D7D7D7D7D7D7D7D7D7D700D7D7D7D7D7D7D7D7D7D7D7D7D7D7D7D7D7D7D7D7D7D7D7D7D7D7D7D7D7D7D7D7D7D7D7D7D7D7D7D7D7D7D7D7D7D70000000000D7D7D7D7D7D7D7D7D7D7
310
D7D7D7D7D7D7D7D7D7D7D7D7D7D7D7D7D7D7D7D7D7D7D7D7D7D7D7D7D7D7D7D7D7D7D7D7D7D7D7D7D7D7D7D7D7D7D7D7D7D7D7D7D7D7D7D7D7D7D7D7D7D7D7D7D7D7D7D7D7D7D7D7D7D7D7D7D7D7D7D7D7D7D7D7D7D7D7D7D7D7D7D700D7D7D7D7D7D7D7D7D70000D7D7D7D7D7D7D7D7D700D7D7D7D7D7D7D7D7D7D7D7D7D7
310
D7D7D7D7D7D7D7D7D7D7D7D700D70000D700D700D700D700D7D7D7D7D7D7D7D7D7D7D7D7D7D7D7D7D7D7D7D7D7D7D7D7D7D7D7D7D7D7D7D7D7D7D7D7D7D7D7D7D7D7D7D7D7D7D7D70000D7D7D7D7D7D7D7D7D7D7D7D7D7D7D7D7D7D7D7D7D7D7D7D7D7D7D7D7D7D7D7D7D7D7D7D7D7D7D7D7D7D7D7D7D7D7D7D7D7D7D7D7D7
310
D7D7D7D7D7D7D7D7D7D7D7D7D7D7D7D7D7D7D7D7D7D7D7D7D7D7D7D7D7D7D7D7D7D7D7D7D7D7D7D7D7D7D7D7D7D7D7D7D7D700D7D7D7D7D7D7D7D7D70000D7D7D7D7D7D7D7D7D700D7D7D7D7D7D7D7D7D7D7D7D7D7D7D7D7D7D7D7D7D7D7D7D7D700D700D70000D700D700D700D700D7D7D7D7D7D7D7D7D7D7D7D7D7D7D7D7
310
D7D7D7D7D7D7D7D7D7D7D7D7D7D7D7D7D7D7D7D7D7D7D7D7D7D7D7D7D7D70000D7D7D7D7D7D7D7D7D7D7D7D7D7D7D7D7D7D7D7D7D7D7D7D7D7D7D7D7D7D7D7D7D7D7D7D7D7D7D7D7D7D7D7D7D7D7D7D7D7D7D7D7D7D7D7D7D7D7D7D7D7D7D7D7D7D7D7D7D7D7D7D7D7D7D7D7D7D7D7D7D7D7D7D7D7D7D7D7D7D7D7D7D7D7D7
310
D7D7D7D7D7D7D7D700D7D7D7D7D7D7D7D7D70000D7D7D7D7D7D7D7D7D700D7D7D7D7D7D7D7D7D7D7D7D7D7D7D7D7D7D7D7D7D7D7D7D7D7000000000000D7D7D7D70000D700D7D7D7D7D7D7D7D7D7D7D7D7D7D7D7D7D7D7D7D7D7D7D7D7D7D7D7D7D7D7D7D7D7D7D7D7D7D7D7D7D7D7D7D7D7D70000D7D7D7D7D7D7D7D7D7D7
310
D7D7D7D7D7D7D7D7D7D7D7D7D7D7D7D7D7D7D7D7D7D7D7D7D7D7D7D7D7D7D7D7D7D7D7D7D7D7D7D7D7D7D7D7D7D7D7D7D7D7D7D7D7D7D7D7D7D7D7D7D7D7D7D7D7D7D7D7D7D7D7D7D7D7D7D7D7D7D7D7D7D7D7D7D7D7D7D7D7D7D7D7D700D7D7D7D7D7D7D7D7D70000D7D7D7D7D7D7D7D7D700D7D7D7D7D7D7D7D7D7D7D7D7
310
D7D7D7D7D7D7D7D7D7D7D7D7D7D7D7D7D7D7D7D7D7D7D7D7D7D7D7D7D7D7D7D7D7D7D7D7D7D7D7D7D7D7D7D7D7D7D7D7D7D7D7D7D7D7D7D7D7D7D7D7D7D7D7D7D7D7D7D7D7D7D7D7D7D700D7D7D7D7D7D7D7D7D7D7D7D7D7D7D7D7D7D7D7D7D7D7D7D7D7D7D70000D7D7D7D7D7D7D7D7D7D7D7D7D7D7D7D7D7D7D7D7D7D7D7
310
D7D7D7D7D7D7D7D7D7D7D7D7D7D7D7D7D7D7D7D7D7D7D7D7D7D7D7D7D7D7D7D7D7D7D7D7D7D7D7D7D7D7D7D7D7D7D7D7D7D7D700D7D7D7D7D7D7D7D7D70000D7D7D7D7D7D7D7D7D700D7D7D7D7D7D7D7D7D7D7D7D7D7D7D7D7D7D7D7D7D7D7D7D7D7D7D7D7D7D7D7D7D7D7D7D7D7D7D7D7D7D7D7D7D7D7D7D7D7D7D7D7D7D7
310
D7D7D7D7D7D7D7D7D7D7D7D7D7D7D7D7D7D7D7D7D7D7D7D7D7D7D7D7D7D7D7D700D7D7D7D7D7D7D7D7D7D7D7D7D7D7D7D7D7D7D7D7D7D7D7D7D7D700D7D70000D7D7D7D7D7D7D7D7D7D7D7D7D7D7D7D7D7D7D7D7D7D7D7D7D7D7D7D7D7D7D7D7D7D7D7D7D7D7D7D7D7D7D7D7D7D7D7D7D7D7D7D7D7D7D7D7D7D7D7D7D7D7D7
310
D7D7D7D7D7D7D7D7D700D7D7D7D7D7D7D7D7D70000D7D7D7D7D7D7D7D7D700D7D7D7D7D7D7D7D7D7D7D7D7D7D7D7D7D7D7D7D7D7D7D7D7D7D7D7D7D7D7D7D7D7D7D7D7D7D7D7D7D7D7D7D7D7D7D7D7D7D7D7D7D7D7D7D7D7D7D7D7D7D7D7D7D7D7D7D7D7D7D7D7D7D7D7D7D7D7D7D7D7D7D7D7D7D700D7D7D7D7D7D7D7D7D7
310
D7D7D7D7D7D7D7D7D7D7D7D7D7D700D7D7D7D7D7D7D7D700D7D7D7D7D7D7D7D7D7D7D7D7D7D7D7D7D7D7D7D7D7D7D7D7D7D7D7D7D7D7D7D7D7D7D7D7D7D7D7D7D7D7D7D7D7D7D7D7D7D7D7D7D7D7D7D7D7D7D7D7D7D7D7D7D7D7D7D7D7D700D7D7D7D7D7D7D7D7D70000D7D7D7D7D7D7D7D7D700D7D7D7D7D7D7D7D7D7D7D7
310
D7D7D7D7D7D7D7D70000D7D70000D7D70000D70000D7D7000000D700D7D70000D7D7D7D7D7D7D7D7D7D7D7D7D7D7D7D7D7D7D7D7D7D7D7D7D7D7D7D7D7D7D7D7D7D7D7D7D7D7D7D7D7D7D700D7D7D7D7D7D7D7D7D7D7D7D7D7D7D7D7D7D7D7D7D7D700D7D7D7D7D7D7D7D700D7D7D7D7D7D7D7D7D7D7D7D7D7D7D7D7D7D7D7
310
D7D7D7D7D7D7D7D7D7D7D7D7D7D7D7D7D7D7D7D7D7D7D7D7D7D7D7D7D7D7D7D7D7D7D7D7D7D7D7D7D7D7D7D7D7D7D7D7D7D7D7D700D7D7D7D7D7D7D7D7D70000D7D7D7D7D7D7D7D7D700D7D7D7D7D7D7D7D7D7D7D7D7D7D7D7D7D7D7D700D700D700D700D7D7D7D700D7D7D7D70000D700D7D7D7D7D7D7D7D7D7D7D7D7D7D7
310
D7D7D7D7D7D7D7D7D7D7D7D7D7D7D7D7D7D7D7D7D7D7D7D7D7D7D7D7D7D7D7D7D700D7D7D7D7D7D7D7D7D7D7D7D7D7D7D7D7D7D7D70000D7D7D7D7D7D7D700D7D7D7D7D7D7D7D7D7D7D7D7D7D7D7D7D7D7D7D7D7D7D7D7D7D7D7D7D7D7D7D7D7D7D7D7D7D7D7D7D7D7D7D7D7D7D7D7D7D7D7D7D7D7D7D7D7D7D7D7D7D7D7D7
310
D7D7D7D7D7D7D7D7D7D700D7D7D7D7D7D7D7D7D70000D7D7D7D7D7D7D7D7D700D7D7D7D7D7D7D7D7D7D7D7D7D7D7D7D7D7D7D700D700D700D700D7D7D7D700D7D7D7D7D700D700D7D7D7D7D7D7D7D7D7D7D7D7D7D7D7D7D7D7D7D7D7D7D7D7D7D7D7D7D7D7D7D7D7D7D7D7D7D7D7D7D7D7D7D7D7D7D700D7D7D7D7D7D7D7D7
310
D7D7D7D7D7D7D7D7D70000D7D7D7D7D7D7D7D700D7D7D7D7D7D7D7D7D7D7D7D7D7D7D7D7D7D7D7D7D7D7D7D7D7D7D7D7D7D7D7D7D7D7D7D7D7D7D7D7D7D7D7D7D7D7D7D7D7D7D7D7D7D7D7D7D7D7D7D7D7D7D7D7D7D7D7D7D7D7D7D7D7D7D700D7D7D7D7D7D7D7D7D70000D7D7D7D7D7D7D7D7D700D7D7D7D7D7D7D7D7D7D7
310
D7D7D7D7D7D7D7D7D700D7D7D700D7D7D7D7D7D700D7D7D7D7D7D7D7D7D7D7D7D7D7D7D7D7D7D7D7D7D7D7D7D7D7D7D7D7D7D7D7D7D7D7D7D7D7D7D7D7D7D7D7D7D7D7D7D7D7D7D7D7D7D7D700D7D7D7D7D7D7D7D7D7D7D7D7D7D70000D7D7D7D7D7D7D7D70000D7D7D7D7D7D7D7D7D7D7D7D7D7D7D7D7D7D7D7D7D7D7D7D7
310
D7D7D7D7D7D7D7D7D7D7D7D7D7D7D7D7D7D7D7D7D7D7D7D7D7D7D7D7D7D7D7D7D7D7D7D7D7D7D7D7D7D7D7D7D7D7D7D7D7D7D7D7D700D7D7D7D7D7D7D7D7D70000D7D7D7D7D7D7D7D7D700D7D7D7D7D7D7D7D7D7D7D7D7D7D7D7D7D7D7D7D7D7D7D7D7D7D7D7D7D7D7D7D7D7D7D7D7D7D7D7D7D7D7D7D7D7D7D7D7D7D7D7D7
310
D7D7D7D7D7D7D7D7D7D7D7D7D7D7D7D7D7D7D7D7D7D7D7D7D7D7D7D7D7D7D7D7D7D700D7D7D7D7D7D7D7D7D7D7D7D700D7D7D7D7D7D7D7D7D700D7D7D7D7D7D7D7D7D700D7D7D7D7D7D7D7D7D7D7D7D7D7D7D7D7D7D7D7D7D7D7D7D7D7D7D7D7D7D7D7D7D7D7D7D7D7D7D7D7D7D7D7D7D7D7D7D7D7D7D7D7D7D7D7D7D7D7D7
310
D7D7D7D7D7D7D7D7D7D7D700D7D7D7D7D7D7D7D7D70000D7D7D7D7D7D7D7D7D700D7D7D7D7D7D7D7D7D7D7D7D7D7D7D7D7D7D7D7D7D7D7D7D7D7D7D7D7D7D7D7D7D7D7D7D7D7D7D7D7D7D7D7D7D7D7D7D7D7D7D7D7D7D7D7D7D7D7D7D7D7D7D7D7D7D7D7D7D7D7D7D7D7D7D7D7D7D7D7D7D7D7D7D7D7D700D7D7D7D7D7D7D7
310
D7D7D70000D7D7D7D7D7D7D7D7D700D7D7D7D7D7D7D7D7D700D7D7D7D7D7D7D7D7D7D7D7D7D7D7D7D7D7D7D7D7D7D7D7D7D7D7D7D7D7D7D7D7D7D7D7D7D7D7D7D7D7D7D7D7D7D7D7D7D7D7D7D7D7D7D7D7D7D7D7D7D7D7D7D7D7D7D7D7D7D7D700D7D7D7D7D7D7D7D7D70000D7D7D7D7D7D7D7D7D700D7D7D7D7D7D7D7D7D7
310
D7D7D7D7D7D7D7D700D7D7D7D7D7D7D7D7D7D7D7D7D7D7D7D7D7D7D7D7D7D7D7D7D7D7D7D7D7D7D7D7D7D7D7D7D7D7D7D7D7D7D7D7D7D7D7D7D7D7D7D7D7D7D7D7D7D7D7D7D7D7D7D7D7D7D7D700D7D7D7D7D7D7D700D7D7D7D7D7D7D7D7D70000D7D7D7D7D7D7D7D7D700D7D7D7D7D7D7D7D7D7D7D7D7D7D7D7D7D7D7D7D7
310
D7D7D7D7D7D7D7D7D7D7D7D7D7D7D7D7D7D7D7D7D7D7D7D7D7D7D7D7D7D7D7D7D7D7D7D7D7D7D7D7D7D7D7D7D7D7D7D7D7D7D7D7D7D700D7D7D7D7D7D7D7D7D70000D7D7D7D7D7D7D7D7D700D7D7D7D7D7D7D7D7D7D7D7D7D7D7D7D70000000000D70000D7D7D70000D7D700D7D700D7D700D70000D7D700D7D700D7D7D7D7
310
D7D7D7D7D7D7D7D7D7D7D7D7D7D7D7D7D7D7D7D7D7D7D7D7D7D7D7D7D7D7D7D7D7D7D700D7D7D7D7D7D700D7D7D7D7D7D7D7D7D700D7D7D7D7D7D7D7D7D7D700D7D7D7D7D7D7D7D7D7D7D7D7D7D7D7D7D7D7D7D7D7D7D7D7D7D7D7D7D7D7D7D7D7D7D7D7D7D7D7D7D7D7D7D7D7D7D7D7D7D7D7D7D7D7D7D7D7D7D7D7D7D7D7
310
D7D7D7D7D7D7D7D7D7D7D7D700D7D7D7D7D7D7D7D7D70000D7D7D7D7D7D7D7D7D700D7D7D7D7D7D7D7D7D7D7D7D7D7D7D700D700D70000D7D7D7D7D7D7D7D7D70000D7D7D70000D7D70000D70000D7D700D7D7D7D7D7D7D7D7D7D7D7D7D7D7D7D7D7D7D7D7D7D7D7D7D7D7D7D7D7D7D7D7D7D7D7D7D7D7D700D7D7D700D7D7
310
D7D7D7D7D7D7D700D7D7D7D7D7D7D7D7D7D70000D7D7D7D7D7D7D7D7D7D7D7D7D7D7D7D7D7D7D7D7D7D7D7D7D7D7D7D7D7D7D7D7D7D7D7D7D7D7D7D7D7D7D7D7D7D7D7D7D7D7D7D7D7D7D7D7D7D7D7D7D7D7D7D7D7D7D7D7D7D7D7D7D7D7D7D7D700D7D7D7D7D7D7D7D7D70000D7D7D7D7D7D7D7D7D700D7D7D7D7D7D7D7D7
310
D7D7D7D7D7D7D700D700D7D700D7D7D7D7D7D7D7D7D70000D7D7D70000D7D7D700D70000D7D700D7D7D7D7D7D7D7D7D7D7D7D7D7D7D7D7D7D7D7D7D7D7D7D7D7D7D7D7D7D7D7D7D7D7D7D7D7D7D700D70000D7D7D7D7D7D7D7D7D700D7D7D7D7D7D7D7D7D7D700D7D7D7D7D7D7D7D7D7D7D7D7D7D7D7D7D7D7D7D7D7D7D7D7
310
D7D7D7D7D7D7D7D7D7D7D7D7D7D7D7D7D7D7D7D7D7D7D7D7D7D7D7D7D7D7D7D7D7D7D7D7D7D7D7D7D7D7D7D7D7D7D7D7D7D7D7D7D7D7D700D7D7D7D7D7D7D7D7D70000D7D7D7D7D7D7D7D7D700D7D7D7D7D7D7D7D7D7D7D7D7D7D7D7D7D7D7D7D7D7D7D7D7D7D7D7D7D7D7D7D7D7D7D7D7D7D7D7D7D7D7D7D7D7D7D7D7D7D7
310
D7D7D7D7D7D7D7D7D7D7D7D7D7D7D7D7D7D7D7D7D7D7D7D7D7D7D7D7D7D7D7D7D7D7D7D700D7D7D7D7D7D7D7D70000D7D7D7D7D7D7D7D7D7D7D700D7D7D7D7D7D7D7D7D7D7D7D7D7D7D7D7D7D7D7D7D7D7D7D7D7D7D7D7D7D7D7D7D7D7D7D7D7D7D7D7D7D7D7D7D7D7D7D7D7D7D7D7D7D7D7D7D7D7D7D7D7D7D7D7D7D7D7D7
310
D7D7D7D7D7D7D7D7D7D7D7D7D700D7D7D7D7D7D7D7D7D70000D7D7D7D7D7D7D7D7D700D7D7D7D7D7D7D7D7D7D7D7D7D7D7D7D7D7D7D7D7D7D7D7D7D7D7D7D7D7D7D7D7D7D7D7D7D7D7D7D7D7D7D7D7D7D7D7D7D7D7D7D7D7D7D7D7D7D7D7D7D7D7D7D7D7D7D7D7D7D7D7D7D7D7D7D7D7D7D7D7D7D7D700D7D700D7D7D7D7D7
310
D700D7D7D7D7D7D7D7D7D7D70000D7D7D7D7D7D7D7D7D7D7D7D7D7D7D7D7D7D7D7D7D7D7D7D7D7D7D7D7D7D7D7D7D7D7D7D7D7D7D7D7D7D7D7D7D7D7D7D7D7D7D7D7D7D7D7D7D7D7D7D7D7D7D7D7D7D7D7D7D7D7D7D7D7D7D7D7D7D7D7D7D7D7D7D700D7D7D7D7D7D7D7D7D70000D7D7D7D7D7D7D7D7D700D7D7D7D7D7D7D7
310
D7D7D7D7D7D7D7D7D7D7D7D7D7D7D7D7D7D7D7D7D7D7D7D7D7D7D7D7D7D7D7D7D7D7D7D7D7D7D7D7D7D7D7D7D7D7D7D7D7D7D7D7D7D7D7D7D7D7D7D7D7D7D7D7D7D7D7D7D7D7D7D7D7D70000D7D7D700D7D7D7D70000D7D7D7D7D7D7D7D7D7D700D7D7D7D7D7D7D7D7D7D7D7D7D7D7D7D7D7D7D7D7D7D7D7D7D7D7D7D7D7D7
310
D7D7D7D7D7D7D7D7D7D7D7D7D7D7D7D7D7D7D7D7D7D7D7D7D7D7D7D7D7D7D7D7D7D7D7D7D7D7D7D7D7D7D7D7D7D7D7D7D7D7D7D7D7D7D7D700D7D7D7D7D7D7D7D7D70000D7D7D7D7D7D7D7D7D700D7D7D7D7D7D7D7D7D7D7D7D7D7D7D7D7D7D7D7D7D7D7D7D7D7D7D7D7D7D7D7D7D7D7D7D7D7D7D7D7D7D7D7D7D7D7D7D7D7
310
D7D7D7D7D7D7D7D7D7D7D7D7D7D7D7D7D7D7D7D7D7D7D7D7D7D7D7D7D7D700D7D7D7D7D7D700D70000D7D7D7D7D7D7D7D7D7D700D7D7D7D7D7D7D7D7D7D7D7D7D7D7D7D7D7D7D7D7D7D7D7D7D7D7D7D7D7D7D7D7D7D7D7D7D7D7D7D7D7D7D7D7D7D7D7D7D7D7D7D7D7D7D7D7D7D7D7D7D7D7D7D7D7D7D7D7D7D7D7D7D7D7D7
310
D7D7D7D7D7D7D7D7D7D7D7D7D7D700D7D7D7D7D7D7D7D7D70000D7D7D7D7D7D7D7D7D700D7D7D7D7D7D7D7D7D7D7D7D7D7D7D7D7D700D700D7D700D7D7D7D7D70000D7D7D7000000D7D700D70000D7000000D7D7D7D7D7D7D7D7D7D7D7D7D7D7D7D7D7D7D7D7D7D7D7D7D7D7D7D7D7D7D70000D7D7D7D7D7D7D70000D7D7D7
310
D7D7D7D7D7D7D7D700D7D7D7D7D7D7D7D7D7D7D7D7D7D7D7D7D7D7D7D7D7D7D7D7D7D7D7D7D7D7D7D7D7D7D7D7D7D7D7D7D7D7D7D7D7D7D7D7D7D7D7D7D7D7D7D7D7D7D7D7D7D7D7D7D7D7D7D7D7D7D7D7D7D7D7D7D7D7D7D7D7D7D7D7D7D7D7D7D7D700D7D7D7D7D7D7D7D7D70000D7D7D7D7D7D7D7D7D700D7D7D7D7D7D7
310
D7D7D7D7D7D7D7D7D7D7D700D7D7D700D700D7D7D7D70000D7D7D7000000D7D700D70000D7D70000D7D7D7D7D7D7D700D7D7D7D7D7D7D7D7D7D7D7D7D7D7D7D7D7D7D7D70000D7D7D7D7D7D7D7D700D700D7D7D7D7D7D7D7D70000D7D7D7D7D7D7D7D7D7D7D7D7D7D7D7D7D7D7D7D7D7D7D7D7D7D7D7D7D7D7D7D7D7D7D7D7
310
D7D7D7D7D7D7D7D7D7D7D7D7D7D7D7D7D7D7D7D7D7D7D7D7D7D7D7D7D7D7D7D7D7D7D7D7D7D7D7D7D7D7D7D7D7D7D7D7D7D7D7D7D7D7D7D7D700D7D7D7D7D7D7D7D7D70000D7D7D7D7D7D7D7D7D700D7D7D7D7D7D7D7D7D7D7D7D7D7D7D7D7D700D7D7D700D70000D7D7D7000000D7D70000D7D7D7000000D7D7000000D7D7
310
D7D7D7D7D7D7D7D7D7D7D7D7D7D7D7D7D7D7D7D7D7D7D7D700D7D7D7D7D7D7D7D70000D7D7D700D7D7D7D7D7D700D7D7D7D7D7D7D7D7D7D7D7D7D7D7D7D7D7D7D7D7D7D7D7D7D7D7D7D7D7D7D7D7D7D7D7D7D7D7D7D7D7D7D7D7D7D7D7D7D7D7D7D7D7D7D7D7D7D7D7D7D7D7D7D7D7D7D7D7D7D7D7D7D7D7D7D7D7D7D7D7D7
310
D7D7D7D7D7D7D7D7D7D7D7D7D7D7D700D7D7D7D7D7D7D7D7D70000D7D7D7D7D7D7D7D7D700D7D7D7D7D7D7D7D7D7D7D7D7D7D7D7D7D700D7D70000000000D7D7D7D7D7D7D7D700D7D7D7D700D7D7D7D7D7D7D7D7D7D7D7D7D7D7D7D700D7D7D7D7D7D7D7D7D7D7D7D7D7D7D700D7D7D7D7D7D7D7D700D7D7D7D7D700D7D7D7
310
D70000D7D7D7D7D7D7D7D7D7D7D7D7D7D7D7D7D7D7D7D7D7D7D7D7D7D7D7D7D7D7D7D7D7D7D7D7D7D7D7D7D7D7D7D7D7D7D7D7D7D7D7D7D7D7D7D7D7D7D7D7D7D7D7D7D7D7D7D7D7D7D7D7D7D7D7D7D7D7D7D7D7D7D7D7D7D7D7D7D7D7D7D7D7D7D7D7D700D7D7D7D7D7D7D7D7D70000D7D7D7D7D7D7D7D7D700D7D7D7D7D7
310
D7D7D7D7D7D7D7D7D7D7D7D7D7D7D7D7D7D7D7D7D7D7D7D7D7D7D7D7D7D7D7D7D7D7D7D7D7D7D7D7D7D7D7D7D7D7D7D7D7D7D7D7D7D7D7D7D7D7D7D7D7D70000D7D7D7D7D7D7D7D70000D7D7D7D7D7D7D700D70000D7D7D7D7D7D7D7D7D7D7D7D7D7D7D7D7D7D7D7D7D7D7D7D7D7D7D7D7D7D7D7D7D7D7D7D7D7D7D7D7D7D7
310
D7D7D7D7D7D7D7D7D7D7D7D7D7D7D7D7D7D7D7D7D7D7D7D7D7D7D7D7D7D7D7D7D7D7D7D7D7D7D7D7D7D7D7D7D7D7D7D7D7D7D7D7D7D7D7D7D7D700D7D7D7D7D7D7D7D7D70000D7D7D7D7D7D7D7D7D700D7D7D7D7D7D7D7D7D7D7D7D7D7D7D7D7D7D7D7D7D7D7D7D7D7D7D7D7D7D7D7D7D7D7D7D7D7D7D7D7D7D7D7D7D7D7D7
310
D7D7D7D7D7D7D7D7D7D7D7D7D7D7D7D7D7D7D700D7D7D7D7D7D7D7D7D700D7D7D7D7D7D7D7D7D70000D7D7D7D7D7D7D7D7D7D7D7D7D7D7D7D7D7D7D7D7D7D7D7D7D7D7D7D7D7D7D7D7D7D7D7D7D7D7D7D7D7D7D7D7D7D7D7D7D7D7D7D7D7D7D7D7D7D7D7D7D7D7D7D7D7D7D7D7D7D7D7D7D7D7D7D7D7D7D7D7D7D7D7D7D7D7
310
D7D7D7D7D7D7D7D7D7D7D7D7D7D7D7D700D7D7D7D7D7D7D7D7D70000D7D7D7D7D7D7D7D7D700D7D7D7D7D7D7D7D7D7D7D7D7D7D7D7D7D7D7D7D7D7D7D7D7D7D7D7D7D7D7D7D7D7D7D7D7D7D7D7D7D7D7D7D7D7D7D7D7D7D7D7D7D7D7D7D7D7D700D7D7D7D7D700D7D7D7D7D7D7D7D700D7D7D7D7D7D7D7D7D7D700D700D7D7
310
D7D7D7D7D7D7D7D7D7D7D7D7D7D7D7D7D7D7D7D7D7D7D7D7D7D7D7D7D7D7D7D7D7D7D7D7D7D7D7D7D7D7D7D7D7D7D7D7D7D7D7D7D7D7D7D7D7D7D7D7D7D7D7D7D7D7D7D7D7D7D7D7D7D7D7D7D7D7D7D7D7D7D7D7D7D7D7D7D7D7D7D7D7D7D7D7D7D7D7D7D700D7D7D7D7D7D7D7D7D70000D7D7D7D7D7D7D7D7D700D7D7D7D7
310
D7D7D7D7D7D7D7D7D7D7D7D7D7D7D7D7D7D7D7D7D7D7D7D7D7D7D7D7D7D7D7D7D7D7D7D7D7D7D7D7D7D7D7D7D7D7D7D7D7D7D7D7D7D7D7D7D7D70000D7D7D7D7D7D7D7D700D7D7D7D7D7D7D7D7D7D700D7D700D7D7D7D7D7D7D7D7D7D7D7D7D7D7D7D7D7D7D7D7D7D7D7D7D7D7D7D7D7D7D7D7D7D7D7D7D7D7D7D7D7D7D7D7
310
D7D7D7D7D7D7D7D7D7D7D7D7D7D7D7D7D7D7D7D7D7D7D7D7D7D7D7D7D7D7D7D7D7D7D7D7D7D7D7D7D7D7D7D7D7D7D7D7D7D7D7D7D7D7D7D7D7D7D700D7D7D7D7D7D7D7D7D70000D7D7D7D7D7D7D7D7D700D7D7D7D7D7D7D7D7D7D7D7D7D7D7D7D7D7D7D7D7D7D7D7D7D7D7D7D7D7D7D7D7D7D7D7D7D7D7D7D7D7D7D7D7D7D7
310
D7D7D7D7D7D7D7D7D7D7D7D7D700D7D7D7D7D7D7D7D7D700D7D7D7D7D7D7D7D7D7D700D7D7D7D7D700D7D7D7D7D7D7D7D7D7D7D7D7D7D7D7D7D7D7D7D7D7D7D7D7D7D7D7D7D7D7D7D7D7D7D7D7D7D7D7D7D7D7D7D7D7D7D7D7D7D7D7D7D7D7D7D7D7D7D7D7D7D7D7D7D7D7D7D7D7D7D7D7D7D7D7D7D7D7D7D7D7D7D7D7D7D7
310
D7D7D7D7D7D7D7D7D7D7D7D7D7D7D7D7D700D7D7D7D7D7D7D7D7D70000D7D7D7D7D7D7D7D7D700D7D7D7D7D7D7D7D7D7D7D7D7D7D7D7D7D7D7D7D7D7D7D7D7D7D7D7D7D7D7D7D7D7D7D7D7D7D7D7D7D7D7D7D7D7D7D7D7D7D7D7D7D7D7D7D7D700D7D7D700D7D7D7D700D7D7D7D7D7D7D7D7D7D70000D7D7D7D7D7D7D700D7
310
D7D7D7D7D7D7D7D7D7D7D7D7D7D7D7D7D7D7D7D7D7D7D7D7D7D7D7D7D7D7D7D7D7D7D7D7D7D7D7D7D7D7D7D7D7D7D7D7D7D7D7D7D7D7D7D7D7D7D7D7D7D7D7D7D7D7D7D7D7D7D7D7D7D7D7D7D7D7D7D7D7D7D7D7D7D7D7D7D7D7D7D7D7D7D7D7D7D7D7D7D7D700D7D7D7D7D7D7D7D7D70000D7D7D7D7D7D7D7D7D700D7D7D7
310
D7D7D7D7D7D7D7D7D7D7D7D7D7D7D7D7D7D7D7D7D7D7D7D7D7D7D7D7D7D7D7D7D7D7D7D7D7D7D7D7D7D7D7D7D7D7D7D7D7D7D7D70000D7D7D7D7D7D7D7D700D7D7D7D7D7D7D7D7D7D700D7D7D7D7D7D7D7D7D700D7D7D7D7D7D7D7D7D7D7D7D7D7D7D7D7D7D7D7D7D7D7D7D7D7D7D7D7D7D7D7D7D7D7D7D7D7D7D7D7D7D7D7
310
D7D7D7D7D7D7D7D7D7D7D7D7D7D7D7D7D7D7D7D7D7D7D7D7D7D7D7D7D7D7D7D7D7D7D7D7D7D7D7D7D7D7D7D7D7D7D7D7D7D7D7D7D7D7D7D7D7D7D7D700D7D7D7D7D7D7D7D7D70000D7D7D7D7D7D7D7D7D700D7D7D7D7D7D7D7D7D7D7D7D7D7D7D7D7D7D7D7D7D7D7D7D7D7D7D7D7D7D7D7D7D7D7D7D7D7D7D7D7D7D7D7D7D7
310
D7D7D7D7D7D7D700D7D7D7D7D7D7D7D7D700D7D7D7D7D7D7D7D7D7D700D7D7D7D7D7D7D7D7D7D7D7D700D7D7D7D7D7D7D7D7D7D7D7D7D7D7D7D7D7D7D7D7D7D7D7D7D7D7D7D7D7D7D7D7D7D7D7D7D7D7D7D7D7D7D7D7D7D7D7D7D7D7D7D7D7D7D7D7D7D7D7D7D7D7D7D7D7D7D7D7D7D7D7D7D7D7D7D7D7D7D7D7D7D7D7D7D7
310
D7D7D7D7D7D7D7D7D7D7D7D7D7D7D7D7D7D700D7D7D7D7D7D7D7D7D70000D7D7D7D7D7D7D7D7D700D7D7D7D7D7D7D7D7D7D7D7D7D7D7D7D7D7D7D7D7D7D7D7D7D7D7D7D7D7D7D7D7D7D7D7D7D7D7D7D7D7D7D7D7D7D7D7D7D7D7D700D7D7D7D7D7D7D7D70000D700D7D7D7D7D7D7D7D700D7D7D7D7D7D7D7D7D7D7D7D7D700
310
D7D7D7D7D7D7D7D7D7D7D7D7D7D7D7D7D7D7D7D7D7D7D7D7D7D7D7D7D7D7D7D7D7D7D7D7D7D7D7D7D7D7D7D7D7D7D7D7D7D7D7D7D7D7D7D7D7D7D7D7D7D7D7D7D7D7D7D7D7D7D7D7D7D7D7D7D7D7D7D7D7D7D7D7D7D7D7D7D7D7D7D7D7D7D7D7D7D7D7D7D7D7D700D7D7D7D7D7D7D7D7D70000D7D7D7D7D7D7D7D7D700D7D7
310
D7D7D7D7D7D7D7D7D7D7D7D7D7D7D7D7D7D7D7D7D7D7D7D7D7D7D7D7D7D7D7D7D7D7D7D7D7D7D7D7D7D7D7D7D7D70000D7D7D7D7D7D7D7D700D7D7D7D7D700D7D7D7D700D7D700D7D7D7D7D7D7D7D7D7D7D7D7D700D7D7D7D7D7D7D7D7D7D7D7D7D7D7D7D7D7D7D7D7D7D7D7D7D7D7D7D7D7D7D7D7D7D7D7D7D7D7D7D7D7D7
310
D7D7D7D7D7D7D7D7D7D7D7D7D7D7D7D7D7D7D7D7D7D7D7D7D7D7D7D7D7D7D7D7D7D7D7D7D7D7D7D7D7D7D7D7D7D7D7D7D7D7D7D7D7D7D7D7D7D7D7D7D700D7D7D7D7D7D7D7D7D70000D7D7D7D7D7D7D7D7D700D7D7D7D7D7D7D7D7D7D7D7D7D7D7D7D7D7D7D7D7D7D7D7D7D7D7D7D7D7D7D7D7D7D7D7D7D7D7D7D7D7D7D7D7
310
D7D70000D7D7D7D7D7D7D7D70000D7D7D7D7D7D7D700D70000D7D7D7D700D7D7D7D7D7D7D7D7D7D7D7D700D7D7D7D7D7D7D7D7D7D7D7D7D7D7D7D7D7D7D7D7D7D7D7D7D7D7D7D7D7D7D7D7D7D7D7D7D7D7D7D7D7D7D7D7D7D7D7D7D7D7D7D7D7D7D7D7D7D7D7D7D7D7D7D7D7D7D7D7D7D7D7D7D7D7D7D7D7D7D7D7D7D7D7D7
310
D7D7D7D7D7D7D7D7D7D7D7D7D7D7D7D7D7D7D700D7D7D7D7D7D7D7D7D70000D7D7D7D7D7D7D7D7D700D7D7D7D7D7D7D7D7D7D7D7D7D7D7D7D7D7D7D7D7D7D7D7D7D7D7D7D7D7D7D7D7D7D7D7D7D7D7D7D7D7D7D7D700D7D7D7D7D7D7D7D70000D7D7D7D7D7D7D7D7D7D700D7D7D7D7D7D7D7D7D7D700D7D7D7D7D7D7D7D7D7
310
00D7D7D7D7D7D7D7D7D7D7D7D7D7D7D7D7D7D7D7D7D7D7D7D7D7D7D7D7D7D7D7D7D7D7D7D7D7D7D7D7D7D7D7D7D7D7D7D7D7D7D7D7D7D7D7D7D7D7D7D7D7D7D7D7D7D7D7D7D7D7D7D7D7D7D7D7D7D7D7D7D7D7D7D7D7D7D7D7D7D7D7D7D7D7D7D7D7D7D7D7D7D7D700D7D7D7D7D7D7D7D7D70000D7D7D7D7D7D7D7D7D700D7
310
D7D7D7D7D7D7D7D7D7D7D7D7D7D7D7D7D7D7D7D7D7D7D7D7D7D7D7D7D7D7D7D7D7D7D7D7D7D7D7D70000D7D7D7D7D7D7D70000D7D7D7D7D7D7D7D7D7D700D7D7D7D7D7D7D7D7D7D7D7D7D7D7D7D700D7D7D7D7D7D700D7D7D7D7D7D7D7D7D7D7D7D7D7D7D7D7D7D7D7D7D7D7D7D7D7D7D7D7D7D7D7D7D7D7D7D7D7D7D7D7D7
310
D7D7D7D7D7D7D7D7D7D7D7D7D7D7D7D7D7D7D7D7D7D7D7D7D7D7D7D7D7D7D7D7D7D7D7D7D7D7D7D7D7D7D7D7D7D7D7D7D7D7D7D7D7D7D7D7D7D7D7D7D7D700D7D7D7D7D7D7D7D7D70000D7D7D7D7D7D7D7D7D700D7D7D7D7D7D7D7D7D7D7D7D7D7D7D7D7D7D7D7D7D7D7D7D7D7D7D7D7D7D7D7D7D7D7D7D7D7D7D70000D7D7
310
D7D7D7D7D7D700D7D7D7D7D7D7D7D7D7D70000D7D7D7D7D7D7D7D7D7D7D7D7D7D7D7D7D7D700D7D7D7D7D700D7D7D7D7D7D7D7D7D7D7D7D7D7D7D7D7D7D7D7D7D7D7D7D7D7D7D7D7D7D7D7D7D7D7D7D7D7D7D7D7D7D7D7D7D7D7D7D7D7D7D7D7D7D7D7D7D7D7D7D7D7D7D7D7D7D7D7D7D7D7D7D7D7D7D7D7D7D7D7D7D7D7D7
310
D7D7D7D7D7D7D7D7D7D7D7D7D7D7D7D7D7D7D7D700D7D7D7D7D7D7D7D7D70000D7D7D7D7D7D7D7D7D700D7D7D7D7D7D7D7D7D7D7D7D7D7D7D7D7D7D7D7D7D7D7D7D7D7D7D7D7D7D7D7D7D7D7D7D7D700D7D7D7D7D7D7D7D70000D7D7D7D7D7D7D7D7D7D700D7D700D7D7D7D7D7D7D7D7D7D7D7D7D7D7D7D7D7D7D7D7D700D7
310
D700D7D7D7D7D7D7D7D7D7D7D7D7D7D7D7D7D7D7D7D7D7D7D7D7D7D7D7D7D700D7D700D7D7D7D7D7D7D7D7D7D7D7D7D7D7D7D7D7D7D7D7D7D7D7D7D7D7D7D7D7D7D7D7D7D7D7D7D7D7D7D7D7D7D7D7D7D7D7D7D7D7D7D7D7D7D7D7D7D7D7D7D7D7D7D7D7D7D7D7D7D700D7D7D7D7D7D7D7D7D70000D7D7D7D7D7D7D7D7D700
310
D7D7D7D7D7D7D7D7D7D7D7D7D7D7D7D7D7D7D7D7D7D7D7D7D7D7D7D7D7D7D7D7D7D7D7D700D7D7D7D7D7D7D7D700D7D7D7D7D7D7D7D7D7D70000D7D7D7D70000D7D7D7D7D7D7D7D7D7D7D7D7D7D7D7D7D7D7D7D700D700D7D7D7D7D7D7D7D7D7D7D7D7D7D7D7D7D7D7D7D7D7D7D7D7D7D7D7D700D7D700D7D7D7D7D7D7D7D7
310
D7D7D7D7D7D7D7D7D7D7D7D7D7D7D7D7D7D7D7D7D7D7D7D7D7D7D7D7D7D7D7D7D7D7D7D7D7D7D7D7D7D7D7D7D7D7D7D7D7D7D7D7D7D7D7D7D7D7D7D7D7D7D700D7D7D7D7D7D7D7D7D70000D7D7D7D7D7D7D7D7D700D7D7D7D7D7D7D7D7D7D7D7D7D7D7D7D7D7D7D7D7D7D7D7D7D7D7D7D7D7D7D7D70000D7D7D7D7D7D7D7D7
310
00D7D7D7D7D7D7D7D7D7D70000D7D700D7D7D7D7D7D7D7D700D7D7D7D7D7D7D7D7D7D7D7D7D7D7D7D7D7D7D70000D7D7D7D7D7D7D7D7D7D7D7D7D7D7D7D7D7D7D7D7D7D7D70000D7D700D7D7D7D7D7D7D7D7D7D7D7D7D7D7D7D7D7D7D7D7D7D7D7D7D7D7D7D7D7D7D7D7D7D7D7D7D7D7D7D7D7D7D7D7D7D7D7D7D7D7D7D7D7
310
D7D7D7D7D7D7D7D7D7D7D7D7D7D7D7D7D7D7D7D7D700D7D7D7D7D7D7D7D7D70000D7D7D7D7D7D7D7D7D700D7D7D7D7D7D7D7D7D7D7D7D7D7D7D7D7D7D7D7D7D7D7D7D7D7D7D7D7D7D700D7D7D7D7D7D7D7D70000D7D7D7D7D7D7D7D7D70000D7D7D7D7D700D7D7D7D7D7D7D7D7D7D700D7D7D7D7D7D7D7D7D7D7D7D7D7D7D7
310
D7D700D7D7D700D7D7D7D7D7D7D7D7D7D7D7D7D7D7D7D7D7D700D7D7D700D7D7D7D7D7D7D7D7D7D7D7D7D7D7D7D7D7D7D7D7D7D7D7D7D7D7D7D7D7D7D7D7D7D7D7D7D7D7D7D7D7D7D7D7D7D7D7D7D7D7D7D7D7D7D7D7D7D7D7D7D7D7D7D7D7D7D7D7D7D7D7D7D7D7D7D700D7D7D7D7D7D7D7D7D70000D7D7D7D7D7D7D7D7D7
310
00D7D7D7D7D7D7D7D7D7D7D7D7D7D7D7D7D7D7D7D7D7D7D7D7D7D7D7D7D700D7D7D7D7D7D7D7D700D7D7D7D7D7D7D7D7D7D700D7D7D7D7D7D7D700D7D7D7D7D7D7D7D7D7D7D70000D7D7D7D7D7D7D7D7D7D7D7D7D7D7D700D7D7D7D700D7D7D7D7D7D7D7D7D7D7D7D7D7D7D7D700D7D70000D7D7D7D7D7D7D7D7D7D7D7D7D7
310
D7D7D7D7D7D7D7D7D7D7D7D7D7D7D7D7D7D7D7D7D7D7D7D7D7D7D7D7D7D7D7D7D7D7D7D7D7D7D7D7D7D7D7D7D7D7D7D7D7D7D7D7D7D7D7D7D7D7D7D7D7D7D7D700D7D7D7D7D7D7D7D7D70000D7D7D7D7D7D7D7D7D700D7D7D7D7D7D7D7D7D7D7D7D7D7D7D7D7D7D7D7D7D7D7D7D7D70000D7D7D7D7D7D7D7D700D7D7D7D7D7
310
D7D7D7D7D70000D7D7D7D7D7D7D7D7D700D7D7D7D7D7D7D7D7D7D7D7D7D7D7D700D7D7D7D7D7D7D7D7D7D7D7D700D7D7D7D7D7D7D700D7D7D7D7D7D7D7D7D70000D7D70000D7D7D7D7D7D7D7D7D700D7D7D7D7D7D7D7D7D7D7D7D7D7D7D7D7D7D7D7D7D7D7D7D7D7D7D7D7D7D7D7D7D7D7D7D7D7D7D7D7D7D7D7D7D7D7D7D7
310
D7D7D7D7D7D7D7D7D7D7D7D7D7D7D7D7D7D7D7D7D7D700D7D7D7D7D7D7D7D7D70000D7D7D7D7D7D7D7D7D700D7D7D7D7D7D7D7D7D7D7D7D7D7D7D7D7D7D7D7D7D7D7D7D700D7D7D7D7D7D7D7D7D700D7D7D7D7D7D7D7D7D7D700D7D7D7D7D7D7D7D7D7D7D700D7D7D7D7D7D7D7D7D7D7D7D7D7D7D7D70000D7D7D7D7D7D7D7
310
D7D7D700D7D7D7D7D7D7D7D70000D7D7D7D7D7D700D7D7D700D7D7D7D7D7D7D7D7D7D700D7D7D7D7D7D7D7D7D7D7D7D7D7D7D7D7D7D7D7D7D7D7D7D7D7D7D7D7D7D7D7D7D7D7D7D7D7D7D7D7D7D7D7D7D7D7D7D7D7D7D7D7D7D7D7D7D7D7D7D7D7D7D7D7D7D7D7D7D7D7D700D7D7D7D7D7D7D7D7D70000D7D7D7D7D7D7D7D7
310
D700D7D7D7D7D7D7D7D7D7D7D7D7D7D7D7D7D7D7D7D7D7D700D7D7D7D7D7D7D7D700D7D7D7D7D7D7D7D7D7D700D7D7D7D7D7D7D7D7D7D7D7D7D7D700D7D7D7D7D7D7D7D7D7D7D7D7D7D7D7D7D7D7D700D7D7D7D7D7D7D7D700D7D7D7D7D7D7D7D7D7D7D700D7D700D7D70000D7D7D7D7D7D7D7D7D700D7D7D7D7D7D7D7D7D7
310
D7D7D7D7D7D7D7D7D7D7D7D7D7D7D7D7D7D7D7D7D7D7D7D7D7D7D7D7D7D7D7D700D7D700D7D7D7D7D7D7D7D7D7D7D7D7D7D7D7D7D7D7D7D7D7D7D7D7D7D7D7D7D700D7D7D7D7D7D7D7D7D70000D7D7D7D7D7D7D7D7D700D7D7D7D7D7D7D7D7D7D7D7D7D7D7D7D7D7D7D7D70000D7D7D7D7D7D7D70000D7D7D7D7D7D7D7D7D7
310
D700D7D7D7D7D7D7D7D7D7D7D7D7D7D7D700D7D7D7D7D7D7D7D7D7D7D7D7D7D7D7D7D7D7D7D70000D7D7D7D7D7D700D7D7D7D7D7D7D7D7D7D7D7D70000D70000D7D7D7D7D7D7D7D7D7D700D7D7D7D7D7D7D7D7D7D7D7D7D7D7D7D7D7D7D7D7D7D7D7D7D7D7D7D7D7D7D7D7D7D7D7D7D7D7D7D70000D7D7D7D700D7D7D7D7D7
310
D7D7D7D7D7D7D7D7D7D7D7D7D7D7D7D7D7D7D7D7D7D7D700D7D7D7D7D7D7D7D7D70000D7D7D7D7D7D7D7D7D700D7D7D7D7D7D7D7D7D7D7D7D7D7D7D7D7D70000D7D7D7D7D7D7D7D700D7D7D7D7D7D7D7D7D7D700D7D7D7D7D7D7D7D7D7D7D7D7D7D7D7D7D7D7D7D700D7D7D7D7D7D7D7D7D7D7D7D7D7D7D7D7D7D7D7D7D700
310
00D7D7D700D7D7D7D7D7D7D7D7D7D7D7D7D7D7D70000D7D7D7D7D7D7D70000D7D7D7D7D7D7D7D7D7D7D7D7D7D7D7D7D7D7D7D7D7D7D7D7D7D7D7D7D7D7D7D7D7D7D7D7D7D7D7D700D7D7D7D7D7D7D7D7D700D7D7D7D7D7D7D7D7D7D7D7D7D7D7D7D7D7D7D7D7D7D7D7D7D7D700D7D7D7D7D7D7D7D7D70000D7D7D7D7D7D7D7
310
D7D700D7D7D7D7D7D7D7D7D7D7D7D7D7D7D700D7D7D7D7D7D7D7D700D7D7D7D7D7D7D7D7D7D700D7D7D7D7D7D7D7D7D7D7D7D7D7D7D7D7D7D7D7D7D7D7D7D7D700D7D7D7D7D7D7D7D7D7D7D7D7D7D7D7D7D7D7D7D7D7D700D700D7D7D7D7D7D7D7D7D7D7D7D7D7D7D7D7D7D700D7D700D7D7D7D7D7D7D7D7D7D7D7D7D7D7D7
310
D7D7D7D7D7D7D7D7D7D7D7D7D7D7D7D7D7D7D7D7D7D7D7D7D7D700D7D7D7D7D7D7D7D7D70000D7D7D7D7D7D7D7D7D7D7D7D7D7D7D7D7D7D7D7D7D7D7D7D7D7D7D7D700D7D7D7D7D7D7D7D7D70000D7D7D7D7D7D7D7D7D700D7D7D7D7D7D7D7D7D7D7D7D7D70000D7D7D7D7D7D7D70000D7D7D7D7D7D7D7D7D7D700D7D7D7D7
310
D7D7D7D7D7D7D7D7D7D7D7D7D7D7D7D7D7D7D7D7D7D7D70000D7D7D7D7D7D7D7D7D7D7D7D7D7D7D7D7D7D7D7D7D7D700D7D7D7D7D7D7D7D7D7D7D7D7D7D7D7D7D7D7D70000D7D7D7D7D7D7D7D7D7D7D7D7D7D7D7D7D7D7D7D7D7D7D7D7D7D7D7D7D7D7D7D7D7D7D7D7D7D7D7D70000D7D7D7D7D7D7D7D70000D7D7D7D7D7D7
310
D7D7D7D7D7D7D7D7D7D7D7D7D7D7D7D7D7D7D7D7D7D7D7D700D7D7D7D7D7D7D7D7D70000D7D7D7D7D7D7D7D7D700D7D7D7D7D7D7D7D7D7D7D700D7D7D7D7D7D7D7D700D7D7D7D7D7D7D7D7D7D700D7D7D7D7D7D7D7D7D7D7D7D7D7D7D7D7D7D7D7D7D7D7D7D7D7D7D7D7D7D7D7D7D7D700D7D7D7D7D7D7D7D7D7D7D7D7D7D7
310
D7D7D7D7D700D70000D7D7D7D7D7D7D7D7D7D7D7D7D7D7D7D7D7D7D70000D7D7D7D7D7D7D7D7D7D7D7D7D7D7D7D7D7D7D7D7D7D7D7D7D7D7D7D7D7D7D7D7D7D7D700D7D7D7D7D7D7D7D70000D7D7D7D7D7D7D7D7D7D7D7D7D7D7D7D7D7D7D7D7D7D7D7D7D7D7D7D7D7D7D7D7D700D7D7D7D7D7D7D7D7D70000D7D7D7D7D7D7
310
D7D7D700D7D7D7D7D7D7D7D7D7D7D7D70000D7D7D7D70000D7D7D7D7D7D7D7D7D70000D7D7D7D7D7D7D7D7D7D7D7D7D7D7D7D7D7D7D7D7D7D7D7D7D7D7D7D7D7D7D7D7D7D7D7D700D7D7D7D7D7D7D7D7D7D7D7D7D7D7D7D7D7D700D7D7D700D7D7D7D7D7D7D7D7D7D7D7D7D7D7D7D7D7D7D7D700D7D7D7D7D7D7D7D7D7D7D7
310
D7D7D7D7D7D7D7D7D7D7D7D7D7D7D7D7D7D7D7D7D70000D7D7D7D7D7D7D7D700D7D7D7D7D7D7D7D7D7D7D7D7D7D7D7D7D7D7D7D7D7D7D7D7D7D7D7D7D7D7D7D7D7D7D700D7D7D7D7D7D7D7D7D70000D7D7D7D7D7D7D7D7D700D7D7D7D7D7D7D7D7D7D7D7D7D7D7D70000D7D7D7D7D7D7D7D7D7D700D7D7D7D7D7D7D7D7D7D7
310
D7D7D7D7D7D7D7D7D7D7D7D7D7D7D7D7D7D7D7D7D7D7D7D7D7D7D7D7D7D7D70000D7D7D7D7D7D7D7D7D7D7D7D7D7D70000D7D7D7D7D7D700D7D7D7D7D7D7D7D7D7D7D7D7D7D7D7D7D7D7D70000D7D7D7D7D7D7D7D7D7D7D7D7D7D7D7D7D7D7D7D7D7D7D7D7D7D70000D7D7D7D7D7D7D7D70000D7D7D7D7D7D7D7D7D7D700D7
310
D7D7D7D7D7D7D7D7D7D7D7D7D7D7D7D7D7D7D7D7D7D7D7D7D700D7D7D7D7D7D7D7D7D70000D7D7D7D7D7D7D7D7D700D7D7D7D7D7D7D7D7D7D7D7D7D7D7D7D700D7D7D7D7D7D7D7D70000D7D7D7D7D7D7D7D7D7D7D7D7D7D7D7D7D7D7D7D7D7D7D7D7D7D7D7D7D7D7D7D7D7D7D7D7D7D7D7D7D7D7D7D70000D7D7D7D7D7D7D7
310
D7D7D7D7D70000D7D7D7D7D7D7D700D7D7D7D7D7D7D7D7D7D7D7D7D7D7D7D7D7D7D7D700D7D7D7D7D7D7D7D7D7D7D7D7D7D7D7D7D7D7D7D7D7D7D7D700D7D7D7D7D7D7D7D7D700D7D7D7D7D7D7D7D7D7D7D700D7D7D7D7D7D7D7D7D7D7D7D7D7D7D7D7D7D7D7D7D7D7D7D7D7D7D700D7D7D7D7D7D7D7D7D70000D7D7D7D7D7
310
D7D7D7D700D7D7D7D7D7D7D7D7D7D7D7D7D7D700D700D7D7D7D7D70000D7D7D7D7D7D7D7D7D7D7D7D7D7D7D7D7D7D7D7D7D7D7D7D7D7D7D7D7D7D7D7D7D7D7D7D7D7D7D7D7D7D7D7D7D7D7D7D7D7D700D7D7D7D7D7D7D7D700D7D7D7D7D7D7D7D7D7D7D7D7D70000D7D7D7D7D7D7D7D7D7D7D7D7D7D7D7D7D7D7D700D7D7D7
310
D7D7D7D7D7D7D7D7D7D7D7D7D7D7D70000D7D7D7D7D7D7D7D700D7D7D7D7D7D7D7D7D7D70000D7D7D7D7D7D7D7D7D7D7D7D7D7D7D7D7D7D7D7D7D7D7D7D7D7D7D7D7D7D700D7D7D7D7D7D7D7D7D70000D7D7D7D7D7D7D7D7D700D7D7D7D7D7D7D7D7D7D7D700D7D700D700D7D7D700D7D7D7D7D7D7D7D7D7D7D7D7D7D7D7D7
310
D7D7D7D7D7D7D7D7D7D7D7D7D7D7D7D7D7D7D7D7D7D7D7D7D7D7D7D7D7D7D7D7D7D7D7D7D7D7D70000D7D7D70000D7D7D7D7D7D7D7D7D7D7D7D7D7D7D7D7D700D7D7D7D7D7D7D7D7D7D7D7D7D7D7D7D7D7D7D70000D7D7D7D7D7D7D7D7D7D7D7D70000D7D7D7D7D7D7D7D70000D7D7D7D7D7D7D7D7D70000D7D7D7D7D7D7D7
310
D7D7D7D7D7D7D7D7D7D7D7D7D7D7D7D7D7D7D7D7D7D7D7D7D7D700D7D7D7D7D7D7D7D7D70000D7D7D7D7D7D7D7D7D700D7D7D7D7D7D7D7D7D7D7D7D700D700D700D70000D7D7D7D7D7D7D7D7D7D7D7D7D7D7D7D7D7D7D7D7D7D7D7D7D7D7D7D7D7D7D7D7D7D7D7D7D7D7D7D7D7D7D7D7D7D7D7D7D7D7D7D7D7D7D7D700D700
310
00D7D7D7D7D7D7D7D7D7D7D7D7D7D7D7D7D7D7D7D7D70000D7D7D7D7D7D7D7D7D7D7D7D7D7D7D7D7D7D7D700D7D7D7D7D7D7D7D7D7D700D7D7D7D7D7D7D7D7D700D7D7D7D7D7D7D7D7D7D700D7D7D7D7D7D7D7D7D7D7D7D7D7D7D7D7D7D7D7D7D7D7D7D7D7D7D7D7D7D7D7D7D7D7D700D7D7D7D7D7D7D7D7D70000D7D7D7D7
310
D7D7D7D7D700D7D7D7D7D7D7D7D7D7D7D7D7D7D7000000D7D7D7D7D7D7D7D7D7D7D7D7D7D7D7D7D7D7D7D7D7D7D7D7D7D7D7D7D7D7D7D7D7D7D7D7D7D7D7D7D7D7D7D7D7D7D7D7D7D7D7D7D7D7D7D700D7D7D7D700D7D700D7D7D7D7D7D7D7D7D7D7D7D7D7D7D7D7D7D7D7D7D7D70000D7D7D7D7D7D7D7D7D7D7D7D7D7D7D7
310
D7D7D7D700D7D7D7D70000D7D7D7D7D7D7D7D700D7D7D7D7D7D7D7D7D7D70000D7D7D7D7D7D7D7D7D7D7D7D7D7D7D7D7D7D7D7D7D7D7D7D7D7D7D7D7D7D7D7D7D7D7D7D7D700D7D7D7D7D7D7D7D7D70000D7D7D7D7D7D7D7D7D700D7D7D7D7D7D7D7D7D7D7D7D7D7D700D7D7D7D7D7D7D7D7D7D7D7D7D7D7D7D7D7D7D7D7D7
310
D7D7D7D7D7D7D7D7D7D7D7D7D7D7D7D7D7D7D7D7D7D7D7D7D7D7D7D7D7D7D7D7D7D7D7D700D7D7D70000D700D7D700D7D7D7D7D7D7D7D7D7D7D7D7D7D7D7D7D7D7D7D7D7D7D700D7D7D7D7D7D7D7D7D7D7D7D7D7D7D7D7D7D7D700D7D700D7D7D7D7D7D7D7D7D700D7D7D7D7D7D7D7D7D7D700D7D7D7D7D7D7D7D7D7D7D7D7
310
D7D7D7D7D7D7D7D7D7D7D7D7D7D7D7D7D7D7D7D7D7D7D7D7D7D7D700D7D7D7D7D7D7D7D7D70000D7D7D7D7D7D7D7D7D700D7D7D7D7D7D7D7D7D7D7D7D7D7D700D7D7D7D7D7D7D7D7D7D7D7D7D7D7D7D7D7D7D7D7D7D7D7D7D7D7D7D7D7D7D7D7D7D7D7D7D7D7D7D7D7D7D7D7D7D7D7D7D7D7D7D7D7D70000D7D70000D7D7D7
310
D7D7D7D7D7D7D70000D7D7D7D7D7D7D7D7D7D7D7D7D7D7D7D7D7D7D7D7D7D700D7D7D7D7D7D7D7D7D7D7D7D7D7D7D7D700D7D7D7D7D7D7D7D7D700D7D7D7D7D7D7D7D7D7D700D7D7D7D7D7D7D7D7D7D7D7D7D7D7D7D7D7D7D7D7D7D7D7D7D7D7D7D7D7D7D7D7D7D7D7D7D7D7D7D7D7D700D7D7D7D7D7D7D7D7D70000D7D7D7
310
D7D7D7D7D7D700D7D7D7D7D7D7D7D7D7D7D7D7D7D700D7D7D7D7D7D7D7D7D7D7D7D7D7D7D7D7D7D7D7D7D7D7D7D7D7D7D7D7D7D7D7D7D7D7D7D7D7D7D7D7D7D7D7D7D7D7D7D7D7D7D700D7D7D7D700D7D7D7D7D7D7D7D7D7D700D7D7D7D7D700D7D7D7D7D7D7D7D7D7D7D7D7D7D7D7D7D7D7D7D7D7D70000D7D7D7D7D7D7D7
310
D7D7D70000D7D7D7D7D7D7D7D700D7D7D7D7D7D7D7D7D7D70000D7D7D7D7D7D7D7D7D7D7D7D7D7D7D7D7D7D7D7D7D7D7D7D7D7D7D7D7D7D7D7D7D7D7D7D7D7D7D7D7D7D7D7D700D7D7D7D7D7D7D7D7D70000D7D7D7D7D7D7D7D7D700D7D7D7D7D7D7D7D7D7D7D7D7D7D700D7D7D7D7D7D7D7D7D7D7D7D7D7D7D7D7D7D7D7D7
310
D7D7D7D7D7D7D7D7D7D7D7D7D7D7D7D7D7D7D7D7D7D7D7D7D7D7D7D7D7D700D7D7D70000D7D7D7D700D7D7D7D7D700D7D7D7D7D7D7D700D7D7D7D7D7D7D7D7D7D7D7D7D7D7D7D7D7D7D7D7D7D7D70000D7D7D7D7D7D7D700D7D7D7D7D7D7D7D7D700D7D7D7D7D7D7D7D7D7D700D7D7D7D7D7D7D7D7D7D7D7D7D7D7D7D7D7D7
310
D7D7D7D7D7D7D7D7D7D7D7D7D7D7D7D7D7D7D7D7D7D7D7D7D7D7D7D700D7D7D7D7D7D7D7D7D70000D7D7D7D7D7D7D7D7D700D7D7D7D7D7D7D7D7D7D7D7D7D7D700D7D7D7D7D7D7D7D7D7D7D7D7D7D7D7D7D7D7D7D7D7D7D7D7D7D7D7D7D7D7D7D7D7D7D7D7D7D7D7D7D7D7D7D7D7D7D70000D7D70000D7D7D7D7D7D7D7D7D7
310
D700D7D7D7D7D7D7D7D7D7D7D7D7D70000D7D7D7D7D7D7D7D7D7D7D7D7D7D7D7D7D7D7D7D7D7D700D7D700D7D7D7D7D7D7D7D7D700D7D7D7D7D7D7D7D7D7D700D7D7D7D7D7D7D7D7D7D7D7D7D7D7D7D7D7D7D7D7D7D7D7D7D7D7D7D7D7D7D7D7D7D7D7D7D7D7D7D7D7D7D7D7D7D7D7D7D700D7D7D7D7D7D7D7D7D70000D7D7
310
D7D7D7D7D7D7D700D7D7D7D7D7D7D7D7D7D7D7D7D7D700D7D7D7D7D7D7D7D7D7D7D7D7D7D7D7D7D7D7D7D7D7D7D7D7D7D7D7D7D7D7D7D7D7D7D7D7D7D7D7D7D7D7D7D7D70000D7D7D700D7D7D7D7D7D7D700D7D70000D7D7D7D7D7D7D7D7D7D7D7D7D7D7D7D700D7D7D7D7D7D7D7D7D7D7D7D7D7D7D7D7D7D7D7D7D7D70000
310
D7D7D7D7D7D7D7D70000D7D7D7D7D7D7D7D7D7D700D7D7D7D7D7D7D7D7D7D7D7D7D7D7D7D7D7D7D7D7D7D7D7D7D7D7D7D7D7D7D7D7D7D7D7D7D7D7D7D7D7D7D7D7D7D7D7D7D7D700D7D7D7D7D7D7D7D7D70000D7D7D7D7D7D7D7D7D700D7D7D7D7D7D7D7D7D7D7D7D7D7D700D7D7D7D7D7D7D7D7D7D7D7D7D7D7D7D7D7D7D7
310
D7D7D7D7D7D7D7D7D7D7D7D7D7D7D7D7D7D7D7D7D7D7D7D700D7D7D70000D7D7D7D7D7D7D7D700D700D7D7D7D7D7D7D7D7D7D7D7D7D7D7D7D7D7D7D7D7D700D7D7D7D7D7D7D7D7D7D7D7D7D7D7D7D7D7D700D7D7D7D7D7D7D7D7D700D7D7D7D7D7D7D7D7D7D700D7D7D7D7D7D7D7D7D7D7D7D7D7D7D7D7D7D7D7D7D7D7D7D7
310
D7D7D7D7D7D7D7D7D7D7D7D7D7D7D7D7D7D7D7D7D7D7D7D7D7D7D7D7D700D7D7D7D7D7D7D7D7D70000D7D7D7D7D7D7D7D7D700D7D7D7D7D7D7D7D7D7D7D7D7D7D700D7D7D7D7D7D7D7D7D7D7D7D7D7D7D7D7D7D7D7D7D7D7D7D7D7D7D7D7D7D7D7D7D7D7D7D7D7D7D7D7D7D700D7D70000D7D7D7D7D7D7D7D7D7000000D7D7
310
D7D7D7D7D7D7D7D7D7D7D7D7D7D7D7D7D7D7D7D7D70000D7D7D7D7D7D7D7D7D7D7D7D7D7D70000D7D7D7D7D7D7D7D70000D7D7D7D7D7D7D7D7D70000D7D7D7D7D7D7D7D7D7D7D7D7D7D7D7D7D7D7D7D7D7D7D7D7D7D7D7D7D7D7D7D7D7D7D7D7D7D7D7D7D7D7D7D7D7D7D7D7D7D7D7D7D7D700D7D7D7D7D7D7D7D7D70000D7
310
D7D7D7D7D7D7D7D700D7D7D7D7D7D7D7D7D7D7D7D7D7D700D7D7D7D7D7D7D7D7D7D7D7D7D7D7D7D7D7D7D7D7D7D7D7D7D7D7D7D7D7D7D7D7D7D7D7D7D7D70000D7D7D700D7D7D7D7D7D7D7D7D7D70000D7D7D7D7D7D7D7D7D7D7D7D7D7D7D7D7D7D7D7D7D7D7D7D7D7D7D7D7D7D700D7D7D7D7D7D7D7D7D700D7D7D7D7D7D7
310
D7D70000D7D7D7D7D7D7D7D7D7D700D7D7D7D7D7D7D7D7D7D7D7D7D7D7D7D7D7D7D7D7D7D7D7D7D7D7D7D7D7D7D7D7D7D7D7D7D7D7D7D7D7D7D7D7D7D7D7D7D7D7D7D7D7D7D7D7D700D7D7D7D7D7D7D7D7D70000D7D7D7D7D7D7D7D7D700D7D7D7D7D7D7D7D7D7D7D7D7D7D700D7D7D7D7D7D7D7D7D7D7D7D7D7D7D7D7D7D7
310
D7D7D7D7D7D7D7D7D7D7D7D7D7D7D7D7D7D700D7D7D70000D7D7D7D7D7D7D7D7D7000000D7D7D7D7D7D7D7D7D7D7D7D7D7D7D7D7D7D7D7D7D7D7D7D7D7D7D7D7D7D7D7D7D7D700D7D7D7D700D7D7D7D7D7D7D7D70000D7D7D7D7D7D7D7D7D7D70000D7D7D7D7D7D7D7D7D7D7D7D7D7D7D7D7D7D7D7D7D7D7D7D7D7D7D7D7D7
310
D7D7D7D7D7D7D7D7D7D7D7D7D7D7D7D7D7D7D7D7D7D7D7D7D7D7D7D7D7D700D7D7D7D7D7D7D7D7D70000D7D7D7D7D7D7D7D7D700D7D7D7D7D7D7D7D7D7D7D7D7D7D700D7D7D7D7D7D7D7D7D7D7D7D7D7D7D7D7D7D7D7D7D7D7D7D7D7D7D7D7D7D7D7D7D7D7D700D7D70000D7D7D7D7D7D7D7D7D7D700D700D7D7D7D7D7D7D7
310
D7D7D7D7D7D7D7D7D7D7D7D7D7D7D7D7D7D7D7D7D7D7D7D7D7D7D7D7D700000000D7D7D7D7D7D7D7D700D7D7D7D7D7D7D7D7D7D700000000D7D7D7D7D7D7D7D7D7D7D7D7D7D7D7D7D7D7D7D7D7D7D7D7D7D7D7D7D7D7D7D7D7D7D7D7D7D7D7D7D7D7D7D7D7D7D7D7D7D7D7D7D7D7D7D7D7D7D700D7D7D7D7D7D7D7D7D70000
310
D7D7D7D7D7D7D7D7D700D7D7D7D7D7D7D7D7D7D7D7D7D7D700D7D7D7D7D7D7D7D7D7D7D7D7D7D7D7D7D7D7D7D7D7D7D7D7D7D7D7D7D7D7D7D700D7D7D700D7D7D7D7D7D7D7D7D7D70000D7D700D7D7D7D7D7D7D7D7D7D7D7D7D7D7D7D7D7D7D7D7D7D7D7D7D7D7D7D7D7D7D7D7D7D7D7D7D700D7D7D7D7D7D7D7D70000D7D7
310
D7D7D7D7D7D7D7D700D7D7D7D7D7D7D7D7D7D7D7D7D7D7D7D7D7D7D7D7D7D7D7D7D7D7D7D7D7D7D7D7D7D7D7D7D7D7D7D7D7D7D7D7D7D7D7D7D7D7D7D7D7D7D7D7D7D7D7D7D7D7D7D700D7D7D7D7D7D7D7D7D70000D7D7D7D7D7D7D7D7D700D7D7D7D7D7D7D7D7D7D7D7D7D7D700D7D7D7D7D7D7D7D7D7D7D7D7D7D7D7D7D7
310
D7D7D7D7D7D7D7D7D7D7D7D7D70000D7D7D700D7D7D7D7D7D7D7D7D7D700D7D7D700D7D7D7D7D7D7D7D7D7D7D7D7D7D7D7D7D7D7D7D7D7D7D7D7D7D7D7D7D7D7D7D7D7D7D7D70000D7D7D7D7D7D7D7D700D7D7D7D7D7D7D7D7D7D70000D7D7D7D7D700D7D7D7D7D7D7D7D7D7D7D7D7D7D7D7D7D7D7D7D7D7D7D7D7D7D7D7D7
310
D7D7D7D7D7D7D7D7D7D7D7D7D7D7D7D7D7D7D7D7D7D7D7D7D7D7D7D7D7D7D700D7D7D7D7D7D7D7D7D70000D7D7D7D7D7D7D7D7D700D7D7D7D7D7D7D7D7D7D7D7D7D7D700D7D7D7D7D7D7D7D7D7D7D7D7D7D7D7D7D7D7D7D7D7D7D7D7D7D7D7D700D7D70000D7D7D7D7D7D7D7D7D7D700D7D7D7D7D7D7D7D7D7D7D7D7D7D7D7
310
D7D7D7D7D7D7D7D7D7D7D7D7D7D7D7D7D7D7D7D7D7D7D7D7D70000D7D7D7D7D7D7D7D700D7D7D7D7D7D7D7D7D7D70000D70000D7D7D7D7D7D700D7D7D7D7D7D7D7D7D7D7D7D7D7D7D7D7D7D7D7D7D7D7D7D7D7D7D7D7D7D7D7D7D7D7D7D7D7D7D7D7D7D7D7D7D7D7D7D7D7D7D7D7D7D7D7D7D7D700D7D7D7D7D7D7D7D7D700
310
00D7D7D7D7D7D7D7D7D700D7D7D7D7D7D7D7D7D7D7D7D7D7D700D7D7D7D7D7D7D7D7D7D7D7D7D7D7D7D7D7D7D7D7D7D7D7D7D7D70000D7D700D7D7D7D7D7D7D7D7D7D7D700D7D7D7D7D700D7D7D7D7D7D7D7D7D7D7D7D7D7D7D7D7D7D7D7D7D7D7D7D7D7D7D7D7D7D7D7D7D7D700D7D7D7D7D7D7D7D7D700D7D7D7D7D7D7D7
310
D7D7D700D7D7D70000D7D700D7D7D700D7D7D7D7D7D7D7D7D7D7D7D7D7D7D7D7D7D7D7D7D7D7D7D7D7D7D7D7D7D7D7D7D7D7D7D7D7D7D7D7D7D7D7D7D7D7D7D7D7D7D7D7D7D7D7D7D7D700D7D7D7D7D7D7D7D7D70000D7D7D7D7D7D7D7D7D700D7D7D7D7D7D7D7D7D7D7D7D7D7D700D7D7D7D7D7D7D7D7D7D7D7D7D7D7D7D7
310
D7D7D7D7D7D7D7D700D7D7D700D7D7D7D7D7D7D7D7D70000D7D7D7D7D7D7D7D7D7D7D7D7D7D7D7D7D7D7D7D7D7D7D7D7D7D7D7D7D7D7D7D7D7D7D7D7D7D7D7D70000D7D7D7D7D7D7D70000D7D7D7D7D7D7D7D7D7D700D7D7D7D7D7D7D7D700000000D7D7D7D7D7D7D7D7D7D7D7D7D7D7D7D7D7D7D7D7D7D7D7D7D7D7D7D7D7
310
D7D7D7D7D7D7D7D7D7D7D7D7D7D7D7D7D7D7D7D7D7D7D7D7D7D7D7D7D7D7D7D700D7D7D7D7D7D7D7D7D70000D7D7D7D7D7D7D7D7D700D7D7D7D7D7D7D7D7D7D7D7D7D7D700D7D7D7D7D7D7D7D7D7D7D7D7D7D7D7D7D7D7D7D7D700D7D70000D7D7D7D7D7D7D7D7D7D700D7D7D7D7D7D7D7D700D7D7D7D7D7D7D7D7D7D7D7D7
310
D7D7D7D7D7D7D7D7D7D7D7D7D7D7D7D7D7D7D70000D7D7D7D7D7D7D7D700D7D7D7D7D7D7D7D7D7D70000D7D7D7D7D7D7D7D7D7D7D700D700D7D7D700D7D7D7D7D7D7D7D7D7D7D7D7D7D7D7D7D7D7D7D7D7D7D7D7D7D7D7D7D7D7D7D7D7D7D7D7D7D7D7D7D7D7D7D7D7D7D7D7D7D7D7D7D7D7D7D7D700D7D7D7D7D7D7D7D7D7
310
0000D7D7D7D7D7D7D7D7D700D7D7D7D7D7D7D7D7D7D7D7D7D7D700D7D7D7D7D7D7D7D7D7D7D7D7D7D7D7D7D7D7D70000D7D700D7D7D7D7D7D7D7D7D7D7D700D7D7D7D7D7D7D7D700D7D7D7D7D7D7D7D7D7D7D7D7D7D7D7D7D7D7D7D7D7D7D7D7D7D7D7D7D7D7D700D7D7D7D7D7D7D7D7D700D7D7D7D7D7D7D7D7D7D700D7D7
310
D7D7D7D7D7D7D7D7D7D7D7D7D700D7D7D700D7D7D7D7D7D7D7D7D7D7D7D7D7D7D7D7D7D7D7D7D7D7D7D7D7D7D7D7D7D7D7D7D7D7D7D7D7D7D7D7D7D7D7D7D7D7D7D7D7D7D7D7D7D7D7D7D700D7D7D7D7D7D7D7D7D70000D7D7D7D7D7D7D7D7D700D7D7D7D7D7D7D7D7D7D7D7D7D7D700D7D7D7D7D7D7D7D7D7D7D7D7D7D7D7
310
D7D700D7D70000D7D7D7D7D7D7D7D7D70000D7D7D7D7D7D7D7D7D7D700D7D7D7D7D7D7D7D7D7D7D7D7D7D7D7D7D7D7D7D7D7D7D7D7D7D7D7D7D70000D7D7D7D7D7D7D70000D7D7D7D7D7D7D7D7D7D700D7D7D7D7D7D7D7D7D7D7D7D7D7D7D7D7D700D7D7D7D7D700D7D7D7D7D7D7D7D7D7D7D7D7D7D7D7D7D7D7D7D7D7D7D7
310
D7D7D7D7D7D7D7D7D7D7D7D7D7D7D7D7D7D7D7D7D7D7D7D7D7D7D7D7D7D7D7D7D700D7D7D7D7D7D7D7D7D70000D7D7D7D7D7D7D7D7D700D7D7D7D7D7D7D7D7D7D7D7D7D7D700D7D7D7D7D7D7D7D7D7D7D7D7D7D7D70000D7D700D7D7D7D7D7D7D7D7D7D700D7D7D7D7D7D7D7D7D7D7D700D7D7D7D7D7D7D7D7D7D7D7D7D7D7
310
D7D7D7D7D7D7D7D7D7D7D7D7D7D7D700D7D7D7D7D7D7D7D700D7D7D7D7D7D7D7D7D7D7D700D7D7D7D7D7D7D7D7D7D7D7D7D7D7D7D7D7D700D700D7D7D700D7D7D7D7D7D7D7D7D7D7D7D7D7D7D7D7D7D7D7D7D7D7D7D7D7D7D7D7D7D7D7D7D7D7D7D7D7D7D7D7D7D7D7D7D7D7D7D7D7D7D7D7D7D7D7D700D7D7D7D7D7D7D7D7
310
D70000D7D7D7D7D7D7D7D7D700D7D7D7D7D7D7D7D7D7D7D7D7D7D700D7D7D7D7D7D7D7D7D7D7D7D70000D7D700D7D7D7D7D7D7D7D7D7D7D700D7D7D7D7D7D7D7D7D7D7D7D700D7D7D7D7D7D7D7D7D7D7D7D7D7D7D7D7D7D7D7D7D7D7D7D7D7D7D700D7D7D7D7D7D7D7D7D700D7D7D7D7D7D7D7D7D70000D7D7D7D7D7D7D7D7
310
D7D7D7D7D7D7D7D7D7D7D7D7D7D7D7D7D7D7D7D7D7D7D7D7D7D7D7D7D7D7D7D7D7D7D7D7D7D7D7D7D7D7D7D7D7D7D7D7D7D7D7D7D7D7D7D7D7D7D7D7D7D7D7D7D7D7D7D7D7D7D7D7D7D7D7D700D7D7D7D7D7D7D7D7D70000D7D7D7D7D7D7D7D7D700D7D7D7D7D7D7D7D7D7D7D7D7D7D700D7D7D7D7D7D7D7D7D7D700D7D700
310
00D7D7D7D7D7D7D7D7D70000D7D7D7D7D7D7D7D7D7D7D7D7D700D7D7D7D7D7D7D7D7D7D7D7D7D7D7D7D7D7D7D7D7D7D7D7D7D7D70000D7D7D7D7D7D7D70000D7D7D7D7D7D7D7D7D7D700D7D7D7D7D7D7D7D7D7D7D7D7D7D7D7D7D7D7D7D7D7D7D7D7D7D70000D7D7D700D7D7D7D7D7D7D7D7D7D7D7D7D7D7D7D7D7D7D7D7D7
310
D7D7D7D700D70000D7D7D7D7D7D7D7D7D7D7D7D7D7D7D7D7D7D7D7D7D7D7D7D7D7D700D7D7D7D7D7D7D7D7D70000D7D7D7D7D7D7D7D7D700D7D7D7D7D7D7D7D7D7D7D7D7D7D700D7D7D7D7D7D7D7D7D700D7D700D7D7D7D7D7D7D7D7D7D700D7D7D7D7D7D7D7D7D7D7D7D7D7D700D7D7D7D7D7D7D7D7D7D7D7D7D7D7D7D7D7
310
D7D7D7D7D7D7D7D7D700D7D7D7D7D7D7D7D700D7D7D7D7D7D7D7D7D7D7D700D7D7D7D7D7D7D7D7D7D7D7D7D7D7D7D7D7D7D7D7D7D7D7D7D7D7D7D7D700D7D700D7D7D7D7D7D7D7D7D7D7D7D7D7D7D7D7D7D7D7D7D7D7D70000D7D7D700D7D7D7D7D7D7D7D7D7D7D7D7D7D7D7D7D7D7D7D7D7D7D7D7D7D700D7D7D7D7D7D7D7
310
D7D70000D7D7D7D7D7D7D7D7D700D7D7D7D7D7D7D7D7D7D7D7D7D7D700D7D7D7D7D70000D7D700D7D7D7D7D7D7D7D7D7D7D700D7D7D7D7D7D7D7D7D7D7D7D7D7D7D700D7D7D7D7D7D7D7D7D7D7D7D7D7D7D7D7D7D7D7D7D7D7D7D7D7D7D700D7D70000D7D700D7D7D7D7D7D7D7D7D70000D7D7D7D7D7D7D7D7D7D7D7D7D7D7
310
D7D7D7D7D7D7D7D7D7D7D7D7D7D7D7D7D700D7D7D7D700D7D7D7D7D7D7D7D7D7D7D7D7D7D7D7D7D7D7D70000D7D7D70000D7D7D7D7D7D7D7D7D7D7D7D7D7D7D7D7D7D7D7D7D7D7D7D7D7D7D7D700D7D7D7D7D7D7D7D7D70000D7D7D7D7D7D7D7D7D700D7D7D7D7D7D7D7D7D7D7D7D7D7D700D7D7D7D700D7D70000D7D7D7D7
310
D7D7D7D7D7D70000D7D7D7D7D7D7D7D7D7D7D7D7D7D7D7D7D7D7D7D7D7D7D7D7D7D7D7D7D7D7D7D7D7D7D7D7D7D7D7D7D7D7D7D700D7D7D7D70000D7D7D7D7D7D7D7D7D700D7D7D7D7D7D7D7D7D7D7D7D7D7D7D7D7D7D7D7D7D7D7D7D7D7D7D7D7D7D7D7D7D700D7D7D7D700D7D7D7D7D7D7D7D7D7D7D7D7D7D7D7D7D7D700
310
D7D7D70000D7D7D7D7D7D7D7D7D7D7D7D7D7D7D7D7D7D7D7D7D7D7D7D7D7D7D7D7D7D700D7D7D7D7D7D7D7D7D70000D7D7D7D7D7D7D7D7D700D7D7D7D7D7D7D7D7D7D7D700D7D700D7D700D7D700D7D7D7D7D7D7D7D7D7D700D7D7D7D7D7D7D7D7D7D7D7D7D7D7D7D7D7D700D7D7D7D7D7D7D7D7D7D7D7D7D7D7D7D7D7D7D7
310
D7D7D7D7D7D7D7D7D7D700D700D7D700D7D7D7D7D7D7D7D700D7D7D7D7D7D7D7D7D7D7D7D7D7D7D7D7D7D7D7D7D7D7D7D7D7D7D7D7D7D7D7D7D7D7D7D7D700D7D7D7D7D7D7D7D7D7D7D7D7D7D7D7D7D7D70000D7D70000D7D7D7D7D7D7D7D7D7D7D7D7D7D7D7D7D7D7D7D7D7D7D7D7D7D7D7D7D7D7D7D7D700D7D7D7D7D7D7
310
D7D7D70000D7D7D7D7D7D7D7D7D700D7D7D7D7D7D7D7D7D7D7D7D700D7000000D70000D7D7D7D7D7D7D7D7D7D700D7D7D7D7D7D7D7D7D7D7D7D7D7D7D7D7D7D700D7D7D7D7D7D7D7D7D7D7D7D7D7D7D7D7D7D7D7D7D7D7D7D7D7D7D7D7D7D700D70000D700D7D7D7D7D7D70000D7D7D7D7D7D7D7D7D7D7D7D7D7D7D7D7D7D7
310
D7D7D7D7D7D7D7D7D7D7D7D7D7D7D7D7D7D7D7D7D700D7D700D7D7D7D7D7D7D7D7D7D7D7D7D700D7D7D700D7D7D7D7D7D7D7D7D7D7D7D7D7D7D7D7D7D7D7D7D7D7D7D7D7D7D7D7D7D7D7D7D7D7D700D7D7D7D7D7D7D7D7D70000D7D7D7D7D7D7D7D7D700D7D7D7D7D7D7D7D7D7D7D7D7D7D7000000D7D7D7D7D7D7D7D7D7D7
310
00D7D7D7D7D7D7D7D7D7D7D7D7D7D7D7D7D7D7D7D7D7D7D7D7D7D7D7D7D7D7D7D7D7D7D7D7D7D7D7D7D7D7D7D7D7D7D7D7D7D7D7D700D70000D700D7D7D700D7D7D7D7D7D7D7D7D7D7D7D7D7D7D7D7D7D7D7D7D7D7D7D7D7D7D7D7D7D7D7D7D7D7D7D7D7D7D7D7D7D700D7D7D700D7D7D7D7D7D7D7D7D7D700D7D7D70000D7
310
D7D7D7D7D7D7D7D7D700D7D7D7D7D7D7D7D7D7D7D7D7D7D7D7D7D7D7D7D7D7D7D7D7D7D700D7D7D7D7D7D7D7D7D70000D7D7D7D7D7D7D7D7D700D7D7D7D7D7D7D7D7D7D7D7D7D70000D700D7D7D7D7D7D7D700D7D7D7D7D7D7D7D7D7D7D7D7D7D7D7D7D7D7D7D7D700D7D7D7D7D7D7D7D7D7D7D7D7D7D7D7D7D7D7D7D7D7D7
310
D7D7D7D7D7D7D7D7D7D7D7D7D700000000D700D7D7D7D7D7D7D7D7D7D7D7D7D7D7D7D7D7D7D7D7D7D7D7D7D7D7D7D7D7D7D7D7D7D7D7D7D7D7D7D7D7D7D7D7D7D700D7D7D7D7D7D7D7D7D70000D7D70000D7D7D7D7D7D7D7D7D7D70000D7D7D7D7D7D7D7D7D7D7D7D7D7D7D7D7D7D7D7D7D7D7D7D7D7D7D7D700D7D7D7D7D7
310
D7D7D7D70000D7D7D7D7D7D7D7D7D700D7D7D7D7D7D7D7D7D7D7D7D7D7D700D700D7D7D7D7D7D700D7D7D7D7D7D7D7D7D7D7D7D7D7D7D7D7D7D7D7D7D7D7D7D7D7D7D7D7D7D7D7D7D7D7D7D7D7D7D7D7D7D7D7D7D7D7D7D7D7D7D7D7D7D7D7D7D7D70000D70000D7D7D7D7D7D7D7D7D7D7D7D7D7D7D7D7D7D7D7D7D7D7D7D7
310
D7D7D7D7D7D7D7D7D7D7D7D7D7D7D7D7D7D7D7D7D7D7D7D700D700D7D7D7D7D700D7D7D700D7D7D7D7D7D7D7D7D7D70000D7D7D7D7D7D7D7D7D7D7D7D7D7D7D7D7D7D7D7D7D7D7D7D7D7D7D7D7D7D700D7D7D7D7D7D7D7D7D70000D7D7D7D7D7D7D7D7D700D7D7D7D7D7D7D7D7D7D7D700D7D7D7D700D7D7D700D7D7D7D7D7
310
D7D7D7D7D7D7D7D7D7D7D7D7D7D7D7D7D7D7D7D7D7D7D7D7D7D7D7D7D7D7D7D7D7D7D7D7D7D7D7D7D7D7D7D7D7D7D7D7D7D7D7D7D7D7D7D70000D7D7D7D7D7D7D7D7D7D7D7D7D7D7D7D7D7D7D7D7D7D7D7D7D7D7D7D7D7D7D7D7D7D7D7D7D7D7D7D7D7D7D7D7D7D7D7D7D7D700D7D700D7D700D7D7D70000D7D7D7D7D7D7D7
310
D7D70000D7D7D7D7D7D7D7D7D7D7D7D7D7D7D7D7D7D7D7D7D7D7D7D7D7D7D7D7D7D7D7D7D700D7D7D7D7D7D7D7D7D70000D7D7D7D7D7D7D7D7D700D7D7D7D7D7D7D7D7D7D7D7D70000D7D700D70000D7D7D7D7D7D7D7D7D7D7D7D7D7D7D7D7D7D7D7D7D7D7D7D7D7D7D7D7D7D7D7D7D7D7D7D7D7D7D7D7D7D7D7D7D7D7D7D7
310
D7D7D7D7D7D7D7D7D7D7D7D7D7D70000D7D7D7D7D7D7D7D7D7D7D7D7D7D7D7D7D7D7D7D7D7D7D7D7D7D7D7D7D7D7D7D7D7D7D7D7D7D7D7D7D7D7D7D7D7D7D7D7D7D7D700D7D70000D7D7D700D7D7D7D7D7D7D7D7D7D700D7D7D7D7D7D7D7D7D7D7D7D7D7D7D7D7D7D7D7D7D7D7D7D7D7D7D7D7D7D7D7D7D7D7D700D7D7D7D7
310
D7D7D7D7D70000D7D7D7D7D7D7D7D7D700D7D7D7D7D7D7D7D7D7D7D7D7D7D7D70000D7D7D7D7D7D7D7D7D7D7D7D7D7D7D7D7D7D7D7D7D7D7D7D7D7D7D7D7D7D7D7D7D7D7D7D7D7D7D7D7D7D7D7D7D7D7D7D7D7D7D7D7D7D7D7D7D7D7D7D7D7D7D7D7D70000D7D7D7D7D7D7D7D7D7D7D7D7D7D7D7D7D7D7D7D7D7D7D7D7D7D7
310
D7D7D7D7D7D7D7D7D7D7D7D7D7D7D7D7D7D7D7D7D7D7D7D7D7D700D7D7D700D7D7D7D7D7D7D7D7D7D70000D7D7D7D7D7D7D7D7D7D7D7D7D7D7D7D7D7D7D7D7D7D7D7D7D7D7D7D7D7D7D7D7D7D7D7D7D700D7D7D7D7D7D7D7D7D70000D7D7D7D7D7D7D7D7D700D7D7D7D7D7D7D7D7D7D7D7D7D7D7D7D7D7D7D7D7D7D7D7D7D7
310
D7D7D7D7D7D7D7D7D7D7D7D7D7D7D7D7D7D7D7D7D7D7D7D7D7D7D7D7D7D7D7D7D7D7D7D7D7D7D7D7D7D7D7D7D7D7D7D7D7D7D7D7D7D7D7D7D70000D7D7D7D7D7D7D7D7D7D7D7D7D7D7D7D7D7D7D7D7D7D7D7D7D7D7D7D7D7D7D7D7D7D7D7D7D7D7D7D7D7D7D7D7D7D7D7D7D7D7D70000D7D700D7D7D7D7D7D7D7D7D7D700D7
310
D7D7D7D7D7D7D7D7D7D7D7D7D7D7D7D7D7D7D7D7D7D7D7D7D7D7D7D7D7D7D7D7D7D7D7D7D7D700D7D7D7D7D7D7D7D7D70000D7D7D7D7D7D7D7D7D700D7D7D7D7D7D7D7D7D7D7D7D7D7D7D7D7D7D7D7D7D7D7D7D7D7D7D7D7D7D7D7D7D7D7D7D7D7D7D7D7D7D7D7D7D7D7D7D7D7D7D7D7D7D7D7D7D7D7D7D7D7D7D7D7D7D7D7
310
D7D7D7D7D7D7D7D7D7D7D7D7D7D7D70000D7D7D7D7D7D7D7D7D7D7D7D7D7D7D7D7D7D7D7D7D7D7D7D7D7D7D7D7D7D7D7D7D7D7D7D7D7D7D7D7D7D7D7D7D7D7D7D700D7D7D70000D700D7D7D7D7D7D70000D7D7D7D7D7D7D7D7D7D7D7D7D7D7D7D7D7D7D7D7D7D7D7D7D7D7D7D7D7D7D7D7D7D7D7D7D7D7D7D7D7D700D7D7D7
310
D7D7D7D7D7D70000D7D7D7D7D7D7D7D7D700D7D7D7D7D7D7D7D7D7D7D7D7D7D7D7D7D7D7D7D7D7D7D7D7D7D7D7D7D7D7D7D7D7D7D7D7D7D7D7D7D7D7D7D7D7D7D7D7D7D7D7D7D7D7D7D7D7D7D7D7D7D7D7D7D7D7D7D7D7D7D7D7D7D7D7D7D7D7D7D7D7D70000D7D7D7D7D7D7D7D7D7D7D7D7D7D7D7D7D7D7D7D7D7D7D7D7D7
310
D7D7D7D7D7D7D7D7D7D7D7D7D7D7D7D7D7D7D7D700D7D7D700D7D7D70000D700D7D7D700D7D7D7D7D7D7D7D7D7D7D7D7D7D7D7D7D7D7D7D7D7D7D7D7D7D7D7D7D7D7D7D7D7D7D7D7D7D7D7D7D7D7D7D7D700D7D7D7D7D7D7D7D7D70000D7D7D7D7D7D7D7D7D700D7D7D7D7D7D7D7D7D7D7D7D7D7D7D7D7D7D7D7D7D7D7D7D7
310
D7D7D7D7D7D7D7D7D7D7D7D7D7D7D7D7D7D7D7D7D7D7D7D7D7D7D7D7D7D7D7D7D7D7D7D7D7D7D7D7D7D7D7D7D7D7D7D7D7D7D7D7D7D7D7D7D7D70000D7D7D7D7D7D7D7D7D7D7D7D7D7D7D7D7D7D7D7D7D7D7D7D7D7D7D7D7D7D7D7D7D7D7D7D7D7D7D7D7D7D7D7D700D7D7D700D7D7D7D7D700D700D70000D7D7D7D7D7D7D7
310
D7D7D7D7D7D7D7D7D7D7D7D7D7D7D7D7D7D7D7D7D7D7D7D7D7D7D7D7D7D7D7D7D7D7D7D7D7D7D700D7D7D7D7D7D7D7D7D70000D7D7D7D7D7D7D7D7D700D7D7D7D7D7D7D7D7D7D7D7D7D7D7D7D7D7D7D7D7D7D7D7D7D7D7D7D7D7D7D7D7D7D7D7D7D7D7D7D7D7D7D7D7D7D7D7D7D7D7D7D7D7D7D7D7D7D7D7D7D7D7D7D7D7D7
310
D7D7D7D7D7D7D7D7D7D7D7D7D7D7D7D70000D7D7D7D7D7D7D7D7D7D7D7D7D7D7D7D7D7D7D7D7D7D7D7D7D7D7D7D7D7D7D7D7D7D7D7D7D7D7D7D7D700D7D7D700D7D7D7D7D7D7D7D7D70000D7D7D7D7D7D7D7D7D7D7D7D7D7D7D7D7D7D7D7D7D7D7D7D7D7D7D7D7D7D7D7D7D7D7D7D7D7D7D7D7D7D7D7D7D7D7D7D7D700D7D7
310
D7D7D7D7D7D7D70000D7D7D7D7D7D7D7D7D700D7D7D7D7D7D7D7D7D7D7D7D7D7D7D7D7D7D7D7D7D7D7D7D7D7D7D7D7D7D7D7D7D7D7D7D7D7D7D7D7D7D7D7D7D7D7D7D7D7D7D7D7D7D7D7D7D7D7D7D7D7D7D7D7D7D7D7D7D7D7D7D7D7D7D7D7D7D7D7D7D7D70000D7D7D7D7D7D7D7D7D7D7D7D7D7D7D7D7D7D7D7D7D7D7D7D7
310
D7D7D7D7D7D7D7D7D7D7D7D7D7D7D70000D7D70000D7D7D7D7D7D7D7D7D70000D7D7D7D7D7D7D7D7D7D7D7D7D7D7D7D7D7D7D7D7D7D7D7D7D7D7D7D7D7D7D7D7D7D7D7D7D7D7D7D7D7D7D7D7D7D7D7D7D7D700D7D7D7D7D7D7D7D7D70000D7D7D7D7D7D7D7D7D700D7D7D7D7D7D7D7D7D7D7D7D7D7D7D7D7D7D7D7D7D7D7D7
310
D7D7D7D7D7D7D7D7D7D7D7D7D7D7D7D7D7D7D7D7D7D7D7D7D7D7D7D7D7D7D7D7D7D7D7D7D7D7D7D7D7D7D7D7D7D7D7D7D7D7D7D7D7D7D7D7D7D7D70000D7D7D7D7D7D7D7D7D7D7D7D7D7D7D7D7D7D7D7D7D7D7D7D7D7D7D7D7D7D7D7D7D7D7D7D7D700D7D7D700D7D7D7D7D7D7D7D7D70000D7D7D70000D7D7D7D7D7D7D7D7
310
D7D7D7D7D7D7D7D7D7D7D7D7D7D7D7D7D7D7D7D7D7D7D7D7D7D7D7D7D7D7D7D7D7D7D7D7D7D7D7D700D7D7D7D7D7D7D7D7D70000D7D7D7D7D7D7D7D7D700D7D7D7D7D7D7D7D7D7D7D7D7D7D7D7D7D7D7D7D7D7D7D7D7D7D7D7D7D7D7D7D7D7D7D7D7D7D7D7D7D7D7D7D7D7D7D7D7D7D7D7D7D7D7D7D7D7D7D7D7D7D7D7D7D7
310
D7D7D7D7D7D7D7D7D7D7D7D7D7D7D7D7D70000D7D7D7D7D7D7D7D7D7D7D7D7D7D7D7D7D7D7D7D7D7D7D7D7D7D7D7D7D7D7D7D7D7D700D7D7D700D7D7D7D7D7D7D7D7D70000D7D7D7D7D7D7D70000D7D7D7D7D7D7D7D7D7D7D7D7D7D7D7D7D7D7D7D7D7D7D7D7D7D7D7D7D7D7D7D7D7D7D7D7D7D7D7D7D7D7D7D7D7D7D700D7
310
D7D7D7D7D7D7D7D70000D7D7D7D7D7D7D7D7D700D7D7D7D7D7D7D7D7D7D7D7D7D7D7D7D7D7D7D7D7D7D7D7D7D7D7D7D7D7D7D7D7D7D7D7D7D7D7D7D7D7D7D7D7D7D7D7D7D7D7D7D7D7D7D7D7D7D7D7D7D7D7D7D7D7D7D7D7D7D7D7D7D7D7D7D7D7D7D7D7D7D70000D7D7D7D7D7D7D7D7D7D7D7D7D7D7D7D7D7D7D7D7D7D7D7
310
D7D7D7D7D7D7D7D7D70000D7D70000D7D7D7D7D7D7D7D7D700D7D7D7D7D7D7D7D7D70000D7D7D7D7D7D7D7D7D7D7D7D7D7D7D7D7D7D7D7D7D7D7D7D7D7D7D7D7D7D7D7D7D7D7D7D7D7D7D7D7D7D7D7D7D7D7D700D7D7D7D7D7D7D7D7D70000D7D7D7D7D7D7D7D7D700D7D7D7D7D7D7D7D7D7D7D7D7D7D7D7D7D7D7D700D7D7
310
00D70000D7D7D7D700D7D7D700D700D7D7D700D7D7D7D7D7D7D7D7D7D7D7D7D7D7D7D7D7D7D7D7D7D7D7D7D7D7D7D7D7D7D7D7D7D7D7D7D7D7D7D7D70000D7D7D7D7D7D7D7D7D7D7D7D7D7D7D7D7D7D7D7D7D7D7D7D7D7D7D7D7D7D700D7D7D700D7D7D7D7D7D7D7D7D70000D7D7D7D7D7D7D7D7D7D7D7D700D7D7D7D7D7D7
310
D7D7D7D7D7D7D7D7D7D7D7D7D7D7D7D7D7D7D7D7D7D7D7D7D7D7D7D7D7D7D7D7D7D7D7D7D7D7D7D7D700D7D7D7D7D7D7D7D7D70000D7D7D7D7D7D7D7D7D700D7D7D7D7D7D7D7D7D7D7D7D7D7D7D7D7D7D7D700D7D7D70000D700D7D7D70000D7D700D70000D7D700D7D7D7D7D7D7D7D7D7D7D7D7D7D7D7D7D7D7D7D7D7D7D7
310
D7D7D7D7D7D7D7D7D7D7D7D7D7D7D7D7D7D70000D7D7D7D7D7D7D7D7D7D7D7D7D7D7D7D7D7D7D7D7D7D7D7D7D7D7D7D70000D7D70000D7D7D7D7D7D7D7D7D700D7D7D7D7D7D7D7D7D7D7D7D7D7D7D7D7D7D7D7D7D7D7D7D7D7D7D7D7D7D7D7D7D7D7D7D7D7D7D7D7D7D7D7D7D7D7D7D7D7D7D7D7D7D7D7D7D7D7D7D7D7D700
310
D7D7D7D7D7D7D7D7D70000D7D7D7D7D7D7D7D7D700D7D7D7D7D7D7D7D7D7D7D7D7D7D7D7D7D7D7D700D7D7000000D700D70000D7D7D7D7D7D7D700D7D700D7D7D7D7D7D7D7D7D7D7D7D7D7D7D7D7D7D7D7D7D7D7D7D7D7D7D7D7D7D7D7D7D7D7D7D7D7D7D7D7D70000D7D7D7D7D7D7D7D7D7D7D7D7D7D7D7D7D7D7D7D7D7D7
310
D7D7D70000D7D70000D7D7D7D7D7D7D7D7D700D7D7D7D7D7D7D7D7D7D7D7D7D7D7D7D7D7D700D7D7D7D7D7D7D7D7D7D7D7D7D7D7D7D7D7D7D7D7D7D7D7D7D7D7D7D7D7D7D7D7D7D7D7D7D7D7D7D7D7D7D7D7D7D700D7D7D7D7D7D7D7D7D70000D7D7D7D7D7D7D7D7D700D7D7D7D7D7D7D7D7D7D7D7D7D7D7D7D7D7D7D70000
310
D7D7D7D7D7D7D7D7D7D7D7D7D7D7D7D7D7D7D7D7D7D7D7D7D7D7D7D7D7D7D7D7D7D7D7D7D7D7D7D7D7D7D7D7D7D7D7D7D7D7D7D7D7D7D7D7D7D7D7D7D70000D7D7D7D7D7D7D7D7D7D7D7D7D7D7D7D7D7D7D7D7D7D7D7D700D7D7D700D7D7D7D7D7D7D7D7D7D700D7D7D7D7D7D7D7D7D7D7D7D7D7D7D7D7D7D7D700D7D7D7D7
310
D7D7D7D7D7D7D7D7D7D7D7D7D7D7D7D7D7D7D7D7D7D7D7D7D7D7D7D7D7D7D7D7D7D7D7D7D7D7D7D7D7D700D7D7D7D7D7D7D7D7D70000D7D7D7D7D7D7D7D7D700D7D7D7D7D7D7D7D7D7D7D7D7D7D7D7D7D7D7D7D7D7D7D7D7D7D7D7D7D7D7D7D7D7D7D7D7D7D7D7D7D7D7D7D7D7D7D7D7D7D7D7D7D7D7D7D7D7D7D7D7D7D7D7
310
D7D7D7D7D7D7D7D7D7D7D7D7D7D7D7D7D7D7D70000D7D7D7D7D7D7D7D7D7D7D7D7D7D7D7D7D7D7D7D7D70000D7D700D7D7D7D7D7D7D7D7D7D700D7D7D7D7D7D7D7D7D7D7D7D7D7D7D7D7D7D7D7D7D7D7D7D7D7D7D7D7D7D7D7D7D7D7D7D7D7D7D7D7D7D7D7D7D7D7D7D7D7D7D7D7D7D7D7D7D7D7D7D7D7D7D7D7D7D7D7D7D7
310
00D7D7D7D7D7D7D7D7D70000D7D7D7D7D7D7D7D7D700D7D7D7D7D7D7D7D7D7D7D7D7D7D7D7D7D7D7D7D7D7D7D7D7D7D7D7D7D7D7D7D7D7D7D7D7D7D7D7D7D7D7D7D7D7D7D7D7D7D7D7D7D7D7D7D7D7D7D7D7D7D7D7D7D7D7D7D7D7D7D7D7D7D7D7D7D7D7D7D7D7D70000D7D7D7D7D7D7D7D7D7D7D7D7D7D7D7D7D7D70000D7
310
D70000D7D7D7D7D7D7D7D7D700D7D7D7D7D7D7D7D7D7D7D7D7D7D7D7D7D7D7D7D7D7D7D7D7D7D7D7D7D7D7D7D7D7D7D7D7D7D7D7D7D7D7D7D7D7D7D7D7D7D7D7D7D7D7D7D7D7D7D7D7D7D7D7D7D7D7D7D7D7D7D7D700D7D7D7D7D7D7D7D7D70000D7D7D7D7D7D7D7D7D700D7D7D7D7D7D7D7D7D7D7D7D7D7D7D7D7D7D7D7D7
310
D7D7D7D7D7D7D7D7D7D7D7D7D7D7D7D7D7D7D7D7D7D7D7D7D7D7D7D7D7D7D7D7D7D7D7D7D7D7D7D7D7D7D7D7D7D7D7D7D7D7D7D7D7D7D7D7D7D7D7D7D7D70000D7D7D7D7D7D7D7D7D7D7D7D7D7D7D7D7D700D7D7D700D7D7D7D7D7D7D7D7D7D700D7D7D7D7D7D7D7D7D7D7D7D7D7D7D7D7D7D7D7D7D7D7D7D7D7D7D7D7D7D7
310
D7D7D7D7D7D7D7D7D7D7D7D7D7D7D7D7D7D7D7D7D7D7D7D7D7D7D7D7D7D7D7D7D7D7D7D7D7D7D7D7D7D7D700D7D7D7D7D7D7D7D7D70000D7D7D7D7D7D7D7D7D700D7D7D7D7D7D7D7D7D7D7D7D7D7D7D7D7D7D7D7D7D7D7D7D7D7D7D7D7D7D7D7D7D7D7D7D7D7D7D7D7D7D7D7D7D7D7D7D7D7D7D7D7D7D7D7D7D7D7D7D7D7D7
310
D7D7D7D7D7D7D7D7D7D7D7D7D7D7D7D7D7D7D7D70000D7D7D7D7D7D7D7D7D7D7D7D7D7D7D700D7D700D7D7D7D7D7D7D7D7D7D700D7D7D7D7D7D7D7D7D7D7D7D7D7D7D7D7D7D7D7D7D7D7D7D7D7D7D7D7D7D7D7D7D7D7D7D7D7D7D7D7D7D7D7D7D7D7D7D7D7D7D7D7D7D7D7D7D7D7D7D7D7D7D7D7D7D7D7D7D7D7D7D7D7D7D7
310
D700D7D7D7D7D7D7D7D7D70000D7D7D7D7D7D7D7D7D700D7D7D7D7D7D7D7D7D7D7D7D7D7D7D7D7D7D7D7D7D7D7D7D7D7D7D7D7D7D7D7D7D7D7D7D7D7D7D7D7D7D7D7D7D7D7D7D7D7D7D7D7D7D7D7D7D7D7D7D7D7D7D7D7D7D7D7D7D7D7D7D7D7D7D7D7D7D7D7D7D7D70000D7D7D7D7D7D7D7D7D7D7D7D7D70000D7D700D7D7
310
D7D7D7D7D7D7D70000D7D7D7D7D7D7D7D7D7D7D7D7D7D7D7D7D7D7D7D7D7D7D7D7D7D7D7D7D7D7D7D7D7D7D7D7D7D7D7D7D7D7D7D7D7D7D7D7D7D7D7D7D7D7D7D7D7D7D7D7D7D7D7D7D7D7D7D7D7D7D7D7D7D7D7D7D700D7D7D7D7D7D7D7D7D70000D7D7D7D7D7D7D7D7D700D7D7D7D7D7D7D7D7D7D7D7D7D7D7D7D7D7D7D7
310
D7D7D7D7D7D7D7D7D7D7D7D7D7D7D7D7D7D7D7D7D7D7D7D7D7D7D7D7D7D7D7D7D7D7D7D7D7D7D7D7D7D7D7D7D7D7D7D7D7D7D7D7D7D7D7D7D7D7D7D7D7D7D70000D7D7D7D7D7D7D7D7D7D700D7D70000D7D7D7D7D7D7D7D7D7D700D7D7D7D7D7D7D7D7D7D7D7D7D7D7D7D7D7D7D7D7D7D7D7D7D7D7D7D7D7D7D7D7D7D7D7D7
310
D7D7D7D7D7D7D7D7D7D7D7D7D7D7D7D7D7D7D7D7D7D7D7D7D7D7D7D7D7D7D7D7D7D7D7D7D7D7D7D7D7D7D7D700D7D7D7D7D7D7D7D7D70000D7D7D7D7D7D7D7D7D700D7D7D7D7D7D7D7D7D7D7D7D7D7D7D7D7D7D7D7D7D7D7D7D7D7D7D7D7D7D7D7D7D7D7D7D7D7D7D7D7D7D7D7D7D7D7D7D7D7D7D7D7D7D7D7D7D7D7D7D7D7
310
D7D7D7D7D7D7D7D7D7D7D7D7D7D7D7D7D7D7D7D7D70000D7D7D7D7D7D7D7D7D700D7D700D7D7D7D7D7D7D7D7D7D7D700D7D7D7D7D7D7D7D7D7D7D7D7D7D7D7D7D7D7D7D7D7D7D7D7D7D7D7D7D7D7D7D7D7D7D7D7D7D7D7D7D7D7D7D7D7D7D7D7D7D7D7D7D7D7D7D7D7D7D7D7D7D7D7D7D7D7D7D7D7D7D7D7D7D7D7D7D7D7D7
310
D7D700D7D7D7D7D7D7D7D7D70000D7D7D7D7D7D7D7D7D700D7D7D7D7D7D7D7D7D7D7D7D7D7D7D7D7D7D7D7D7D7D7D7D7D7D7D7D7D7D7D7D7D7D7D7D7D7D7D7D7D7D7D7D7D7D7D7D7D7D7D7D7D7D7D7D7D7D7D7D7D7D7D7D7D7D7D7D7D7D7D7D7D7D7D7D7D7D7D7D7D7D70000D7D7D7D7D7D70000D7D700D7D7D7D7D7D7D7D7
310
D70000D7D7D7D7D7D7D7D7D7D7D7D7D7D7D7D7D7D7D7D7D7D7D7D7D7D7D7D7D7D7D7D7D7D7D7D7D7D7D7D7D7D7D7D7D7D7D7D7D7D7D7D7D7D7D7D7D7D7D7D7D7D7D7D7D7D7D7D7D7D7D7D7D7D7D7D7D7D7D7D7D7D7D7D700D7D7D7D7D7D7D7D7D70000D7D7D7D7D7D7D7D7D700D7D7D7D7D7D7D7D7D7D7D7D7D7D7D7D7D7D7
310
D7D7D7D7D7D7D7D7D7D7D7D7D7D7D7D7D7D7D7D7D7D7D7D7D7D7D7D7D7D7D7D7D7D7D7D7D7D7D7D7D7D7D7D7D7D7D7D7D7D7D7D7D7D7D7D7D7D7D7D7D7D7D7000000D7D7D700D7D70000D7D7D7D7D7D7D7D7D7D700D7D7D7D7D7D7D7D7D7D7D7D7D7D7D7D7D7D7D7D7D7D7D7D7D7D7D7D7D7D7D7D7D7D7D7D7D7D7D7D7D7D7
310
D7D7D7D7D7D7D7D7D7D7D7D7D7D7D7D7D7D7D7D7D7D7D7D7D7D7D7D7D7D7D7D7D7D7D7D7D7D7D7D7D7D7D7D7D700D7D7D7D7D7D7D7D7D70000D7D7D7D7D7D7D7D7D700D7D7D7D7D7D7D7D7D7D7D7D7D7D7D7D7D7D7D7D7D7D7D7D7D7D7D7D7D7D7D7D7D7D7D7D7D7D7D7D7D7D7D7D7D7D7D7D7D7D7D7D7D7D7D7D7D7D7D7D7
310
D7D7D7D7D7D7D7D7D7D7D7D7D7D7D7D7D7D7D7D700D70000D7D700D7D700D7D7D7D7D7D7D7D7D7D7D700D7D7D7D7D7D7D7D7D7D7D7D7D7D7D7D7D7D7D7D7D7D7D7D7D7D7D7D7D7D7D7D7D7D7D7D7D7D7D7D7D7D7D7D7D7D7D7D7D7D7D7D7D7D7D7D7D7D7D7D7D7D7D7D7D7D7D7D7D7D7D7D7D7D7D7D7D7D7D7D7D7D7D7D7D7
310
D7D7D700D7D7D7D7D7D7D7D7D70000D7D7D7D7D7D7D7D7D700D7D7D7D7D7D7D7D7D7D7D7D7D7D7D7D7D7D7D7D7D7D7D7D7D7D7D7D7D7D7D7D7D7D7D7D7D7D7D7D7D7D7D7D7D7D7D7D7D7D7D7D7D7D7D7D7D7D7D7D7D7D7D7D7D7D7D7D7D7D7D7D7D7D7D7D7D7D7D7D700D7000000D7D700D7D7D7D7D7D7D7D7D70000D7D7D7
310
D7D7D7D7D7D7D7D7D7D7D7D7D7D7D7D7D7D7D7D7D7D7D7D7D7D7D7D7D7D7D7D7D7D7D7D7D7D7D7D7D7D7D7D7D7D7D7D7D7D7D7D7D7D7D7D7D7D7D7D7D7D7D7D7D7D7D7D7D7D7D7D7D7D7D7D7D7D7D7D7D7D7D7D7D7D7D7D700D7D7D7D7D7D7D7D7D70000D7D7D7D7D7D7D7D7D700D7D7D7D7D7D7D7D7D7D7D7D7D7D7D7D7D7
310
D7D7D7D7D7D7D7D7D7D7D7D7D7D7D7D7D7D7D7D7D7D7D7D7D7D7D7D7D7D7D7D7D7D7D7D7D7D7D7D7D7D7D7D7D7D7D7D7D7D7D7D7D7D7D7D7D7D7D7D7D7D7D700D70000D70000D7D7D7D7D7D7D7D7D700D7D7D7D7D7D7D7D7D7D7D7D7D7D7D7D7D7D7D7D7D7D7D7D7D7D7D7D7D7D7D7D7D7D7D7D7D7D7D7D7D7D7D7D7D7D7D7
310
D7D7D7D7D7D7D7D7D7D7D7D7D7D7D7D7D7D7D7D7D7D7D7D7D7D7D7D7D7D7D7D7D7D7D7D7D7D7D7D7D7D7D7D7D7D700D7D7D7D7D7D7D7D7D70000D7D7D7D7D7D7D7D7D700D7D7D7D7D7D7D7D7D7D7D7D7D7D7D7D7D7D7D7D7D7D7D7D7D7D7D7D7D7D7D7D7D7D7D7D7D7D7D7D7D7D7D7D7D7D7D7D7D7D7D7D7D7D7D7D7D7D7D7
310
D7D7D7D7D7D7D7D7D7D7D7D7D7D7D7D7D7D7D7D7D700D70000D700D7D7D7D7D7D7D7D700D7D7D7D7D7D7D7D7D7D7D7D7D7D7D7D7D7D7D7D7D7D7D7D7D7D7D7D7D7D7D7D7D7D7D7D7D7D7D7D7D7D7D7D7D7D7D7D7D7D7D7D7D7D7D7D7D7D7D7D7D7D7D7D7D7D7D7D7D7D7D7D7D7D7D7D7D7D7D7D7D7D7D7D7D7D7D7D7D7D7D7
310
D7D7D7D700D7D7D7D7D7D7D7D7D70000D7D7D7D7D7D7D7D7D700D7D7D7D7D7D7D7D7D7D7D7D7D7D7D7D7D7D7D7D7D7D7D7D7D7D7D7D7D7D7D7D7D7D7D7D7D7D7D7D7D7D7D7D7D7D7D7D7D7D7D7D7D7D7D7D7D7D7D7D7D7D7D7D7D7D7D7D7D7D7D7D7D7D7D7D7D7D7D7D700D7D7D7D700D7D7D7D70000D7D7D7D7D7D7D7D7D7
310
D7D7D7D7D7D7D7D7D7D7D7D7D7D7D7D7D7D7D7D7D7D7D7D7D7D7D7D7D7D7D7D7D7D7D7D7D7D7D7D7D7D7D7D7D7D7D7D7D7D7D7D7D7D7D7D7D7D7D7D7D7D7D7D7D7D7D7D7D7D7D7D7D7D7D7D7D7D7D7D7D7D7D7D7D7D7D7D7D700D7D7D7D7D7D7D7D7D70000D7D7D7D7D7D7D7D7D700D7D7D7D7D7D7D7D7D7D7D7D7D7D7D7D7
310
D7D7D7D7D7D7D7D7D7D7D7D7D7D7D7D7D7D7D7D7D7D7D7D7D7D7D7D7D7D7D7D7D7D7D7D7D7D7D7D7D7D7D7D7D7D7D7D7D7D7D7D7D7D7D7D7D7D7D7D7D7D7D7D700D7D7D7D700D7D7D700D7D7D7D7D7D7D7D7D7D7D7D7D7D7D7D7D7D7D7D7D7D7D7D7D7D7D7D7D7D7D7D7D7D7D7D7D7D7D7D7D7D7D7D7D7D7D7D7D7D7D7D7D7
310
D7D7D7D7D7D7D7D7D7D7D7D7D7D7D7D7D7D7D7D7D7D7D7D7D7D7D7D7D7D7D7D7D7D7D7D7D7D7D7D7D7D7D7D7D7D7D700D7D7D7D7D7D7D7D7D70000D7D7D7D7D7D7D7D7D700D7D7D7D7D7D7D7D7D7D7D7D7D7D7D7D7D7D7D7D7D7D7D7D7D7D7D7D7D7D7D7D7D7D7D7D7D7D7D7D7D7D7D7D7D7D7D7D7D7D7D7D7D7D7D7D7D7D7
310
D7D7D7D7D7D7D7D7D7D7D7D7D7D7D7D7D7D7D7D7D7D7D7D7D7000000D700D7D7D7D7D7D7D7D7D7D7D7D7D7D7D7D7D7D7D7D7D7D7D7D7D7D7D7D7D7D7D7D7D7D7D7D7D7D7D7D7D7D7D7D7D7D7D7D7D7D7D7D7D7D7D7D7D7D7D7D7D7D7D7D7D7D7D7D7D7D7D7D7D7D7D7D7D7D7D7D7D7D7D7D7D7D7D7D7D7D7D7D7D7D7D7D7D7
310
D7D7D7D7D700D7D7D7D7D7D7D7D7D70000D7D7D7D7D7D7D7D7D700D7D7D7D7D7D7D7D7D7D7D7D7D7D7D7D7D7D7D7D7D7D7D7D7D7D7D7D7D7D7D7D7D7D7D7D7D7D7D7D7D7D7D7D7D7D7D7D7D7D7D7D7D7D7D7D7D7D7D7D7D7D7D7D7D7D7D7D7D7D7D7D7D7D7D7D7D7D7D7D7D7D7D7D7D70000D7D7D7D7D7D7D7D7D7D7D7D7D7
310
D7D7D7D7D7D7D7D7D7D7D7D7D7D7D7D7D7D7D7D7D7D7D7D7D7D7D7D7D7D7D7D7D700D700D7D7D7D7D7D7D7D7000000D7D7D700D7D7D700D7D70000D700D70000D7D7D70000D7D700D7D700D7D7D700D7D700D7D70000D7D7D7D700D7D7D7D7D7D7D7D7D70000D7D7D7D7D7D7D7D7D700D7D7D7D7D7D7D7D7D7D7D7D7D7D7D7
310
D7D7D7D7D7D7D7D7D7D7D7D7D7D7D7D7D7D7D7D7D7D7D7D7D7D7D7D7D7D7D7D7D7D7D7D7D7D7D7D7D7D7D7D7D7D7D7D7D7D7D7D7D7D7D7D7D7D7D7D7D7D7D7D7D7D7D7D7D7D7D7D7D7D7D7D7D7D7D7D7D7D7D7D7D7D7D7D7D7D7D7D7D7D7D7D7D7D7D7D7D7D7D7D7D7D7D7D7D7D7D7D7D7D7D7D7D7D700D7D7000000D7D7D7
310
D700D7D7D7D7D7D700D7D7D700D7D70000D700D7D700D7D7D7D7D7D70000D7D700D7D70000D7D700D700D700D7D7D7D700D7D7D7D7D7D7D7D7D70000D7D7D7D7D7D7D7D7D700D7D7D7D7D7D7D7D7D7D7D7D7D7D7D7D7D7D7D7D7D7D7D7D7D7D7D7D7D7D7D7D7D7D7D7D7D7D7D7D7D7D7D7D7D7D7D7D7D7D7D7D7D7D7D7D7D7
310
D7D7D7D7D7D7D7D7D7D7D7D7D7D7D7D7D7D7D7D7D7D7D7D7D7D7D7D7D7D7D7D7D7D7D7D7D7D7D7D7D7D7D7D7D7D7D7D7D7D7D7D7D7D7D7D7D7D7D7D7D7D7D7D7D7D7D7D7D7D7D7D7D7D7D7D700D7D700D7D7D7D7D7D700D7D700D7D7D700D7D7D700D7D7D700D700D70000D7D7D7D7D7D70000D7D700D7D70000D7D700D700
310
D700D7D7D7D700D7D7D7D7D7D7D7D7D70000D7D7D7D7D7D7D7D7D700D7D7D7D7D7D7D7D7D7D7D7D7D7D7D7D7D7D7D7D7D7D7D7D7D7D7D7D7D7D7D7D7D7D7D7D7D7D7D7D7D7D7D7D7D7D7D7D7D7D7D7D7D7D7D7D7D7D7D7D7D7D7D7D7D7D7D7D7D7D7D7D7D7D7D7D7D7D7D7D7D7D7D7D7D7D7D7D7D7D7D7D7D7D7D7D7D7D7D7
310
D7D7D7D7D7D7D7D7D7D7D7D7D7D7D7D7D7D7D7D7D7D7D7D7D7D7D7D7D7D7D7D7D7D7D7000000D7D7D7D7D7D7D7D70000D70000D7D7D7D7D7D7D7D7D7D700D7D7D7D7D7D7D7D7D7D7D7D7D7D7D7D7D7D7D7D7D7D7D7D700D7D7D7D700D7D7D7D7D7D7D7D7D70000D7D7D7D7D7D7D7D7D700D7D7D7D7D7D7D7D7D7D7D7D7D7D7
310
D7D7D7D7D7D7D7D7D7D7D7D7D7D7D7D7D7D7D7D7D7D7D7D7D7D7D7D7D7D7D7D7D7D7D7D7D7D7D7D7D7D7D7D7D7D7D7D7D7D7D7D7D7D7D7D7D7D7D7D7D7D7D7D7D7D7D7D7D7D7D7D7D7D7D7D7D7D7D7D7D7D7D7D7D7D7D7D7D7D7D7D7D7D7D7D7D7D7D7D7D7D7D7D7D7D7D7D7D7D7D7D7D7D7D7D7D7D7D7D7D7D7D7D7D7D7D7
310
D7D7D7D7D7D7D7D7D7D7D7D7D7D7D7D7D7D7D7D7D7D7D7D7D7D7D7D7D7D7D7D7D7D7D7D7D7D7D7D7D7D7D7D7D7D7D7D7D700D7D7D7D7D7D7D7D7D70000D7D7D7D7D7D7D7D7D700D7D7D7D7D7D7D7D7D7D7D7D7D7D7D7D7D7D7D7D7D7D7D7D7D7D7D7D7D7D7D7D7D7D7D7D7D7D7D7D7D7D7D7D7D7D7D7D7D7D7D7D7D7D7D7D7
310
D7D7D7D7D7D7D7D7D7D7D7D7D7D7D7D7D7D7D7D7D7D7D7D7D7D7D7D7D7D7D7D7D7D7D7D7D7D7D7D7D7D7D7D7D7D7D7D7D7D7D7D7D7D7D7D7D7D7D7D7D7D7D7D7D7D7D7D7D7D7D7D7D7D7D7D7D7D7D7D7D7D7D7D7D7D7D7D7D7D7D7D7D7D7D7D7D7D7D7D7D7D7D7D7D7D7D7D7D7D7D7D7D7D7D7D7D7D7D7D7D7D7D7D7D7D7D7
310
D7D7D7D7D7D7D700D7D7D7D7D7D7D7D7D70000D7D7D7D7D7D7D7D7D700D7D7D7D7D7D7D7D7D7D7D7D7D7D7D7D7D7D7D7D7D7D7D7D7D7D7D7D7D7D7D7D7D7D7D7D7D7D7D7D7D7D7D7D7D7D7D7D7D7D7D7D7D7D7D7D7D7D7D7D7D7D7D7D7D7D7D7D7D7D7D7D7D7D7D7D7D7D7D7D7D7D7D7D7D7D7D7D7D7D7D7D7D7D7D7D7D7D7
310
D7D7D7D7D7D7D7D7D7D7D7D7D7D7D7D7D7D7D7D7D7D7D7D7D7D7D7D7D7D7D7D7D7D7D7D7D7D7D7D7D7D7D7D7D7D700D7D7D7D7D7D7D7D7D7D7D7D7D7D7D7D7D7D7D7D7D7D7D7D7D7D7D7D7D7D7D7D7D7D7D7D7D7D7D7D7D7D7D7D7D700D7D7D7D7D7D7D7D7D70000D7D7D7D7D7D7D7D7D700D7D7D7D7D7D7D7D7D7D7D7D7D7
310
D7D7D7D7D7D7D7D7D7D7D7D7D7D7D7D7D7D7D7D7D7D7D7D7D7D7D7D7D7D7D7D7D7D7D7D7D7D7D7D7D7D7D7D7D7D7D7D7D7D7D7D7D7D7D7D7D7D7D7D7D7D7D7D7D7D7D7D7D7D7D7D7D7D7D7D7D7D7D7D7D7D7D7D7D7D7D7D7D7D7D7D7D7D7D7D7D7D7D7D7D7D7D7D7D7D7D7D7D7D7D7D7D7D7D7D7D7D7D7D7D7D7D7D7D700D7
310
00D7D70000D7D700D7D7D7D7D700D7D700D7D7D7D7000000D700D7D700D7D700D7D7D7D700D7D700D7D70000D7D7D7D7D7D700D7D7D7D7D7D7D7D7D70000D7D7D7D7D7D7D7D7D700D7D7D7D7D7D7D7D7D7D7D7D7D7D7D7D7D7D7D7D7D7D7D7D7D7D7D7D7D7D7D7D7D7D7D7D7D7D7D7D7D7D7D7D7D7D7D7D7D7D7D7D7D7D7D7
310
D7D7D7D7D7D7D7D7D7D7D7D7D7D7D7D7D7D7D7D7D7D7D7D7D7D7D7D7D7D7D7D7D7D7D7D7D7D7D7D7D7D7D7D7D7D7D7D7D7D7D7D7D7D7D7D7D7D7D7D7D7D7D7D7D7D7D7D7D7D7D7D7D7D7D7D7D7D7D7D7D7D7D7000000D7D7D700D70000D7D7D7D70000D7D7D7D7D7D7D7000000D700D70000D7D700D7D7D7D700D700D70000
310
D700D7D7D7D7D7D700D7D7D7D7D7D7D7D7D70000D7D7D7D7D7D7D7D7D700D7D7D7D7D7D7D7D7D7D7D7D7D7D7D7D7D7D7D7D7D7D7D7D7D7D7D7D7D7D7D7D7D7D7D7D7D7D7D7D7D7D7D7D7D7D7D7D7D7D7D7D7D7D7D7D7D7D7D7D7D7D7D7D7D7D7D7D7D7D7D7D7D7D7D7D7D7D7D7D7D7D7D7D7D7D7D7D7D7D7D7D7D7D7D7D7D7
310
D7D7D7D7D7D7D7D7D7D7D7D7D7D7D7D7D7D7D7D7D7D7D7D7D7D7D7D7D7D7D7D7D7D7D7D7D7D7D7D7D70000D7D7D7D700D70000D7D7D7D70000D7D700D7D7D7D7000000D700D700D7D7D7D7D7D7D7D700D70000D700D700D7D7D7D7D7D700D7D7D7D7D7D7D7D7D70000D7D7D7D7D7D7D7D7D700D7D7D7D7D7D7D7D7D7D7D7D7
310
D7D7D7D7D7D7D7D7D7D7D7D7D7D7D7D7D7D7D7D7D7D7D7D7D7D7D7D7D7D7D7D7D7D7D7D7D7D7D7D7D7D7D7D7D7D7D7D7D7D7D7D7D7D7D7D7D7D7D7D7D7D7D7D7D7D7D7D7D7D7D7D7D7D7D7D7D7D7D7D7D7D7D7D7D7D7D7D7D7D7D7D7D7D7D7D7D7D7D7D7D7D7D7D7D7D7D7D7D7D7D7D7D7D7D7D7D7D7D7D7D7D7D7D7D7D7D7
310
D7D7D7D7D7D7D7D7D7D7D7D7D7D7D7D7D7D7D7D7D7D70000D7D7D7D7D7D7D7D7D7D7D7D7D700D7D70000D7D700D7D7D7D7D7D700D7D7D7D7D7D7D7D7D70000D7D7D7D7D7D7D7D7D700D7D7D7D7D7D7D7D7D7D7D7D7D7D7D7D7D7D7D7D7D7D7D7D7D7D7D7D7D7D7D7D7D7D7D7D7D7D7D7D7D7D7D7D7D7D7D7D7D7D7D7D7D7D7
310
D7D7D7D7D7D7D7D7D7D7D7D7D7D7D7D7D7D7D7D7D7D7D7D7D7D7D7D7D7D7D7D7D7D7D7D7D7D7D7D7D7D7D7D7D7D7D7D7D7D7D7D7D7D7D7D7D7D7D7D7D7D7D7D7D7D7D7D7D7D7D7D7D7D7D7D7D7D7D7D7D7D7D7D7D7D7D7D7D7D7D7D7D7D7D7D7D7D7D7D7D7D7D7D7D7D7D7D7D7D7D7D7D7D7D7D7D7D7D7D7D7D7D7D7D7D7D7
310
D7D7D7D7D7D7D7D7D700D7D7D7D7D7D7D7D7D70000D7D7D7D7D7D7D7D7D700D7D7D7D7D7D7D7D7D7D7D7D7D7D7D7D7D7D7D7D7D7D7D7D7D7D7D7D7D7D7D7D7D7D7D7D7D7D7D7D7D7D7D7D7D7D7D7D7D7D7D7D7D7D7D7D7D7D7D7D7D7D7D7D7D7D7D7D7D7D7D7D7D7D7D7D7D7D7D7D7D7D7D7D7D7D7D7D7D7D7D7D7D7D7D7D7
310
D7D7D7D7D7D7D7D7D7D7D7D7D7D7D7D7D7D7D7D7D7D7D7D7D7D7D7D7D7D7D7D7D7D7D7D7D7D7D7D7D7D7D7D7D7D7D7D7D7D7D7D7D7D7D7D7D7D7D7D7D7D7D7D7D7D7D7D7D7D7D7D7D7D7D7D7D7D7D7D7D7D7D7D7D7D7D7D7D7D7D7D7D7D700D7D7D7D7D7D7D7D7D70000D7D7D7D7D7D7D7D7D700D7D7D7D7D7D7D7D7D7D7D7
310
D7D7D7D7D7D7D7D7D7D7D7D7D7D7D7D7D7D7D7D7D7D7D7D7D7D7D7D7D7D7D7D7D7D7D7D7D7D7D7D7D7D7D7D7D7D7D7D7D7D7D7D7D7D7D7D7D7D7D7D7D7D7D7D7D7D7D7D7D7D7D7D7D7D7D7D7D7D7D7D7D7D7D7D7D7D7D7D7D7D7D7D7D7D7D7D7D7D7D7D7D7D7D7D7D7D7D7D7D7D7D7D7D7D7D7D7D7D7D7D7D7D7D7D7D7D7D7
310
D7D7D7D7D7D7D7D7D7D7D7D7D7D7D7D7D7D7D7D7D7D7D7D7D7D7D7D7D7D7D7D7D7D7D7D7D7D7D7D7D7D7D7D7D7D7D7D7D7D7D7D700D7D7D7D7D7D7D7D7D70000D7D7D7D7D7D7D7D7D700D7D7D7D7D7D7D7D7D7D7D7D7D7D7D7D7D7D7D7D7D7D7D7D7D7D7D7D7D7D7D7D7D7D7D7D7D7D7D7D7D7D7D7D7D7D7D7D7D7D7D7D7D7
310
D7D7D7D7D7D7D7D7D7D7D7D7D7D7D7D7D7D7D7D7D7D7D7D7D7D7D7D7D7D7D7D7D7D7D7D7D7D7D7D7D7D7D7D7D7D7D7D7D7D7D7D7D7D7D7D7D7D7D7D7D7D7D7D7D7D7D7D7D7D7D7D7D7D7D7D7D7D7D7D7D7D7D7D7D700D70000D7D700D7D7D70000D700D70000D700D7D700D7D7D7D7D7D700D7D70000D7D70000D7D70000D7
310
D700D7D700D7D7D7D7D700D7D7D7D7D7D7D7D7D70000D7D7D7D7D7D7D7D7D700D7D7D7D7D7D7D7D7D7D7D7D7D7D7D7D7D7D7D7D7D7D7D7D7D7D7D7D7D7D7D7D7D7D7D7D7D7D7D7D7D7D7D7D7D7D7D7D7D7D7D7D7D7D7D7D7D7D7D7D7D7D7D7D7D7D7D7D7D7D7D7D7D7D7D7D7D7D7D7D7D7D7D7D7D7D7D7D7D7D7D7D7D7D7D7
310
D7D7D7D7D7D7D7D7D7D7D7D7D7D7D7D7D7D7D7D7D7D7D7D7D7D7D7D7D7D7D7D7D7D7D7D7D7D7D7D7D7D70000D7D7D7D700D700D7D7D7D7D700D7D7D7D7D7D7D7D7D7D7D7D7D7D700D7D70000D7D70000D7D700D7D70000D7D700D7D7D7D7D700D7D7D7D7D7D7D7D7D70000D7D7D7D7D7D7D7D7D700D7D7D7D7D7D7D7D7D7D7
310
D7D7D7D7D7D7D7D7D7D7D7D7D7D7D7D7D7D7D7D7D7D7D7D7D7D7D7D7D7D7D7D7D7D7D7D7D7D7D7D7D7D7D7D7D7D7D7D7D7D7D7D7D7D7D7D7D7D7D7D7D7D7D7D7D7D7D7D7D7D7D7D7D7D7D7D7D7D7D7D7D7D7D7D7D7D7D7D7D7D7D7D7D7D7D7D7D7D7D7D7D7D7D7D7D7D7D7D7D7D7D7D7D7D7D7D7D7D7D7D7D7D7D7D7D7D7D7
310
D700D70000D700D7D7D7D70000D700000000D7D700D7D700D7D7D70000D7D7D700D7D70000D7D7D70000D7D7D7D7D700D7D7D7D7D700D7D7D7D7D7D7D7D7D70000D7D7D7D7D7D7D7D7D700D7D7D7D7D7D7D7D7D7D7D7D7D7D7D7D7D7D7D7D7D7D7D7D7D7D7D7D7D7D7D7D7D7D7D7D7D7D7D7D7D7D7D7D7D7D7D7D7D7D7D7D7
310
D7D7D7D7D7D7D7D7D7D7D7D7D7D7D7D7D7D7D7D7D7D7D7D7D7D7D7D7D7D7D7D7D7D7D7D7D7D7D7D7D7D7D7D7D7D7D7D7D7D7D7D7D7D7D7D7D7D7D7D7D7D7D7D7D7D7D7D7D7D7D7D7D7D7D7D7D7D7D7D7D7D7D7D7D7D700D7D7D7D7D70000D7D7D7D7D7D7D7D7D7D7D7D7D7D7D7D7D7D7D7D7D7D7D7D7D7D7D7D7D7D7D700D7
310
D7D7D7D7D7D7D7D7D7D7D700D7D7D7D7D7D7D7D7D70000D7D7D7D7D7D7D7D7D700D7D7D7D7D7D7D7D7D7D7D7D7D7D7D7D7D7D7D7D7D7D7D7D7D7D7D7D7D7D7D7D7D7D7D7D7D7D7D7D7D7D7D7D7D700D7D7D7D7D7D7D7D7D7D7D7D7D7D7D7D7D7D7D7D7D7D7D700D7D7D7D7D7D7D7D7D7D7D7D7D7D7D7D7D7D7D7D7D7D7D7D7
310
D7D7D7D7D7D7D7D7D7D7D7D7D7D7D7D7D7D7D7D7D7D7D7D7D7D7D7D7D7D7D7D7D7D7D7D7D7D7D7D7D7D7D7D7D7D7D7D7D7D7D7D7D7D7D7D7D7D7D7D7D7D7D7D7D7D7D7D7D7D7D7D7D7D7D7D7D7D7D7D7D7D7D7D7D7D7D7D7D7D7D7D7D7D7D7D700D7D7D7D7D7D7D7D7D70000D7D7D7D7D7D7D7D7D700D7D7D7D7D7D7D7D7D7
310
D7D7D7D7D7D7D7D7D7D7D7D7D700D7D7D700D7D70000D70000D70000D7D7D70000D7D70000D7D7D7D70000D7000000D70000D70000D7D700D7D7D70000D7D7D7000000D700D7D70000D7D7D7000000D700D7D700D7D7D7D7D7D7D7D7D7D7D7D7D7D7D7D7D7D7D7D7D7D7D7D7D7D7D7D7D7D7D7D7D7D7D7D7D7D7D7D7D7D7D7
310
D7D7D7D7D7D7D7D7D7D7D7D7D7D7D7D7D7D7D7D7D7D7D7D7D7D7D7D7D7D7D7D7D7D7D7D7D7D7D7D7D7D7D7D7D7D7D7D7D7D7D7D7D7D700D7D7D7D7D7D7D7D7D70000D7D7D7D7D7D7D7D7D700D7D7D7D7D7D7D7D7D7D7D7D7D7D7D7D7D7D7D7D7D7D7D70000D7D7D7D7D700D70000D70000D7D7D700D700D700D7D7D7D700D7
310
D7D7D70000D7D7D7D70000D700D7D7D7D700D700D7D7D700D7D700D7D7D700D7D7D70000D7D7D7D7D7D7D7D7D7D7D7D7D7D7D7D7D7D7D7D7D7D7D7D7D7D7D7D7D7D7D7D7D7D7D7D7D7D7D7D7D7D7D7D7D7D7D7D7D7D7D7D7D7D7D7D7D7D7D7D7D7D7D7D7D7D7D7D7D7D7D7D7D7D7D7D7D7D7D7D7D7D7D7D7D7D7D7D7D7D7D7
310
D7D7D7D7D7D7D7D7D7D7D7D700D7D7D7D7D7D7D7D7D70000D7D7D7D7D7D7D7D7D700D7D7D7D7D7D7D7D7D7D7D7D7D7D7D7D7D7D7D7D7D7D7D70000D700D7D70000D7D700D70000D7D7D700D700D700D7D7D7D700D7D7D7D7D700D7D7D7D7D7D7D700D700D7D700D700D7D7D7D700D700D7D7D700D7D7D70000D7D700D7D7D7
310
D7D7D7D7D7D7D7D7D7D7D7D7D7D7D7D7D7D7D7D7D7D7D7D7D7D7D7D7D7D7D7D7D7D7D7D7D7D7D7D7D7D7D7D7D7D7D7D7D7D7D7D7D7D7D7D7D7D7D7D7D7D7D7D7D7D7D7D7D7D7D7D7D7D7D7D7D7D7D7D7D7D7D7D7D7D7D7D7D7D7D7D7D7D7D7D7D700D7D7D7D7D7D7D7D7D70000D7D7D7D7D7D7D7D7D700D7D7D7D7D7D7D7D7
310
D7D7D7D7D7D7D7D7D7D7D7D7D7D7D7D7D7D7D7D7D7D7D7D7D7D7D7D7D7D7D7D700D7D7D700D7D7D7D7D70000D7D7D7D7D7D7D7D7D7D7D7D7D7D7D7D700D7D7D7D7D700000000D7D70000D7D7D70000D7D7D7D7D7D7D7D7D7D7D7D7D7D7D7D7D7D7D7D7D7D7D7D7D7D7D7D7D7D7D7D7D7D7D7D7D7D7D7D7D7D7D7D7D7D7D7D7
310
D7D7D7D7D7D7D7D7D7D7D7D7D7D7D7D7D7D7D7D7D7D7D7D7D7D7D7D7D7D7D7D7D7D7D7D7D7D7D7D7D7D7D7D7D7D7D7D7D7D7D7D7D7D7D700D7D7D7D7D7D7D7D7D70000D7D7D7D7D7D7D7D7D700D7D7D7D7D7D7D7D7D7D7D7D7D7D7D7D7D7D7D7D7D7D7D7D7D7D7D7D7D7D7D7D7D7D7D7D7D7D7D7D7D7D7D7D7D7D7D7D7D7D7
310
D7D7D7D7D7D7D7D7D7D7D7D7D7D7D7D7D7D7D7D7D7D7D7D7D7D7D7D7D7D7D7D7D7D7D7D7D7D7D7D7D7D7D7D7D7D7D7D7D7D7D7D7D7D7D7D7D7D7D7D7D7D7D7D7D7D7D7D7D7D7D7D7D7D7D7D7D7D7D7D7D7D7D7D7D7D7D7D7D7D7D7D7D7D7D7D7D7D7D7D7D7D7D7D7D7D7D7D7D7D7D7D7D7D7D7D7D7D7D7D7D7D7D7D7D7D7D7
310
D7D7D7D7D7D7D7D7D7D7D7D7D700D7D7D7D7D7D7D7D7D70000D7D7D7D7D7D7D7D7D700D7D7D7D7D7D7D7D7D7D7D7D7D7D7D7D7D7D7D7D7D7D7D7D7D7D7D7D7D7D7D7D7D7D7D7D7D7D7D7D7D7D7D7D7D7D7D7D7D7D7D7D7D7D7D7D7D7D7D7D7D7D7D7D7D7D7D7D7D7D7D7D7D7D7D7D7D7D7D7D7D7D7D7D7D7D7D7D7D7D7D7D7
310
D7D7D7D7D7D7D7D7D7D7D7D7D7D7D7D7D7D7D7D7D7D7D7D7D7D7D7D7D7D7D7D7D7D7D7D7D7D7D7D7D7D7D7D7D7D7D7D7D7D7D7D7D7D7D7D7D7D7D7D7D7D7D7D7D7D7D7D7D7D7D7D7D7D7D7D7D7D7D7D7D7D7D7D7D7D7D7D7D7D7D7D7D7D7D7D7D7D700D7D7D7D7D7D7D7D7D70000D7D7D7D7D7D7D7D7D700D7D7D7D7D7D7D7
310
D7D7D7D7D7D7D7D7D7D7D7D7D7D7D7D7D7D7D7D7D7D7D7D7D7D7D7D7D7D7D7D7D7D7D7D7D7D7D7D7D7D7D7D7D7D7D7D7D7D7D7D7D7D7D7D7D7D7D7D7D7D7D7D7D7D7D7D7D7D7D7D7D7D7D7D7D7D7D7D7D7D7D7D7D7D7D7D7D7D7D7D7D7D7D7D7D7D7D7D7D7D7D7D7D7D7D7D7D7D7D7D7D7D7D7D7D7D7D7D7D7D7D7D7D7D7D7
310
D7D7D7D7D7D7D7D7D7D7D7D7D7D7D7D7D7D7D7D7D7D7D7D7D7D7D7D7D7D7D7D7D7D7D7D7D7D7D7D7D7D7D7D7D7D7D7D7D7D7D7D7D7D7D7D700D7D7D7D7D7D7D7D7D70000D7D7D7D7D7D7D7D7D700D7D7D7D7D7D700000000D700D7D7D7D7D7D7D7D7D7D7000000D7D700D7D7D7D7D700D7D7D700D700D700D7D7D700D7D7D7
310
D7D7D70000000000D7D700000000D700D7D7D700D7D7D7D7000000D7D7D7D700D7D7D7D7D7D7D7D7D700D7D7D7D7D7D7000000D7D700D7D7D700D7D7D700D7D7D7D7D7D7D7D7D7D7D7D7D7D7D7D7D7D7D7D7D7D7D7D7D7D7D7D7D7D7D7D7D7D7D7D7D7D7D7D7D7D7D7D7D7D7D7D7D7D7D7D7D7D7D7D7D7D7D7D7D7D7D7D7D7
310
D7D7D7D7D7D7D7D7D7D7D7D7D7D700D7D7D7D7D7D7D7D7D70000D7D7D7D7D7D7D7D7D700D7D7D7D7D7D7D7D7D7D7D700D7D7D7D7D7D7D7D7D7D7D7D7D700D700D7D7D7D7D700D7D700D7D700D700D7D70000D7D7D7D7D700D700D7D7D7D7D7D7D7D7D7D700D7D700D7D7D7D7D7D7D7D700D700D7D7D700D7D7D7D7D7D7D700
310
D7D7D7D7D700D7D7D7D7D700D7D7D7D7D7D7D700D7D7D7D7D7D7D7D7D7D7D7D7D7D7D7D7D7D7D7D7D7D7D7D7D7D7D7D7D7D7D7D7D7D7D7D7D7D7D7D7D7D7D7D7D7D7D7D7D7D7D7D7D7D7D7D7D7D7D7D7D7D7D7D7D7D7D7D7D7D7D7D7D7D7D7D7D7D7D700D7D7D7D7D7D7D7D7D70000D7D7D7D7D7D7D7D7D700D7D7D7D7D7D7
310
D7D7D7D7D7D700D7D7D7D7D7D7D7D7D7D7D7D700D700D7D7D7D7D700D7D7D7D7D700D700D7D70000D7D700D700D7D700D7D7D7D7D7D7D7D7D7D700D7D7D7D7D7D7D7D7D7D7D700D700D7D7D700D7D7D7D7D7D7D700D7D7D7D7D700D7D7D7D7D700D7D700D7D7D7D700D7D7D7D7D7D7D7D7D7D7D7D7D7D7D7D7D7D7D7D7D7D7
310
D7D7D7D7D7D7D7D7D7D7D7D7D7D7D7D7D7D7D7D7D7D7D7D7D7D7D7D7D7D7D7D7D7D7D7D7D7D7D7D7D7D7D7D7D7D7D7D7D7D7D7D7D7D7D7D7D700D7D7D7D7D7D7D7D7D70000D7D7D7D7D7D7D7D7D700D7D7D7D7D7D70000D7D7D7D7D7D7D7D7D7D7D7D7D7D70000D7D7D700D7D7D700D700D7D7D700D700D700D700D700D7D7
310
D7D7D7D7D700D7D7D7D7D700000000D700D7D7D700D7D7D7D70000D7D7D700D7D7D700D7D7D7D7D700D700D7D7D700D700D7D7D7D7D700D7D7D700D7D7D700D7D7D7D7D7D7D7D7D7D7D7D7D7D7D7D7D7D7D7D7D7D7D7D7D7D7D7D7D7D7D7D7D7D7D7D7D7D7D7D7D7D7D7D7D7D7D7D7D7D7D7D7D7D7D7D7D7D7D7D7D7D7D7D7
310
D7D7D7D7D7D7D7D7D7D7D7D7D7D7D700D7D7D7D7D7D7D7D7D70000D7D7D7D7D7D7D7D7D700D7D7D7D7D7D7D7D7D7D7D7D7D700D7D7D7D7D7D7D7D7D7D7D700D700D7D7D700D700D7D7D700D700D700D7D7D700D7D7D7D7D700D700D7D7D7D7D7D7D7D7D7D700D7D7D700D7D7D7D7D7D7D700D700D7D7D700D7D7D7D7D700D7
310
00D7D7D700D700D7D7D7D7D700D7D7D700D7D7D700D7D7D7D7D7D7D7D7D7D7D7D7D7D7D7D7D7D7D7D7D7D7D7D7D7D7D7D7D7D7D7D7D7D7D7D7D7D7D7D7D7D7D7D7D7D7D7D7D7D7D7D7D7D7D7D7D7D7D7D7D7D7D7D7D7D7D7D7D7D7D7D7D7D7D7D7D7D7D700D7D7D7D7D7D7D7D7D70000D7D7D7D7D7D7D7D7D700D7D7D7D7D7
310
D7D7D7D7D7D7D7D700D7D7D7D7D7D7D7D7D7D7D700D700D7D7D700D700D7D7D700D700D70000D7D700D7D7D7D7D7D7D700D7D7D7D7D7D7D7D7D7D700D7D7D700D7D7D7D7D7D7D700D700D7D7D700D7D7D7D7D700D700D7D7D700D7D7D7D7D700D700D7D7D700D7D7D700D7D7D7D7D7D7D7D7D7D7D7D7D7D7D7D7D7D7D7D7D7
310
D7D7D7D7D7D7D7D7D7D7D7D7D7D7D7D7D7D7D7D7D7D7D7D7D7D7D7D7D7D7D7D7D7D7D7D7D7D7D7D7D7D7D7D7D7D7D7D7D7D7D7D7D7D7D7D7D7D700D7D7D7D7D7D7D7D7D70000D7D7D7D7D7D7D7D7D700D7D7D7D7D7D7D7D7D7D7D7D7D7D7D7D7D7D7D7D7D7D7D7D7D7D7D7D7D7D7D7D7D7D7D7D7D7D7D7D7D7D7D7D7D7D7D7
310
D7D7D7D7D7D7D7D7D7D7D7D7D7D7D7D7D7D7D7D7D7D7D7D7D7D7D7D7D7D7D7D7D7D7D7D7D7D7D7D7D7D7D7D7D7D7D7D7D7D7D7D7D7D7D7D7D7D7D7D7D7D7D7D7D7D7D7D7D7D7D7D7D7D7D7D7D7D7D7D7D7D7D7D7D7D7D7D7D7D7D7D7D7D7D7D7D7D7D7D7D7D7D7D7D7D7D7D7D7D7D7D7D7D7D7D7D7D7D7D7D7D7D7D7D7D7D7
310
D7D7D7D7D7D7D7D7D7D7D7D7D7D7D7D700D7D7D7D7D7D7D7D7D70000D7D7D7D7D7D7D7D7D700D7D7D7D7D7D7D7D7D7D7D7D7D7D7D7D7D7D7D7D7D7D7D7D7D7D7D7D7D7D7D7D7D7D7D7D7D7D7D7D7D7D7D7D7D7D7D7D7D7D7D7D7D7D7D7D7D7D7D7D7D7D7D7D7D7D7D7D7D7D7D7D7D7D7D7D7D7D7D7D7D7D7D7D7D7D7D7D7D7
310
D7D7D7D7D7D7D7D7D7D7D7D7D7D7D7D7D7D7D7D7D7D7D7D7D7D7D7D7D7D7D7D7D7D7D7D7D7D7D7D7D7D7D7D7D7D7D7D7D7D7D7D7D7D7D7D7D7D7D7D7D7D7D7D7D7D7D7D7D7D7D7D7D7D7D7D7D7D7D7D7D7D7D7D7D7D7D7D7D7D7D7D7D7D7D7D7D7D7D7D7D700D7D7D7D7D7D7D7D7D70000D7D7D7D7D7D7D7D7D700D7D7D7D7
310
D7D7D7D7D7D7D7D7D7D7D7D7D7D7D7D7D7D7D7D7D7D7D7D7D7D7D7D7D7D7D7D7D7D7D7D7D7D7D7D7D7D7D7D7D7D7D7D7D7D7D7D7D7D7D7D7D7D7D7D7D7D7D7D7D7D7D7D7D7D7D7D7D7D7D7D7D7D7D7D7D7D7D7D7D7D7D7D7D7D7D7D7D7D7D7D7D7D7D7D7D7D7D7D7D7D7D7D7D7D7D7D7D7D7D7D7D7D7D7D7D7D7D7D7D7D7D7
310
D7D7D7D7D7D7D7D7D7D7D7D7D7D7D7D7D7D7D7D7D7D7D7D7D7D7D7D7D7D7D7D7D7D7D7D7D7D7D7D7D7D7D7D7D7D7D7D7D7D7D7D7D7D7D7D7D7D7D700D7D7D7D7D7D7D7D7D70000D7D7D7D7D7D7D7D7D700D7D7D7D7D7D7D7D7D7D7D7D7D7D7D7D7D7D7D7D7D7D7D7D7D7D7D7D7D7D7D7D7D7D7D7D7D7D7D7D7D7D7D7D7D7D7
310
D7D7D7D7D7D7D7D7D7D7D7D7D7D7D7D7D7D7D7D7D7D7D7D7D7D7D7D7D7D7D7D7D7D7D7D7D7D7D7D7D7D7D7D7D7D7D7D7D7D7D7D7D7D7D7D7D7D7D7D7D7D7D7D7D7D7D7D7D7D7D7D7D7D7D7D7D7D7D7D7D7D7D7D7D7D7D7D7D7D7D7D7D7D7D7D7D7D7D7D7D7D7D7D7D7D7D7D7D7D7D7D7D7D7D7D7D7D7D7D7D7D7D7D7D7D7D7
310
D7D7D7D7D7D7D7D7D7D7D7D7D7D7D7D7D700D7D7D7D7D7D7D7D7D70000D7D7D7D7D7D7D7D7D700D7D7D7D7D7D7D7D7D7D7D7D7D7D7D7D7D7D7D7D7D7D7D7D7D7D7D7D7D7D7D7D7D7D7D7D7D7D7D7D7D7D7D7D7D7D7D7D7D7D7D7D7D7D7D7D7D7D7D7D7D7D7D7D7D7D7D7D7D7D7D7D7D7D7D7D7D7D7D7D7D7D7D7D7D7D7D7D7
310
D7D7D7D7D7D7D7D7D7D7D7D7D7D7D7D7D7D7D7D7D7D7D7D7D7D7D7D7D7D7D7D7D7D7D7D7D7D7D7D7D7D7D7D7D7D7D7D7D7D7D7D7D7D7D7D7D7D7D7D7D7D7D7D7D7D7D7D7D7D7D7D7D7D7D7D7D7D7D7D7D7D7D7D7D7D7D7D7D7D7D7D7D7D7D7D7D7D7D7D7D7D700D7D7D7D7D7D7D7D7D70000D7D7D7D7D7D7D7D7D700D7D7D7
310
D7D7D7D7D7D7D7D7D7D7D7D7D7D7D7D7D7D7D7D7D7D7D7D7D7D7D7D7D7D7D7D7D7D7D7D7D7D7D7D7D7D7D7D7D7D7D7D7D7D7D7D7D7D7D7D7D7D7D7D7D7D7D7D7D7D7D7D7D7D7D7D7D7D7D7D7D7D7D7D7D7D7D7D7D7D7D7D7D7D7D7D7D7D7D7D7D7D7D7D7D7D7D7D7D7D7D7D7D7D7D7D7D7D7D7D7D7D7D7D7D7D7D7D7D7D7D7
310
D7D7D7D7D7D7D7D7D7D7D7D7D7D7D7D7D7D7D7D7D7D7D7D7D7D7D7D7D7D7D7D7D7D7D7D7D7D7D7D7D7D7D7D7D7D7D7D7D7D7D7D7D7D7D7D7D7D7D7D700D7D7D7D7D7D7D7D7D70000D7D7D7D7D7D7D7D7D700000000000000000000000000000000000000000000000000000000000000000000000000000000000000000000
310
00000000000000000000000000000000000000000000000000000000000000000000000000000000000000000000000000000000000000000000000000000000000000000000000000000000000000000000000000000000000000000000000000000000000000000000000000000000000000000000000000000000000000
310
00000000000000000000000000000000000000D7D7D7D7D7D7D7D7D70000D7D7D7D7D7D7D7D7D7D7D7D7D7D7D7D7D7D7D7D7D7D7D7D7D7D7D7D7D7D7D7D7D7D7D7D7D7D7D7D7D7D7D7D7D7D7D7D7D7D7D7D7D7D7D7D7D7D7D7D7D7D7D7D7D7D7D7D7D7D7D7D7D7D7D7D7D7D7D7D7D7D7D7D7D7D7D7D7D7D7D7D7D7D7D7D7D7
310
D7D7D7D7D7D7D7D7D7D7D7D7D7D7D7D7D7D7D7D7D7D7D7D7D7D7D7D7D7D7D7D7D7D7D7D7D7D7D7D7D7D7D7D7D7D7D7D7D7D7D7D7D7D7D7D7D7D7D7D7D7D7D7D7D7D7D7D7D7D7D7D7D7D7D7D7D7D7D7D7D7D7D7D7D7D7D7D7D7D7D7D7D7D7D7D7D7D7D7D7D7D7D7D7D7D7D7D7D7D7D7D7D70000D7D7D7D7D7D7D7D7D7D7D7D7
310
D7D7D7D7D7D7D7D7D7D7D7D7D7D7D7D7D7D7D7D7D7D7D7D7D7D7D7D7D7D7D7D7D7D7D7D7D7D7D7D7D7D7D7D7D7D7D7D7D7D7D7D7D7D7D7D7D7D7D7D7D7D7D7D7D7D7D7D7D7D7D7D7D7D7D7D7D7D7D7D7D7D7D7D7D7D7D7D7D7D7D7D7D7D7D7D7D7D7D7D7D7D7D7D7D7D7D7D7D7D7D7D7D7D7D7D7D7D7D7D7D7D7D7D7D7D7D7
310
D7D7D7D7D7D7D7D7D7D7D7D7D7D7D7D7D7D7D7D7D7D7D7D7D7D7D7D7D7D7D7D7D7D7D7D7D7D7D7D7D7D7D7D7D7D7D7D7D7D7D7D7D7D7D7D7D7D7D7D7D7D7D7D7D7D7D7D7D7D7D70000D7D7D7D7D7D7D7D7D7D7D7D7D7D7D7D7D7D7D7D7D7D7D7D7D7D7D7D7D7D7D7D7D7D7D7D7D7D7D7D7D7D7D7D7D7D7D7D7D7D7D7D7D7D7
310
D7D7D7D7D7D7D7D7D7D7D7D7D7D7D7D7D7D7D7D7D7D7D7D7D7D7D7D7D7D7D7D7D7D7D7D7D7D7D7D7D7D7D7D7D7D7D7D7D7D7D7D7D7D7D7D7D7D7D7D7D7D7D7D7D7D7D7D7D7D7D7D7D7D7D7D7D7D7D7D7D7D7D7D7D7D7D7D7D7D7D7D7D7D7D7D7D7D7D7D7D7D7D7D7D7D7D7D7D7D7D7D7D7D7D7D7D7D7D7D7D7D7D7D7D7D7D7
310
D7D7D7D7D7D7D7D7D7D7D7D7D7D7D7D7D7D7D7D7D7D7D7D7D7D7D7D7D70000D7D7D7D7D7D7D7D7D7D7D7D7D7D7D7D7D7D7D7D7D7D7D7D7D7D7D7D7D7D7D7D7D7D7D7D7D7D7D7D7D7D7D7D7D7D7D7D7D7D7D7D7D7D7D7D7D7D7D7D7D7D7D7D7D7D7D7D7D7D7D7D7D7D7D7D7D7D7D7D7D7D7D7D7D7D7D7D7D7D7D7D7D7D7D7D7
310
D7D7D7D7D7D7D7D7D7D7D7D7D7D7D7D7D7D7D7D7D7D7D7D7D7D7D7D7D7D7D7D7D7D7D7D7D7D7D7D7D7D7D7D7D7D7D7D7D7D7D7D7D7D7D7D7D7D7D7D7D7D7D7D7D7D7D7D7D7D7D7D7D7D7D7D7D7D7D7D7D7D7D7D7D7D7D7D7D7D7D7D7D7D7D7D7D7D7D7D7D7D7D7D7D7D7D7D7D7D7D7D7D7D70000D7D7D7D7D7D7D7D7D7D7D7
310
D7D7D7D7D7D7D7D7D7D7D7D7D7D7D7D7D7D7D7D7D7D7D7D7D7D7D7D7D7D7D7D7D7D7D7D7D7D7D7D7D7D7D7D7D7D7D7D7D7D7D7D7D7D7D7D7D7D7D7D7D7D7D7D7D7D7D7D7D7D7D7D7D7D7D7D7D7D7D7D7D7D7D7D7D7D7D7D7D7D7D7D7D7D7D7D7D7D7D7D7D7D7D7D7D7D7D7D7D7D7D7D7D7D7D7D7D7D7D7D7D7D7D7D7D7D7D7
310
D7D7D7D7D7D7D7D7D7D7D7D7D7D7D7D7D7D7D7D7D7D7D7D7D7D7D7D7D7D7D7D7D7D7D7D7D7D7D7D7D7D7D7D7D7D7D7D7D7D7D7D7D7D7D7D7D7D7D7D7D7D7D7D7D7D7D7D7D7D7D7D70000D7D7D7D7D7D7D7D7D7D7D7D7D7D7D7D7D7D7D7D7D7D7D7D7D7D7D7D7D7D7D7D7D7D7D7D7D7D7D7D7D7D7D7D7D7D7D7D7D7D7D7D7D7
310
D7D7D7D7D7D7D7D7D7D7D7D7D7D7D7D7D7D7D7D7D7D7D7D7D7D7D7D7D7D7D7D7D7D7D7D7D7D7D7D7D7D7D7D7D7D7D7D7D7D7D7D7D7D7D7D7D7D7D7D7D7D7D7D7D7D7D7D7D7D7D7D7D7D7D7D7D7D7D7D7D7D7D7D7D7D7D7D7D7D7D7D7D7D7D7D7D7D7D7D7D7D7D7D7D7D7D7D7D7D7D7D7D7D7D7D7D7D7D7D7D7D7D7D7D7D7D7
310
D7D7D7D7D7D7D7D7D7D7D7D7D7D7D7D7D7D7D7D7D7D7D7D7D7D7D7D7D7D70000D7D7D7D7D7D7D7D7D7D7D7D7D7D7D7D7D7D7D7D7D7D7D7D7D7D7D7D7D7D7D7D7D7D7D7D7D7D7D7D7D7D7D7D7D7D7D7D7D7D7D7D7D7D7D7D7D7D7D7D7D7D7D7D7D7D7D7D7D7D7D7D7D7D7D7D7D7D7D7D7D7D7D7D7D7D7D7D7D7D7D7D7D7D7D7
310
D7D7D7D7D7D7D7D7D7D7D7D7D7D7D7D7D7D7D7D7D7D7D7D7D7D7D7D7D7D7D7D7D7D7D7D7D7D7D7D7D7D7D7D7D7D7D7D7D7D7D7D7D7D7D7D7D7D7D7D7D7D7D7D7D7D7D7D7D7D7D7D7D7D7D7D7D7D7D7D7D7D7D7D7D7D7D7D7D7D7D7D7D7D7D7D7D7D7D7D7D7D7D7D7D7D7D7D7D7D7D7D7D7D7D70000D7D7D7D7D7D7D7D7D7D7
310
D7D7D7D7D7D7D7D7D7D7D7D7D7D7D7D7D7D7D7D7D7D7D7D7D7D7D7D7D7D7D7D7D7D7D7D7D7D7D7D7D7D7D7D7D7D7D7D7D7D7D7D7D7D7D7D7D7D7D7D7D7D7D7D7D7D7D7D7D7D7D7D7D7D7D7D7D7D7D7D7D7D7D7D7D7D7D7D7D7D7D7D7D7D7D7D7D7D7D7D7D7D7D7D7D7D7D7D7D7D7D7D7D7D7D7D7D7D7D7D7D7D7D7D7D7D7D7
310
D7D7D7D7D7D7D7D7D7D7D7D7D7D7D7D7D7D7D7D7D7D7D7D7D7D7D7D7D7D7D7D7D7D7D7D7D7D7D7D7D7D7D7D7D7D7D7D7D7D7D7D7D7D7D7D7D7D7D7D7D7D7D7D7D7D7D7D7D7D7D7D7D70000D7D7D7D7D7D7D7D7D7D7D7D7D7D7D7D7D7D7D7D7D7D7D7D7D7D7D7D7D7D7D7D7D7D7D7D7D7D7D7D7D7D7D7D7D7D7D7D7D7D7D7D7
310
D7D7D7D7D7D7D7D7D7D7D7D7D7D7D7D7D7D7D7D7D7D7D7D7D7D7D7D7D7D7D7D7D7D7D7D7D7D7D7D7D7D7D7D7D7D7D7D7D7D7D7D7D7D7D7D7D7D7D7D7D7D7D7D7D7D7D7D7D7D7D7D7D7D7D7D7D7D7D7D7D7D7D7D7D7D7D7D7D7D7D7D7D7D7D7D7D7D7D7D7D7D7D7D7D7D7D7D7D7D7D7D7D7D7D7D7D7D7D7D7D7D7D7D7D7D7D7
310
D7D7D7D7D7D7D7D7D7D7D7D7D7D7D7D7D7D7D7D7D7D7D7D7D7D7D7D7D7D7D700000000000000000000000000000000
  0
ENDSEC
  0
EOF
