  0
SECTION
  2
HEADER
  9
$ACADVER
  1
AC1015
  9
$ACADMAINTVER
 70
     6
  9
$DWGCODEPAGE
  3
ANSI_1252
  9
$INSBASE
 10
0.0
 20
0.0
 30
0.0
  9
$EXTMIN
 10
-0.5000025915865649
 20
-0.5000011167626326
 30
0.0
  9
$EXTMAX
 10
53.30919477261767
 20
53.26290744651714
 30
0.0
  9
$LIMMIN
 10
-0.5000025915865649
 20
-0.5000011167626326
  9
$LIMMAX
 10
53.30919477261767
 20
53.26290744651714
  9
$ORTHOMODE
 70
     0
  9
$REGENMODE
 70
     1
  9
$FILLMODE
 70
     1
  9
$QTEXTMODE
 70
     0
  9
$MIRRTEXT
 70
     1
  9
$LTSCALE
 40
1.0
  9
$ATTMODE
 70
     1
  9
$TEXTSIZE
 40
0.2
  9
$TRACEWID
 40
0.05
  9
$TEXTSTYLE
  7
Standard
  9
$CLAYER
  8
0
  9
$CELTYPE
  6
ByLayer
  9
$CECOLOR
 62
   256
  9
$CELTSCALE
 40
1.0
  9
$DISPSILH
 70
     0
  9
$DIMSCALE
 40
1.0
  9
$DIMASZ
 40
0.18
  9
$DIMEXO
 40
0.0625
  9
$DIMDLI
 40
0.38
  9
$DIMRND
 40
0.0
  9
$DIMDLE
 40
0.0
  9
$DIMEXE
 40
0.18
  9
$DIMTP
 40
0.0
  9
$DIMTM
 40
0.0
  9
$DIMTXT
 40
0.18
  9
$DIMCEN
 40
0.09
  9
$DIMTSZ
 40
0.0
  9
$DIMTOL
 70
     0
  9
$DIMLIM
 70
     0
  9
$DIMTIH
 70
     1
  9
$DIMTOH
 70
     1
  9
$DIMSE1
 70
     0
  9
$DIMSE2
 70
     0
  9
$DIMTAD
 70
     0
  9
$DIMZIN
 70
     0
  9
$DIMBLK
  1

  9
$DIMASO
 70
     1
  9
$DIMSHO
 70
     1
  9
$DIMPOST
  1

  9
$DIMAPOST
  1

  9
$DIMALT
 70
     0
  9
$DIMALTD
 70
     2
  9
$DIMALTF
 40
25.4
  9
$DIMLFAC
 40
1.0
  9
$DIMTOFL
 70
     0
  9
$DIMTVP
 40
0.0
  9
$DIMTIX
 70
     0
  9
$DIMSOXD
 70
     0
  9
$DIMSAH
 70
     0
  9
$DIMBLK1
  1

  9
$DIMBLK2
  1

  9
$DIMSTYLE
  2
Standard
  9
$DIMCLRD
 70
     0
  9
$DIMCLRE
 70
     0
  9
$DIMCLRT
 70
     0
  9
$DIMTFAC
 40
1.0
  9
$DIMGAP
 40
0.09
  9
$DIMJUST
 70
     0
  9
$DIMSD1
 70
     0
  9
$DIMSD2
 70
     0
  9
$DIMTOLJ
 70
     1
  9
$DIMTZIN
 70
     0
  9
$DIMALTZ
 70
     0
  9
$DIMALTTZ
 70
     0
  9
$DIMUPT
 70
     0
  9
$DIMDEC
 70
     4
  9
$DIMTDEC
 70
     4
  9
$DIMALTU
 70
     2
  9
$DIMALTTD
 70
     2
  9
$DIMTXSTY
  7
Standard
  9
$DIMAUNIT
 70
     0
  9
$DIMADEC
 70
     0
  9
$DIMALTRND
 40
0.0
  9
$DIMAZIN
 70
     0
  9
$DIMDSEP
 70
    46
  9
$DIMATFIT
 70
     3
  9
$DIMFRAC
 70
     0
  9
$DIMLDRBLK
  1

  9
$DIMLUNIT
 70
     2
  9
$DIMLWD
 70
    -2
  9
$DIMLWE
 70
    -2
  9
$DIMTMOVE
 70
     0
  9
$LUNITS
 70
     2
  9
$LUPREC
 70
     4
  9
$SKETCHINC
 40
0.1
  9
$FILLETRAD
 40
0.5
  9
$AUNITS
 70
     0
  9
$AUPREC
 70
     0
  9
$MENU
  1
.
  9
$ELEVATION
 40
0.0
  9
$PELEVATION
 40
0.0
  9
$THICKNESS
 40
0.0
  9
$LIMCHECK
 70
     0
  9
$CHAMFERA
 40
0.5
  9
$CHAMFERB
 40
0.5
  9
$CHAMFERC
 40
1.0
  9
$CHAMFERD
 40
0.0
  9
$SKPOLY
 70
     0
  9
$TDCREATE
 40
2456097.708881609
  9
$TDUCREATE
 40
2456097.958881609
  9
$TDUPDATE
 40
2456097.70888162
  9
$TDUUPDATE
 40
2456097.95888162
  9
$TDINDWG
 40
0.0000000116
  9
$TDUSRTIMER
 40
0.0000000116
  9
$USRTIMER
 70
     1
  9
$ANGBASE
 50
0.0
  9
$ANGDIR
 70
     0
  9
$PDMODE
 70
     0
  9
$PDSIZE
 40
0.0
  9
$PLINEWID
 40
0.0
  9
$SPLFRAME
 70
     0
  9
$SPLINETYPE
 70
     6
  9
$SPLINESEGS
 70
     8
  9
$HANDSEED
  5
3FF
  9
$SURFTAB1
 70
     6
  9
$SURFTAB2
 70
     6
  9
$SURFTYPE
 70
     6
  9
$SURFU
 70
     6
  9
$SURFV
 70
     6
  9
$UCSBASE
  2

  9
$UCSNAME
  2

  9
$UCSORG
 10
0.0
 20
0.0
 30
0.0
  9
$UCSXDIR
 10
1.0
 20
0.0
 30
0.0
  9
$UCSYDIR
 10
0.0
 20
1.0
 30
0.0
  9
$UCSORTHOREF
  2

  9
$UCSORTHOVIEW
 70
     0
  9
$UCSORGTOP
 10
0.0
 20
0.0
 30
0.0
  9
$UCSORGBOTTOM
 10
0.0
 20
0.0
 30
0.0
  9
$UCSORGLEFT
 10
0.0
 20
0.0
 30
0.0
  9
$UCSORGRIGHT
 10
0.0
 20
0.0
 30
0.0
  9
$UCSORGFRONT
 10
0.0
 20
0.0
 30
0.0
  9
$UCSORGBACK
 10
0.0
 20
0.0
 30
0.0
  9
$PUCSBASE
  2

  9
$PUCSNAME
  2

  9
$PUCSORG
 10
0.0
 20
0.0
 30
0.0
  9
$PUCSXDIR
 10
1.0
 20
0.0
 30
0.0
  9
$PUCSYDIR
 10
0.0
 20
1.0
 30
0.0
  9
$PUCSORTHOREF
  2

  9
$PUCSORTHOVIEW
 70
     0
  9
$PUCSORGTOP
 10
0.0
 20
0.0
 30
0.0
  9
$PUCSORGBOTTOM
 10
0.0
 20
0.0
 30
0.0
  9
$PUCSORGLEFT
 10
0.0
 20
0.0
 30
0.0
  9
$PUCSORGRIGHT
 10
0.0
 20
0.0
 30
0.0
  9
$PUCSORGFRONT
 10
0.0
 20
0.0
 30
0.0
  9
$PUCSORGBACK
 10
0.0
 20
0.0
 30
0.0
  9
$USERI1
 70
     0
  9
$USERI2
 70
     0
  9
$USERI3
 70
     0
  9
$USERI4
 70
     0
  9
$USERI5
 70
     0
  9
$USERR1
 40
0.0
  9
$USERR2
 40
0.0
  9
$USERR3
 40
0.0
  9
$USERR4
 40
0.0
  9
$USERR5
 40
0.0
  9
$WORLDVIEW
 70
     1
  9
$SHADEDGE
 70
     3
  9
$SHADEDIF
 70
    70
  9
$TILEMODE
 70
     1
  9
$MAXACTVP
 70
    64
  9
$PINSBASE
 10
0.0
 20
0.0
 30
0.0
  9
$PLIMCHECK
 70
     0
  9
$PEXTMIN
 10
1.000000000000000E+20
 20
1.000000000000000E+20
 30
1.000000000000000E+20
  9
$PEXTMAX
 10
-1.000000000000000E+20
 20
-1.000000000000000E+20
 30
-1.000000000000000E+20
  9
$PLIMMIN
 10
0.0
 20
0.0
  9
$PLIMMAX
 10
12.0
 20
9.0
  9
$UNITMODE
 70
     0
  9
$VISRETAIN
 70
     1
  9
$PLINEGEN
 70
     0
  9
$PSLTSCALE
 70
     1
  9
$TREEDEPTH
 70
  3020
  9
$CMLSTYLE
  2
Standard
  9
$CMLJUST
 70
     0
  9
$CMLSCALE
 40
1.0
  9
$PROXYGRAPHICS
 70
     1
  9
$MEASUREMENT
 70
     0
  9
$CELWEIGHT
370
    -1
  9
$ENDCAPS
280
     0
  9
$JOINSTYLE
280
     0
  9
$LWDISPLAY
290
     0
  9
$INSUNITS
 70
     4
  9
$HYPERLINKBASE
  1

  9
$STYLESHEET
  1

  9
$XEDIT
290
     1
  9
$CEPSNTYPE
380
     0
  9
$PSTYLEMODE
290
     1
  9
$FINGERPRINTGUID
  2
{0923162E-733B-4959-A481-40EBA2A0181F}
  9
$VERSIONGUID
  2
{FAEB1C32-E019-11D5-929B-00C0DF256EC4}
  9
$EXTNAMES
290
     1
  9
$PSVPSCALE
 40
0.0
  9
$OLESTARTUP
290
     0
  0
ENDSEC
  0
SECTION
  2
CLASSES
  0
CLASS
  1
ACDBDICTIONARYWDFLT
  2
AcDbDictionaryWithDefault
  3
ObjectDBX Classes
 90
        0
280
     0
281
     0
  0
CLASS
  1
VISUALSTYLE
  2
AcDbVisualStyle
  3
ObjectDBX Classes
 90
     4095
280
     0
281
     0
  0
CLASS
  1
MATERIAL
  2
AcDbMaterial
  3
ObjectDBX Classes
 90
     1153
280
     0
281
     0
  0
CLASS
  1
DICTIONARYVAR
  2
AcDbDictionaryVar
  3
ObjectDBX Classes
 90
        0
280
     0
281
     0
  0
CLASS
  1
ACDBPLACEHOLDER
  2
AcDbPlaceHolder
  3
ObjectDBX Classes
 90
        0
280
     0
281
     0
  0
CLASS
  1
LAYOUT
  2
AcDbLayout
  3
ObjectDBX Classes
 90
        0
280
     0
281
     0
  0
ENDSEC
  0
SECTION
  2
TABLES
  0
TABLE
  2
VPORT
  5
8
330
0
100
AcDbSymbolTable
 70
     1
  0
VPORT
  5
29
330
8
100
AcDbSymbolTableRecord
100
AcDbViewportTableRecord
  2
*Active
 70
     0
 10
0.0
 20
0.0
 11
1.0
 21
1.0
 12
-0.5000025915865649
 22
26.38145316487725
 13
0.0
 23
0.0
 14
0.5
 24
0.5
 15
0.5
 25
0.5
 16
0.0
 26
0.0
 36
1.0
 17
0.0
 27
0.0
 37
0.0
 40
53.76290856327977
 41
0.3302789456554974
 42
50.0
 43
0.0
 44
0.0
 50
0.0
 51
0.0
 71
     0
 72
   100
 73
     1
 74
     3
 75
     0
 76
     0
 77
     0
 78
     0
281
     0
 65
     1
110
0.0
120
0.0
130
0.0
111
1.0
121
0.0
131
0.0
112
0.0
122
1.0
132
0.0
 79
     0
146
0.0
  0
ENDTAB
  0
TABLE
  2
LTYPE
  5
5
330
0
100
AcDbSymbolTable
 70
    10
  0
LTYPE
  5
14
330
5
100
AcDbSymbolTableRecord
100
AcDbLinetypeTableRecord
  2
ByBlock
 70
     0
  3

 72
    65
 73
     0
 40
0.0
  0
LTYPE
  5
15
330
5
100
AcDbSymbolTableRecord
100
AcDbLinetypeTableRecord
  2
ByLayer
 70
     0
  3

 72
    65
 73
     0
 40
0.0
  0
LTYPE
  5
16
330
5
100
AcDbSymbolTableRecord
100
AcDbLinetypeTableRecord
  2
Continuous
 70
     0
  3
Solid line
 72
    65
 73
     0
 40
0.0
  0
LTYPE
  5
53
330
5
100
AcDbSymbolTableRecord
100
AcDbLinetypeTableRecord
  2
ZIGZAG
 70
     0
  3
/\/\/\/\/\/\/\/\
 72
    65
 73
     4
 40
20.32254
 49
0.00254
 74
     0
 49
-5.08
 74
     4
 75
   131
340
52
 46
5.08
 50
0.0
 44
-5.08
 45
0.0
 49
-10.16
 74
     4
 75
   131
340
52
 46
5.08
 50
180.0
 44
5.08
 45
0.0
 49
-5.08
 74
     0
  0
LTYPE
  5
54
330
5
100
AcDbSymbolTableRecord
100
AcDbLinetypeTableRecord
  2
BATTING
 70
     0
  3
 SSSSSSSSSSSSSSSSSSSSSS
 72
    65
 73
     4
 40
10.16254
 49
0.00254
 74
     0
 49
-2.54
 74
     4
 75
   134
340
52
 46
2.54
 50
0.0
 44
-2.54
 45
0.0
 49
-5.08
 74
     4
 75
   134
340
52
 46
2.54
 50
180.0
 44
2.54
 45
0.0
 49
-2.54
 74
     0
  0
LTYPE
  5
55
330
5
100
AcDbSymbolTableRecord
100
AcDbLinetypeTableRecord
  2
DASHDOT
 70
     0
  3
DASHDOT
 72
    65
 73
     4
 40
1.0
 49
0.5
 74
     0
 49
-0.25
 74
     0
 49
0.0001
 74
     0
 49
-0.25
 74
     0
  0
LTYPE
  5
56
330
5
100
AcDbSymbolTableRecord
100
AcDbLinetypeTableRecord
  2
DASHDOTX2
 70
     0
  3
DASHDOTX2
 72
    65
 73
     4
 40
1.0
 49
1.0
 74
     0
 49
-0.5
 74
     0
 49
0.0002
 74
     0
 49
-0.5
 74
     0
  0
LTYPE
  5
57
330
5
100
AcDbSymbolTableRecord
100
AcDbLinetypeTableRecord
  2
DASHED
 70
     0
  3
DASHED
 72
    65
 73
     2
 40
0.75
 49
0.5
 74
     0
 49
-0.25
 74
     0
  0
LTYPE
  5
58
330
5
100
AcDbSymbolTableRecord
100
AcDbLinetypeTableRecord
  2
TRACKS
 70
     0
  3
TRACKS
 72
    65
 73
     2
 40
7.62
 49
3.81
 74
     0
 49
3.81
 74
     0
  0
LTYPE
  5
59
330
5
100
AcDbSymbolTableRecord
100
AcDbLinetypeTableRecord
  2
DOT
 70
     0
  3
DOT
 72
    65
 73
     2
 40
0.25
 49
0.0001
 74
     0
 49
-0.25
 74
     0
  0
LTYPE
  5
5A
330
5
100
AcDbSymbolTableRecord
100
AcDbLinetypeTableRecord
  2
DIVIDE
 70
     0
  3
DIVIDE
 72
    65
 73
     6
 40
1.25
 49
0.5
 74
     0
 49
-0.25
 74
     0
 49
0.0001
 74
     0
 49
-0.25
 74
     0
 49
0.0001
 74
     0
 49
-0.25
 74
     0
  0
LTYPE
  5
5B
330
5
100
AcDbSymbolTableRecord
100
AcDbLinetypeTableRecord
  2
PHANTOM
 70
     0
  3
PHANTOM
 72
    65
 73
     6
 40
2.5
 49
1.25
 74
     0
 49
-0.25
 74
     0
 49
0.25
 74
     0
 49
-0.25
 74
     0
 49
0.25
 74
     0
 49
-0.25
 74
     0
  0
ENDTAB
  0
TABLE
  2
LAYER
  5
2
330
0
100
AcDbSymbolTable
 70
   249
  0
LAYER
  5
10
330
2
100
AcDbSymbolTableRecord
100
AcDbLayerTableRecord
  2
0
 70
     0
 62
     7
  6
Continuous
370
    35
390
F
  0
LAYER
  5
5C
330
2
100
AcDbSymbolTableRecord
100
AcDbLayerTableRecord
  2
DETAILS
 70
     0
 62
     7
  6
Continuous
370
    35
390
F
  0
LAYER
  5
5D
330
2
100
AcDbSymbolTableRecord
100
AcDbLayerTableRecord
  2
2 Drafting Aux Lines
 70
     0
 62
     7
  6
Continuous
370
    35
390
F
  0
LAYER
  5
5E
330
2
100
AcDbSymbolTableRecord
100
AcDbLayerTableRecord
  2
3 Texts
 70
     0
 62
     7
  6
Continuous
370
    35
390
F
  0
LAYER
  5
5F
330
2
100
AcDbSymbolTableRecord
100
AcDbLayerTableRecord
  2
4 Dimensions
 70
     0
 62
     7
  6
Continuous
370
    35
390
F
  0
LAYER
  5
60
330
2
100
AcDbSymbolTableRecord
100
AcDbLayerTableRecord
  2
5 Hatches
 70
     0
 62
     7
  6
Continuous
370
    35
390
F
  0
LAYER
  5
61
330
2
100
AcDbSymbolTableRecord
100
AcDbLayerTableRecord
  2
6 Drawing Origin Marker
 70
     0
 62
     7
  6
Continuous
370
    35
390
F
  0
LAYER
  5
62
330
2
100
AcDbSymbolTableRecord
100
AcDbLayerTableRecord
  2
7 Sheet
 70
     0
 62
     7
  6
Continuous
370
    35
390
F
  0
LAYER
  5
63
330
2
100
AcDbSymbolTableRecord
100
AcDbLayerTableRecord
  2
8 Other
 70
     0
 62
     7
  6
Continuous
370
    35
390
F
  0
LAYER
  5
64
330
2
100
AcDbSymbolTableRecord
100
AcDbLayerTableRecord
  2
9 Never-Hiding Lines
 70
     0
 62
     7
  6
Continuous
370
    35
390
F
  0
LAYER
  5
65
330
2
100
AcDbSymbolTableRecord
100
AcDbLayerTableRecord
  2
10 Raster Images
 70
     0
 62
     7
  6
Continuous
370
    35
390
F
  0
LAYER
  5
66
330
2
100
AcDbSymbolTableRecord
100
AcDbLayerTableRecord
  2
11 Wall Rough Frame
 70
     0
 62
     7
  6
Continuous
370
    35
390
F
  0
LAYER
  5
67
330
2
100
AcDbSymbolTableRecord
100
AcDbLayerTableRecord
  2
12 Wall Ext Surface
 70
     0
 62
     7
  6
Continuous
370
    35
390
F
  0
LAYER
  5
68
330
2
100
AcDbSymbolTableRecord
100
AcDbLayerTableRecord
  2
13 Wall Int Surface
 70
     0
 62
     7
  6
Continuous
370
    35
390
F
  0
LAYER
  5
69
330
2
100
AcDbSymbolTableRecord
100
AcDbLayerTableRecord
  2
14 Wall Other Lines
 70
     0
 62
     7
  6
Continuous
370
    35
390
F
  0
LAYER
  5
6A
330
2
100
AcDbSymbolTableRecord
100
AcDbLayerTableRecord
  2
16 Wall Insulation
 70
     0
 62
     7
  6
Continuous
370
    35
390
F
  0
LAYER
  5
6B
330
2
100
AcDbSymbolTableRecord
100
AcDbLayerTableRecord
  2
17 Wall Framing Lines
 70
     0
 62
     7
  6
Continuous
370
    35
390
F
  0
LAYER
  5
6C
330
2
100
AcDbSymbolTableRecord
100
AcDbLayerTableRecord
  2
18 Wall Bottom Plate
 70
     0
 62
     7
  6
Continuous
370
    35
390
F
  0
LAYER
  5
6D
330
2
100
AcDbSymbolTableRecord
100
AcDbLayerTableRecord
  2
19 Wall Hatch Patterns
 70
     0
 62
     7
  6
Continuous
370
    35
390
F
  0
LAYER
  5
6E
330
2
100
AcDbSymbolTableRecord
100
AcDbLayerTableRecord
  2
20 Wall_ Space Divider
 70
     0
 62
     7
  6
Continuous
370
    35
390
F
  0
LAYER
  5
6F
330
2
100
AcDbSymbolTableRecord
100
AcDbLayerTableRecord
  2
21 Foundation
 70
     0
 62
     7
  6
Continuous
370
    35
390
F
  0
LAYER
  5
70
330
2
100
AcDbSymbolTableRecord
100
AcDbLayerTableRecord
  2
22 Fill (Color)
 70
     0
 62
     7
  6
Continuous
370
    35
390
F
  0
LAYER
  5
71
330
2
100
AcDbSymbolTableRecord
100
AcDbLayerTableRecord
  2
23 Foundation Hatch
 70
     0
 62
     7
  6
Continuous
370
    35
390
F
  0
LAYER
  5
72
330
2
100
AcDbSymbolTableRecord
100
AcDbLayerTableRecord
  2
24 Module lines (grid)
 70
     0
 62
     7
  6
Continuous
370
    35
390
F
  0
LAYER
  5
73
330
2
100
AcDbSymbolTableRecord
100
AcDbLayerTableRecord
  2
25 Opening Labels
 70
     0
 62
     7
  6
Continuous
370
    35
390
F
  0
LAYER
  5
74
330
2
100
AcDbSymbolTableRecord
100
AcDbLayerTableRecord
  2
26 Openings Windows
 70
     0
 62
     7
  6
Continuous
370
    35
390
F
  0
LAYER
  5
75
330
2
100
AcDbSymbolTableRecord
100
AcDbLayerTableRecord
  2
27 Openings Doors
 70
     0
 62
     7
  6
Continuous
370
    35
390
F
  0
LAYER
  5
76
330
2
100
AcDbSymbolTableRecord
100
AcDbLayerTableRecord
  2
28 Openings Other
 70
     0
 62
     7
  6
Continuous
370
    35
390
F
  0
LAYER
  5
77
330
2
100
AcDbSymbolTableRecord
100
AcDbLayerTableRecord
  2
31 Wall Color Fill
 70
     0
 62
     7
  6
Continuous
370
    35
390
F
  0
LAYER
  5
78
330
2
100
AcDbSymbolTableRecord
100
AcDbLayerTableRecord
  2
32 Wall Center Line
 70
     0
 62
     7
  6
Continuous
370
    35
390
F
  0
LAYER
  5
79
330
2
100
AcDbSymbolTableRecord
100
AcDbLayerTableRecord
  2
33 Opening Sheet Labels
 70
     0
 62
    -7
  6
Continuous
370
    35
390
F
  0
LAYER
  5
7A
330
2
100
AcDbSymbolTableRecord
100
AcDbLayerTableRecord
  2
34 Outdoor Components
 70
     0
 62
     7
  6
Continuous
370
    35
390
F
  0
LAYER
  5
7B
330
2
100
AcDbSymbolTableRecord
100
AcDbLayerTableRecord
  2
35 Lawn Furniture
 70
     0
 62
     7
  6
Continuous
370
    35
390
F
  0
LAYER
  5
7C
330
2
100
AcDbSymbolTableRecord
100
AcDbLayerTableRecord
  2
36 Furniture
 70
     0
 62
     7
  6
Continuous
370
    35
390
F
  0
LAYER
  5
7D
330
2
100
AcDbSymbolTableRecord
100
AcDbLayerTableRecord
  2
37 Extra Materials
 70
     0
 62
     7
  6
Continuous
370
    35
390
F
  0
LAYER
  5
7E
330
2
100
AcDbSymbolTableRecord
100
AcDbLayerTableRecord
  2
38 Furniture markings
 70
     0
 62
     7
  6
Continuous
370
    35
390
F
  0
LAYER
  5
7F
330
2
100
AcDbSymbolTableRecord
100
AcDbLayerTableRecord
  2
39 Furniture labels
 70
     0
 62
     7
  6
Continuous
370
    35
390
F
  0
LAYER
  5
80
330
2
100
AcDbSymbolTableRecord
100
AcDbLayerTableRecord
  2
40 Floor Shape Lines
 70
     0
 62
     7
  6
Continuous
370
    35
390
F
  0
LAYER
  5
81
330
2
100
AcDbSymbolTableRecord
100
AcDbLayerTableRecord
  2
41 Surface Hatch
 70
     0
 62
     7
  6
Continuous
370
    35
390
F
  0
LAYER
  5
82
330
2
100
AcDbSymbolTableRecord
100
AcDbLayerTableRecord
  2
42 Framing Pieces
 70
     0
 62
     7
  6
Continuous
370
    35
390
F
  0
LAYER
  5
83
330
2
100
AcDbSymbolTableRecord
100
AcDbLayerTableRecord
  2
43 Piece Labels
 70
     0
 62
     7
  6
Continuous
370
    35
390
F
  0
LAYER
  5
84
330
2
100
AcDbSymbolTableRecord
100
AcDbLayerTableRecord
  2
44 Piece Schedules
 70
     0
 62
     7
  6
Continuous
370
    35
390
F
  0
LAYER
  5
85
330
2
100
AcDbSymbolTableRecord
100
AcDbLayerTableRecord
  2
45 Pan.Layout Center Lns
 70
     0
 62
     7
  6
Continuous
370
    35
390
F
  0
LAYER
  5
86
330
2
100
AcDbSymbolTableRecord
100
AcDbLayerTableRecord
  2
46 2nd Pan.CL
 70
     0
 62
     7
  6
Continuous
370
    35
390
F
  0
LAYER
  5
87
330
2
100
AcDbSymbolTableRecord
100
AcDbLayerTableRecord
  2
47 Outlines
 70
     0
 62
     7
  6
Continuous
370
    35
390
F
  0
LAYER
  5
88
330
2
100
AcDbSymbolTableRecord
100
AcDbLayerTableRecord
  2
48 Labels
 70
     0
 62
     7
  6
Continuous
370
    35
390
F
  0
LAYER
  5
89
330
2
100
AcDbSymbolTableRecord
100
AcDbLayerTableRecord
  2
49 Assembly
 70
     0
 62
     7
  6
Continuous
370
    35
390
F
  0
LAYER
  5
8A
330
2
100
AcDbSymbolTableRecord
100
AcDbLayerTableRecord
  2
50 Ceiling Shape Lines
 70
     0
 62
     7
  6
Continuous
370
    35
390
F
  0
LAYER
  5
8B
330
2
100
AcDbSymbolTableRecord
100
AcDbLayerTableRecord
  2
51 Surface Hatch
 70
     0
 62
     7
  6
Continuous
370
    35
390
F
  0
LAYER
  5
8C
330
2
100
AcDbSymbolTableRecord
100
AcDbLayerTableRecord
  2
52 Framing Pieces
 70
     0
 62
     7
  6
Continuous
370
    35
390
F
  0
LAYER
  5
8D
330
2
100
AcDbSymbolTableRecord
100
AcDbLayerTableRecord
  2
53 Piece Labels
 70
     0
 62
     7
  6
Continuous
370
    35
390
F
  0
LAYER
  5
8E
330
2
100
AcDbSymbolTableRecord
100
AcDbLayerTableRecord
  2
54 Structural Design Labels
 70
     0
 62
     7
  6
Continuous
370
    35
390
F
  0
LAYER
  5
8F
330
2
100
AcDbSymbolTableRecord
100
AcDbLayerTableRecord
  2
55 Room Labels
 70
     0
 62
     7
  6
Continuous
370
    35
390
F
  0
LAYER
  5
90
330
2
100
AcDbSymbolTableRecord
100
AcDbLayerTableRecord
  2
56 Room Hatch
 70
     0
 62
    -7
  6
Continuous
370
    35
390
F
  0
LAYER
  5
91
330
2
100
AcDbSymbolTableRecord
100
AcDbLayerTableRecord
  2
57 Floor Area
 70
     0
 62
     7
  6
Continuous
370
    35
390
F
  0
LAYER
  5
92
330
2
100
AcDbSymbolTableRecord
100
AcDbLayerTableRecord
  2
58 Total Floor Area
 70
     0
 62
     7
  6
Continuous
370
    35
390
F
  0
LAYER
  5
93
330
2
100
AcDbSymbolTableRecord
100
AcDbLayerTableRecord
  2
59 Component color fill
 70
     0
 62
     7
  6
Continuous
370
    35
390
F
  0
LAYER
  5
94
330
2
100
AcDbSymbolTableRecord
100
AcDbLayerTableRecord
  2
60 Electrical Symbols
 70
     0
 62
     7
  6
Continuous
370
    35
390
F
  0
LAYER
  5
95
330
2
100
AcDbSymbolTableRecord
100
AcDbLayerTableRecord
  2
61 Cables
 70
     0
 62
     7
  6
Continuous
370
    35
390
F
  0
LAYER
  5
96
330
2
100
AcDbSymbolTableRecord
100
AcDbLayerTableRecord
  2
62 Legend
 70
     0
 62
     7
  6
Continuous
370
    35
390
F
  0
LAYER
  5
97
330
2
100
AcDbSymbolTableRecord
100
AcDbLayerTableRecord
  2
63 Text & Dimensions
 70
     0
 62
     7
  6
Continuous
370
    35
390
F
  0
LAYER
  5
98
330
2
100
AcDbSymbolTableRecord
100
AcDbLayerTableRecord
  2
64 Ceiling Lights
 70
     0
 62
     7
  6
Continuous
370
    35
390
F
  0
LAYER
  5
99
330
2
100
AcDbSymbolTableRecord
100
AcDbLayerTableRecord
  2
65 HVAC Symbols
 70
     0
 62
     7
  6
Continuous
370
    35
390
F
  0
LAYER
  5
9A
330
2
100
AcDbSymbolTableRecord
100
AcDbLayerTableRecord
  2
66 Piping
 70
     0
 62
     7
  6
Continuous
370
    35
390
F
  0
LAYER
  5
9B
330
2
100
AcDbSymbolTableRecord
100
AcDbLayerTableRecord
  2
67 Legend
 70
     0
 62
     7
  6
Continuous
370
    35
390
F
  0
LAYER
  5
9C
330
2
100
AcDbSymbolTableRecord
100
AcDbLayerTableRecord
  2
68 Text & Dimensions
 70
     0
 62
     7
  6
Continuous
370
    35
390
F
  0
LAYER
  5
9D
330
2
100
AcDbSymbolTableRecord
100
AcDbLayerTableRecord
  2
69 HVAC fittings and furnitures
 70
     0
 62
     7
  6
Continuous
370
    35
390
F
  0
LAYER
  5
9E
330
2
100
AcDbSymbolTableRecord
100
AcDbLayerTableRecord
  2
70 Plumbing Symbols
 70
     0
 62
     7
  6
Continuous
370
    35
390
F
  0
LAYER
  5
9F
330
2
100
AcDbSymbolTableRecord
100
AcDbLayerTableRecord
  2
71 Piping
 70
     0
 62
     7
  6
Continuous
370
    35
390
F
  0
LAYER
  5
A0
330
2
100
AcDbSymbolTableRecord
100
AcDbLayerTableRecord
  2
72 Legend
 70
     0
 62
     7
  6
Continuous
370
    35
390
F
  0
LAYER
  5
A1
330
2
100
AcDbSymbolTableRecord
100
AcDbLayerTableRecord
  2
73 Text & Dimensions
 70
     0
 62
     7
  6
Continuous
370
    35
390
F
  0
LAYER
  5
A2
330
2
100
AcDbSymbolTableRecord
100
AcDbLayerTableRecord
  2
74 Texts of the Stairs
 70
     0
 62
     7
  6
Continuous
370
    35
390
F
  0
LAYER
  5
A3
330
2
100
AcDbSymbolTableRecord
100
AcDbLayerTableRecord
  2
75 Appliances
 70
     0
 62
     7
  6
Continuous
370
    35
390
F
  0
LAYER
  5
A4
330
2
100
AcDbSymbolTableRecord
100
AcDbLayerTableRecord
  2
76 Cabinets & Vanities
 70
     0
 62
     7
  6
Continuous
370
    35
390
F
  0
LAYER
  5
A5
330
2
100
AcDbSymbolTableRecord
100
AcDbLayerTableRecord
  2
77 Texts
 70
     0
 62
     7
  6
Continuous
370
    35
390
F
  0
LAYER
  5
A6
330
2
100
AcDbSymbolTableRecord
100
AcDbLayerTableRecord
  2
78 Dimensions
 70
     0
 62
     7
  6
Continuous
370
    35
390
F
  0
LAYER
  5
A7
330
2
100
AcDbSymbolTableRecord
100
AcDbLayerTableRecord
  2
79 Hardware
 70
     0
 62
     7
  6
Continuous
370
    35
390
F
  0
LAYER
  5
A8
330
2
100
AcDbSymbolTableRecord
100
AcDbLayerTableRecord
  2
80 Countertop
 70
     0
 62
     7
  6
Continuous
370
    35
390
F
  0
LAYER
  5
A9
330
2
100
AcDbSymbolTableRecord
100
AcDbLayerTableRecord
  2
81 Countertop Hatch
 70
     0
 62
    -7
  6
Continuous
370
    35
390
F
  0
LAYER
  5
AA
330
2
100
AcDbSymbolTableRecord
100
AcDbLayerTableRecord
  2
82 Stairs
 70
     0
 62
     7
  6
Continuous
370
    35
390
F
  0
LAYER
  5
AB
330
2
100
AcDbSymbolTableRecord
100
AcDbLayerTableRecord
  2
83 Railings
 70
     0
 62
     7
  6
Continuous
370
    35
390
F
  0
LAYER
  5
AC
330
2
100
AcDbSymbolTableRecord
100
AcDbLayerTableRecord
  2
84 Fireplaces
 70
     0
 62
     7
  6
Continuous
370
    35
390
F
  0
LAYER
  5
AD
330
2
100
AcDbSymbolTableRecord
100
AcDbLayerTableRecord
  2
85 Bulkheads
 70
     0
 62
     7
  6
Continuous
370
    35
390
F
  0
LAYER
  5
AE
330
2
100
AcDbSymbolTableRecord
100
AcDbLayerTableRecord
  2
86 Closet Shelving
 70
     0
 62
     7
  6
Continuous
370
    35
390
F
  0
LAYER
  5
AF
330
2
100
AcDbSymbolTableRecord
100
AcDbLayerTableRecord
  2
87 Chimneys
 70
     0
 62
     7
  6
Continuous
370
    35
390
F
  0
LAYER
  5
B0
330
2
100
AcDbSymbolTableRecord
100
AcDbLayerTableRecord
  2
88 Additional components_ decorations etc
 70
     0
 62
     7
  6
Continuous
370
    35
390
F
  0
LAYER
  5
B1
330
2
100
AcDbSymbolTableRecord
100
AcDbLayerTableRecord
  2
89 Constr.Det.Macros
 70
     0
 62
     7
  6
Continuous
370
    35
390
F
  0
LAYER
  5
B2
330
2
100
AcDbSymbolTableRecord
100
AcDbLayerTableRecord
  2
90 Section marks
 70
     0
 62
     7
  6
Continuous
370
    35
390
F
  0
LAYER
  5
B3
330
2
100
AcDbSymbolTableRecord
100
AcDbLayerTableRecord
  2
91 Profile Detailing
 70
     0
 62
     7
  6
Continuous
370
    35
390
F
  0
LAYER
  5
B4
330
2
100
AcDbSymbolTableRecord
100
AcDbLayerTableRecord
  2
92 Dimension Constraints
 70
     0
 62
     7
  6
Continuous
370
    35
390
F
  0
LAYER
  5
B5
330
2
100
AcDbSymbolTableRecord
100
AcDbLayerTableRecord
  2
93 Dashing Ground Line
 70
     0
 62
     7
  6
Continuous
370
    35
390
F
  0
LAYER
  5
B6
330
2
100
AcDbSymbolTableRecord
100
AcDbLayerTableRecord
  2
94 Clipping Ground Line
 70
     0
 62
     7
  6
Continuous
370
    35
390
F
  0
LAYER
  5
B7
330
2
100
AcDbSymbolTableRecord
100
AcDbLayerTableRecord
  2
95 Shadows
 70
     0
 62
     7
  6
Continuous
370
    35
390
F
  0
LAYER
  5
B8
330
2
100
AcDbSymbolTableRecord
100
AcDbLayerTableRecord
  2
96 Elev. Color Fill
 70
     0
 62
     7
  6
Continuous
370
    35
390
F
  0
LAYER
  5
B9
330
2
100
AcDbSymbolTableRecord
100
AcDbLayerTableRecord
  2
97 Simplifying lines
 70
     0
 62
     7
  6
Continuous
370
    35
390
F
  0
LAYER
  5
BA
330
2
100
AcDbSymbolTableRecord
100
AcDbLayerTableRecord
  2
98 Floor Area Text
 70
     0
 62
     7
  6
Continuous
370
    35
390
F
  0
LAYER
  5
BB
330
2
100
AcDbSymbolTableRecord
100
AcDbLayerTableRecord
  2
099
 70
     0
 62
    -7
  6
Continuous
370
    35
390
F
  0
LAYER
  5
BC
330
2
100
AcDbSymbolTableRecord
100
AcDbLayerTableRecord
  2
100
 70
     0
 62
    -7
  6
Continuous
370
    35
390
F
  0
LAYER
  5
BD
330
2
100
AcDbSymbolTableRecord
100
AcDbLayerTableRecord
  2
102
 70
     0
 62
    -7
  6
Continuous
370
    35
390
F
  0
LAYER
  5
BE
330
2
100
AcDbSymbolTableRecord
100
AcDbLayerTableRecord
  2
103 Roof Shape Lines
 70
     0
 62
     7
  6
Continuous
370
    35
390
F
  0
LAYER
  5
BF
330
2
100
AcDbSymbolTableRecord
100
AcDbLayerTableRecord
  2
104 Roof Hatch Patterns
 70
     0
 62
     7
  6
Continuous
370
    35
390
F
  0
LAYER
  5
C0
330
2
100
AcDbSymbolTableRecord
100
AcDbLayerTableRecord
  2
105 Framing Pieces
 70
     0
 62
     7
  6
Continuous
370
    35
390
F
  0
LAYER
  5
C1
330
2
100
AcDbSymbolTableRecord
100
AcDbLayerTableRecord
  2
106 Piece Labels
 70
     0
 62
     7
  6
Continuous
370
    35
390
F
  0
LAYER
  5
C2
330
2
100
AcDbSymbolTableRecord
100
AcDbLayerTableRecord
  2
107 Grilles
 70
     0
 62
     7
  6
Continuous
370
    35
390
F
  0
LAYER
  5
C3
330
2
100
AcDbSymbolTableRecord
100
AcDbLayerTableRecord
  2
108 Eave Lines
 70
     0
 62
     7
  6
Continuous
370
    35
390
F
  0
LAYER
  5
C4
330
2
100
AcDbSymbolTableRecord
100
AcDbLayerTableRecord
  2
109 Soffits
 70
     0
 62
     7
  6
Continuous
370
    35
390
F
  0
LAYER
  5
C5
330
2
100
AcDbSymbolTableRecord
100
AcDbLayerTableRecord
  2
110 Window_Door Trim
 70
     0
 62
     7
  6
Continuous
370
    35
390
F
  0
LAYER
  5
C6
330
2
100
AcDbSymbolTableRecord
100
AcDbLayerTableRecord
  2
111 Window Grilles
 70
     0
 62
     7
  6
Continuous
370
    35
390
F
  0
LAYER
  5
C7
330
2
100
AcDbSymbolTableRecord
100
AcDbLayerTableRecord
  2
112 Window Shutters
 70
     0
 62
     7
  6
Continuous
370
    35
390
F
  0
LAYER
  5
C8
330
2
100
AcDbSymbolTableRecord
100
AcDbLayerTableRecord
  2
113 Corner Trim
 70
     0
 62
     7
  6
Continuous
370
    35
390
F
  0
LAYER
  5
C9
330
2
100
AcDbSymbolTableRecord
100
AcDbLayerTableRecord
  2
114 Louver Vents
 70
     0
 62
     7
  6
Continuous
370
    35
390
F
  0
LAYER
  5
CA
330
2
100
AcDbSymbolTableRecord
100
AcDbLayerTableRecord
  2
115 Edge Line of 2D-Based Opening Trim
 70
     0
 62
     7
  6
Continuous
370
    35
390
F
  0
LAYER
  5
CB
330
2
100
AcDbSymbolTableRecord
100
AcDbLayerTableRecord
  2
116 Hole Line of 2D-Based Opening Trim
 70
     0
 62
     7
  6
Continuous
370
    35
390
F
  0
LAYER
  5
CC
330
2
100
AcDbSymbolTableRecord
100
AcDbLayerTableRecord
  2
117 Roof Accessories
 70
     0
 62
     7
  6
Continuous
370
    35
390
F
  0
LAYER
  5
CD
330
2
100
AcDbSymbolTableRecord
100
AcDbLayerTableRecord
  2
118
 70
     0
 62
    -7
  6
Continuous
370
    35
390
F
  0
LAYER
  5
CE
330
2
100
AcDbSymbolTableRecord
100
AcDbLayerTableRecord
  2
119
 70
     0
 62
    -7
  6
Continuous
370
    35
390
F
  0
LAYER
  5
CF
330
2
100
AcDbSymbolTableRecord
100
AcDbLayerTableRecord
  2
120
 70
     0
 62
    -7
  6
Continuous
370
    35
390
F
  0
LAYER
  5
D0
330
2
100
AcDbSymbolTableRecord
100
AcDbLayerTableRecord
  2
121 Beam Pocket Symbols
 70
     0
 62
     7
  6
Continuous
370
    35
390
F
  0
LAYER
  5
D1
330
2
100
AcDbSymbolTableRecord
100
AcDbLayerTableRecord
  2
122 Beam Lines & Labels
 70
     0
 62
     7
  6
Continuous
370
    35
390
F
  0
LAYER
  5
D2
330
2
100
AcDbSymbolTableRecord
100
AcDbLayerTableRecord
  2
123 Column Sym & Labels
 70
     0
 62
     7
  6
Continuous
370
    35
390
F
  0
LAYER
  5
D3
330
2
100
AcDbSymbolTableRecord
100
AcDbLayerTableRecord
  2
124 Beam Center Lines
 70
     0
 62
     7
  6
Continuous
370
    35
390
F
  0
LAYER
  5
D4
330
2
100
AcDbSymbolTableRecord
100
AcDbLayerTableRecord
  2
125 Form Text
 70
     0
 62
     7
  6
Continuous
370
    35
390
F
  0
LAYER
  5
D5
330
2
100
AcDbSymbolTableRecord
100
AcDbLayerTableRecord
  2
126 Form Outer
 70
     0
 62
     7
  6
Continuous
370
    35
390
F
  0
LAYER
  5
D6
330
2
100
AcDbSymbolTableRecord
100
AcDbLayerTableRecord
  2
127 Form Inner
 70
     0
 62
     7
  6
Continuous
370
    35
390
F
  0
LAYER
  5
D7
330
2
100
AcDbSymbolTableRecord
100
AcDbLayerTableRecord
  2
128 Form Name
 70
     0
 62
     7
  6
Continuous
370
    35
390
F
  0
LAYER
  5
D8
330
2
100
AcDbSymbolTableRecord
100
AcDbLayerTableRecord
  2
129
 70
     0
 62
    -7
  6
Continuous
370
    35
390
F
  0
LAYER
  5
D9
330
2
100
AcDbSymbolTableRecord
100
AcDbLayerTableRecord
  2
130
 70
     0
 62
    -7
  6
Continuous
370
    35
390
F
  0
LAYER
  5
DA
330
2
100
AcDbSymbolTableRecord
100
AcDbLayerTableRecord
  2
131 Translation Spanish
 70
     0
 62
    -7
  6
Continuous
370
    35
390
F
  0
LAYER
  5
DB
330
2
100
AcDbSymbolTableRecord
100
AcDbLayerTableRecord
  2
132 Translation French
 70
     0
 62
    -7
  6
Continuous
370
    35
390
F
  0
LAYER
  5
DC
330
2
100
AcDbSymbolTableRecord
100
AcDbLayerTableRecord
  2
133 Translation German
 70
     0
 62
    -7
  6
Continuous
370
    35
390
F
  0
LAYER
  5
DD
330
2
100
AcDbSymbolTableRecord
100
AcDbLayerTableRecord
  2
134 Translation Finnish
 70
     0
 62
    -7
  6
Continuous
370
    35
390
F
  0
LAYER
  5
DE
330
2
100
AcDbSymbolTableRecord
100
AcDbLayerTableRecord
  2
135
 70
     0
 62
    -7
  6
Continuous
370
    35
390
F
  0
LAYER
  5
DF
330
2
100
AcDbSymbolTableRecord
100
AcDbLayerTableRecord
  2
136
 70
     0
 62
    -7
  6
Continuous
370
    35
390
F
  0
LAYER
  5
E0
330
2
100
AcDbSymbolTableRecord
100
AcDbLayerTableRecord
  2
137
 70
     0
 62
    -7
  6
Continuous
370
    35
390
F
  0
LAYER
  5
E1
330
2
100
AcDbSymbolTableRecord
100
AcDbLayerTableRecord
  2
138
 70
     0
 62
    -7
  6
Continuous
370
    35
390
F
  0
LAYER
  5
E2
330
2
100
AcDbSymbolTableRecord
100
AcDbLayerTableRecord
  2
139
 70
     0
 62
    -7
  6
Continuous
370
    35
390
F
  0
LAYER
  5
E3
330
2
100
AcDbSymbolTableRecord
100
AcDbLayerTableRecord
  2
140 Sheet Area Line
 70
     0
 62
     7
  6
Continuous
370
    35
390
F
  0
LAYER
  5
E4
330
2
100
AcDbSymbolTableRecord
100
AcDbLayerTableRecord
  2
141 Sheet Label
 70
     0
 62
     7
  6
Continuous
370
    35
390
F
  0
LAYER
  5
E5
330
2
100
AcDbSymbolTableRecord
100
AcDbLayerTableRecord
  2
142 Sheet Schedule
 70
     0
 62
     7
  6
Continuous
370
    35
390
F
  0
LAYER
  5
E6
330
2
100
AcDbSymbolTableRecord
100
AcDbLayerTableRecord
  2
143
 70
     0
 62
    -7
  6
Continuous
370
    35
390
F
  0
LAYER
  5
E7
330
2
100
AcDbSymbolTableRecord
100
AcDbLayerTableRecord
  2
144
 70
     0
 62
    -7
  6
Continuous
370
    35
390
F
  0
LAYER
  5
E8
330
2
100
AcDbSymbolTableRecord
100
AcDbLayerTableRecord
  2
145
 70
     0
 62
    -7
  6
Continuous
370
    35
390
F
  0
LAYER
  5
E9
330
2
100
AcDbSymbolTableRecord
100
AcDbLayerTableRecord
  2
146
 70
     0
 62
    -7
  6
Continuous
370
    35
390
F
  0
LAYER
  5
EA
330
2
100
AcDbSymbolTableRecord
100
AcDbLayerTableRecord
  2
147
 70
     0
 62
    -7
  6
Continuous
370
    35
390
F
  0
LAYER
  5
EB
330
2
100
AcDbSymbolTableRecord
100
AcDbLayerTableRecord
  2
148
 70
     0
 62
    -7
  6
Continuous
370
    35
390
F
  0
LAYER
  5
EC
330
2
100
AcDbSymbolTableRecord
100
AcDbLayerTableRecord
  2
149
 70
     0
 62
    -7
  6
Continuous
370
    35
390
F
  0
LAYER
  5
ED
330
2
100
AcDbSymbolTableRecord
100
AcDbLayerTableRecord
  2
150 1st Stud Locations
 70
     0
 62
     7
  6
Continuous
370
    35
390
F
  0
LAYER
  5
EE
330
2
100
AcDbSymbolTableRecord
100
AcDbLayerTableRecord
  2
151 Wall Framing Pieces
 70
     0
 62
     7
  6
Continuous
370
    35
390
F
  0
LAYER
  5
EF
330
2
100
AcDbSymbolTableRecord
100
AcDbLayerTableRecord
  2
152 Wall Framing Pieces_Hidden
 70
     0
 62
     7
  6
Continuous
370
    35
390
F
  0
LAYER
  5
F0
330
2
100
AcDbSymbolTableRecord
100
AcDbLayerTableRecord
  2
153 Siding Boards
 70
     0
 62
     7
  6
Continuous
370
    35
390
F
  0
LAYER
  5
F1
330
2
100
AcDbSymbolTableRecord
100
AcDbLayerTableRecord
  2
154 Openings
 70
     0
 62
     7
  6
Continuous
370
    35
390
F
  0
LAYER
  5
F2
330
2
100
AcDbSymbolTableRecord
100
AcDbLayerTableRecord
  2
155 Internal Sheathing
 70
     0
 62
     7
  6
Continuous
370
    35
390
F
  0
LAYER
  5
F3
330
2
100
AcDbSymbolTableRecord
100
AcDbLayerTableRecord
  2
156 External Sheathing
 70
     0
 62
     7
  6
Continuous
370
    35
390
F
  0
LAYER
  5
F4
330
2
100
AcDbSymbolTableRecord
100
AcDbLayerTableRecord
  2
157 Internal Sec. Sheat.
 70
     0
 62
     7
  6
Continuous
370
    35
390
F
  0
LAYER
  5
F5
330
2
100
AcDbSymbolTableRecord
100
AcDbLayerTableRecord
  2
158 External Sec. Sheat.
 70
     0
 62
     7
  6
Continuous
370
    35
390
F
  0
LAYER
  5
F6
330
2
100
AcDbSymbolTableRecord
100
AcDbLayerTableRecord
  2
159 Insulation
 70
     0
 62
     7
  6
Continuous
370
    35
390
F
  0
LAYER
  5
F7
330
2
100
AcDbSymbolTableRecord
100
AcDbLayerTableRecord
  2
160 Loads
 70
     0
 62
     7
  6
Continuous
370
    35
390
F
  0
LAYER
  5
F8
330
2
100
AcDbSymbolTableRecord
100
AcDbLayerTableRecord
  2
161 Loads
 70
     0
 62
     7
  6
Continuous
370
    35
390
F
  0
LAYER
  5
F9
330
2
100
AcDbSymbolTableRecord
100
AcDbLayerTableRecord
  2
162 Dimensions
 70
     0
 62
     7
  6
Continuous
370
    35
390
F
  0
LAYER
  5
FA
330
2
100
AcDbSymbolTableRecord
100
AcDbLayerTableRecord
  2
163 Backer_
 70
     0
 62
     7
  6
Continuous
370
    35
390
F
  0
LAYER
  5
FB
330
2
100
AcDbSymbolTableRecord
100
AcDbLayerTableRecord
  2
164 Panel Elev._Electr.
 70
     0
 62
    -7
  6
Continuous
370
    35
390
F
  0
LAYER
  5
FC
330
2
100
AcDbSymbolTableRecord
100
AcDbLayerTableRecord
  2
165 Panel Elev._Electr.
 70
     0
 62
    -7
  6
Continuous
370
    35
390
F
  0
LAYER
  5
FD
330
2
100
AcDbSymbolTableRecord
100
AcDbLayerTableRecord
  2
166 Panel Elev._Plmbng
 70
     0
 62
    -7
  6
Continuous
370
    35
390
F
  0
LAYER
  5
FE
330
2
100
AcDbSymbolTableRecord
100
AcDbLayerTableRecord
  2
167 Panel Elev._Plmbng
 70
     0
 62
     7
  6
Continuous
370
    35
390
F
  0
LAYER
  5
FF
330
2
100
AcDbSymbolTableRecord
100
AcDbLayerTableRecord
  2
168 Panel Layout_Backer
 70
     0
 62
     7
  6
Continuous
370
    35
390
F
  0
LAYER
  5
100
330
2
100
AcDbSymbolTableRecord
100
AcDbLayerTableRecord
  2
169 Studs_ Bearing Walls
 70
     0
 62
     7
  6
Continuous
370
    35
390
F
  0
LAYER
  5
101
330
2
100
AcDbSymbolTableRecord
100
AcDbLayerTableRecord
  2
170 Elems in Floor Plan
 70
     0
 62
     7
  6
Continuous
370
    35
390
F
  0
LAYER
  5
102
330
2
100
AcDbSymbolTableRecord
100
AcDbLayerTableRecord
  2
171 Check elem geometry
 70
     0
 62
    -7
  6
Continuous
370
    35
390
F
  0
LAYER
  5
103
330
2
100
AcDbSymbolTableRecord
100
AcDbLayerTableRecord
  2
172 Studs_ Non-Brg Walls
 70
     0
 62
     7
  6
Continuous
370
    35
390
F
  0
LAYER
  5
104
330
2
100
AcDbSymbolTableRecord
100
AcDbLayerTableRecord
  2
173 Panel Pce Label in FP
 70
     0
 62
     7
  6
Continuous
370
    35
390
F
  0
LAYER
  5
105
330
2
100
AcDbSymbolTableRecord
100
AcDbLayerTableRecord
  2
174
 70
     0
 62
    -7
  6
Continuous
370
    35
390
F
  0
LAYER
  5
106
330
2
100
AcDbSymbolTableRecord
100
AcDbLayerTableRecord
  2
175 Profile Color Fills
 70
     0
 62
     7
  6
Continuous
370
    35
390
F
  0
LAYER
  5
107
330
2
100
AcDbSymbolTableRecord
100
AcDbLayerTableRecord
  2
176 Pipe Colorfills
 70
     0
 62
     7
  6
Continuous
370
    35
390
F
  0
LAYER
  5
108
330
2
100
AcDbSymbolTableRecord
100
AcDbLayerTableRecord
  2
177 Bottom Plate in Floor Plan
 70
     0
 62
     7
  6
Continuous
370
    35
390
F
  0
LAYER
  5
109
330
2
100
AcDbSymbolTableRecord
100
AcDbLayerTableRecord
  2
178 Top Plate in Floor Plan
 70
     0
 62
     7
  6
Continuous
370
    35
390
F
  0
LAYER
  5
10A
330
2
100
AcDbSymbolTableRecord
100
AcDbLayerTableRecord
  2
179
 70
     0
 62
    -7
  6
Continuous
370
    35
390
F
  0
LAYER
  5
10B
330
2
100
AcDbSymbolTableRecord
100
AcDbLayerTableRecord
  2
180 Int NB Brick Wall
 70
     0
 62
     7
  6
Continuous
370
    35
390
F
  0
LAYER
  5
10C
330
2
100
AcDbSymbolTableRecord
100
AcDbLayerTableRecord
  2
181 Int NB Brick Wall Hatch
 70
     0
 62
     7
  6
Continuous
370
    35
390
F
  0
LAYER
  5
10D
330
2
100
AcDbSymbolTableRecord
100
AcDbLayerTableRecord
  2
182 Int B Brick Wall
 70
     0
 62
     7
  6
Continuous
370
    35
390
F
  0
LAYER
  5
10E
330
2
100
AcDbSymbolTableRecord
100
AcDbLayerTableRecord
  2
183 Int B Brick Wall Hatch
 70
     0
 62
     7
  6
Continuous
370
    35
390
F
  0
LAYER
  5
10F
330
2
100
AcDbSymbolTableRecord
100
AcDbLayerTableRecord
  2
184
 70
     0
 62
    -7
  6
Continuous
370
    35
390
F
  0
LAYER
  5
110
330
2
100
AcDbSymbolTableRecord
100
AcDbLayerTableRecord
  2
185 Int B Wall Rough Frame
 70
     0
 62
     7
  6
Continuous
370
    35
390
F
  0
LAYER
  5
111
330
2
100
AcDbSymbolTableRecord
100
AcDbLayerTableRecord
  2
186 Int B Wall Surfaces
 70
     0
 62
     7
  6
Continuous
370
    35
390
F
  0
LAYER
  5
112
330
2
100
AcDbSymbolTableRecord
100
AcDbLayerTableRecord
  2
187 Int B Wall Other Lines
 70
     0
 62
     7
  6
Continuous
370
    35
390
F
  0
LAYER
  5
113
330
2
100
AcDbSymbolTableRecord
100
AcDbLayerTableRecord
  2
188 Int B Wall Insulation
 70
     0
 62
     7
  6
Continuous
370
    35
390
F
  0
LAYER
  5
114
330
2
100
AcDbSymbolTableRecord
100
AcDbLayerTableRecord
  2
189 Int B Wall Bottom Plat
 70
     0
 62
    -7
  6
Continuous
370
    35
390
F
  0
LAYER
  5
115
330
2
100
AcDbSymbolTableRecord
100
AcDbLayerTableRecord
  2
190 Int B Wall Hatch Patte
 70
     0
 62
     7
  6
Continuous
370
    35
390
F
  0
LAYER
  5
116
330
2
100
AcDbSymbolTableRecord
100
AcDbLayerTableRecord
  2
191 Hot Water Pipes
 70
     0
 62
     7
  6
Continuous
370
    35
390
F
  0
LAYER
  5
117
330
2
100
AcDbSymbolTableRecord
100
AcDbLayerTableRecord
  2
192 Cold Water Pipes
 70
     0
 62
     7
  6
Continuous
370
    35
390
F
  0
LAYER
  5
118
330
2
100
AcDbSymbolTableRecord
100
AcDbLayerTableRecord
  2
193 Waste Water Pipes
 70
     0
 62
     7
  6
Continuous
370
    35
390
F
  0
LAYER
  5
119
330
2
100
AcDbSymbolTableRecord
100
AcDbLayerTableRecord
  2
194 Gas Pipes
 70
     0
 62
     7
  6
Continuous
370
    35
390
F
  0
LAYER
  5
11A
330
2
100
AcDbSymbolTableRecord
100
AcDbLayerTableRecord
  2
195 Int NB Wall Rough Frame
 70
     0
 62
     7
  6
Continuous
370
    35
390
F
  0
LAYER
  5
11B
330
2
100
AcDbSymbolTableRecord
100
AcDbLayerTableRecord
  2
196 Int NB Wall Surfaces
 70
     0
 62
     7
  6
Continuous
370
    35
390
F
  0
LAYER
  5
11C
330
2
100
AcDbSymbolTableRecord
100
AcDbLayerTableRecord
  2
197 Int NB Wall Other Lines
 70
     0
 62
     7
  6
Continuous
370
    35
390
F
  0
LAYER
  5
11D
330
2
100
AcDbSymbolTableRecord
100
AcDbLayerTableRecord
  2
198 Int NB Wall Insulation
 70
     0
 62
     7
  6
Continuous
370
    35
390
F
  0
LAYER
  5
11E
330
2
100
AcDbSymbolTableRecord
100
AcDbLayerTableRecord
  2
199 Int NB Wall Bottom Plat
 70
     0
 62
    -7
  6
Continuous
370
    35
390
F
  0
LAYER
  5
11F
330
2
100
AcDbSymbolTableRecord
100
AcDbLayerTableRecord
  2
200 Int NB Wall Hatch Patte
 70
     0
 62
     7
  6
Continuous
370
    35
390
F
  0
LAYER
  5
120
330
2
100
AcDbSymbolTableRecord
100
AcDbLayerTableRecord
  2
201 Utility hole lines
 70
     0
 62
     7
  6
Continuous
370
    35
390
F
  0
LAYER
  5
121
330
2
100
AcDbSymbolTableRecord
100
AcDbLayerTableRecord
  2
202
 70
     0
 62
    -7
  6
Continuous
370
    35
390
F
  0
LAYER
  5
122
330
2
100
AcDbSymbolTableRecord
100
AcDbLayerTableRecord
  2
203
 70
     0
 62
    -7
  6
Continuous
370
    35
390
F
  0
LAYER
  5
123
330
2
100
AcDbSymbolTableRecord
100
AcDbLayerTableRecord
  2
205
 70
     0
 62
    -7
  6
Continuous
370
    35
390
F
  0
LAYER
  5
124
330
2
100
AcDbSymbolTableRecord
100
AcDbLayerTableRecord
  2
206
 70
     0
 62
    -7
  6
Continuous
370
    35
390
F
  0
LAYER
  5
125
330
2
100
AcDbSymbolTableRecord
100
AcDbLayerTableRecord
  2
207
 70
     0
 62
    -7
  6
Continuous
370
    35
390
F
  0
LAYER
  5
126
330
2
100
AcDbSymbolTableRecord
100
AcDbLayerTableRecord
  2
208
 70
     0
 62
    -7
  6
Continuous
370
    35
390
F
  0
LAYER
  5
127
330
2
100
AcDbSymbolTableRecord
100
AcDbLayerTableRecord
  2
210 Joist Hangers
 70
     0
 62
     7
  6
Continuous
370
    35
390
F
  0
LAYER
  5
128
330
2
100
AcDbSymbolTableRecord
100
AcDbLayerTableRecord
  2
211 Hangers_ Schedule and labels
 70
     0
 62
     7
  6
Continuous
370
    35
390
F
  0
LAYER
  5
129
330
2
100
AcDbSymbolTableRecord
100
AcDbLayerTableRecord
  2
212
 70
     0
 62
    -7
  6
Continuous
370
    35
390
F
  0
LAYER
  5
12A
330
2
100
AcDbSymbolTableRecord
100
AcDbLayerTableRecord
  2
213
 70
     0
 62
    -7
  6
Continuous
370
    35
390
F
  0
LAYER
  5
12B
330
2
100
AcDbSymbolTableRecord
100
AcDbLayerTableRecord
  2
214
 70
     0
 62
    -7
  6
Continuous
370
    35
390
F
  0
LAYER
  5
12C
330
2
100
AcDbSymbolTableRecord
100
AcDbLayerTableRecord
  2
215 Special Opening Detail Labels
 70
     0
 62
     7
  6
Continuous
370
    35
390
F
  0
LAYER
  5
12D
330
2
100
AcDbSymbolTableRecord
100
AcDbLayerTableRecord
  2
216
 70
     0
 62
    -7
  6
Continuous
370
    35
390
F
  0
LAYER
  5
12E
330
2
100
AcDbSymbolTableRecord
100
AcDbLayerTableRecord
  2
217
 70
     0
 62
    -7
  6
Continuous
370
    35
390
F
  0
LAYER
  5
12F
330
2
100
AcDbSymbolTableRecord
100
AcDbLayerTableRecord
  2
218 Construction Line
 70
     0
 62
    -7
  6
Continuous
370
    35
390
F
  0
LAYER
  5
130
330
2
100
AcDbSymbolTableRecord
100
AcDbLayerTableRecord
  2
219 Brochure Wall Fill
 70
     0
 62
    -7
  6
Continuous
370
    35
390
F
  0
LAYER
  5
131
330
2
100
AcDbSymbolTableRecord
100
AcDbLayerTableRecord
  2
220 Framing Detail Symbols
 70
     0
 62
     7
  6
Continuous
370
    35
390
F
  0
LAYER
  5
132
330
2
100
AcDbSymbolTableRecord
100
AcDbLayerTableRecord
  2
221 Hangers
 70
     0
 62
     7
  6
Continuous
370
    35
390
F
  0
LAYER
  5
133
330
2
100
AcDbSymbolTableRecord
100
AcDbLayerTableRecord
  2
222 Connectors
 70
     0
 62
     7
  6
Continuous
370
    35
390
F
  0
LAYER
  5
134
330
2
100
AcDbSymbolTableRecord
100
AcDbLayerTableRecord
  2
223 Fillers_ Stiffeners_ Backers and Blocks
 70
     0
 62
     7
  6
Continuous
370
    35
390
F
  0
LAYER
  5
135
330
2
100
AcDbSymbolTableRecord
100
AcDbLayerTableRecord
  2
224 Engineering Labels
 70
     0
 62
     7
  6
Continuous
370
    35
390
F
  0
LAYER
  5
136
330
2
100
AcDbSymbolTableRecord
100
AcDbLayerTableRecord
  2
225 Custom Layer
 70
     0
 62
    -7
  6
Continuous
370
    35
390
F
  0
LAYER
  5
137
330
2
100
AcDbSymbolTableRecord
100
AcDbLayerTableRecord
  2
226 Custom Layer
 70
     0
 62
    -7
  6
Continuous
370
    35
390
F
  0
LAYER
  5
138
330
2
100
AcDbSymbolTableRecord
100
AcDbLayerTableRecord
  2
227 Custom Layer
 70
     0
 62
    -7
  6
Continuous
370
    35
390
F
  0
LAYER
  5
139
330
2
100
AcDbSymbolTableRecord
100
AcDbLayerTableRecord
  2
228 Custom Layer
 70
     0
 62
    -7
  6
Continuous
370
    35
390
F
  0
LAYER
  5
13A
330
2
100
AcDbSymbolTableRecord
100
AcDbLayerTableRecord
  2
229 Custom Layer
 70
     0
 62
    -7
  6
Continuous
370
    35
390
F
  0
LAYER
  5
13B
330
2
100
AcDbSymbolTableRecord
100
AcDbLayerTableRecord
  2
230 Custom Layer
 70
     0
 62
    -7
  6
Continuous
370
    35
390
F
  0
LAYER
  5
13C
330
2
100
AcDbSymbolTableRecord
100
AcDbLayerTableRecord
  2
231 Custom Layer
 70
     0
 62
    -7
  6
Continuous
370
    35
390
F
  0
LAYER
  5
13D
330
2
100
AcDbSymbolTableRecord
100
AcDbLayerTableRecord
  2
232 Custom Layer
 70
     0
 62
    -7
  6
Continuous
370
    35
390
F
  0
LAYER
  5
13E
330
2
100
AcDbSymbolTableRecord
100
AcDbLayerTableRecord
  2
233 Custom Layer
 70
     0
 62
    -7
  6
Continuous
370
    35
390
F
  0
LAYER
  5
13F
330
2
100
AcDbSymbolTableRecord
100
AcDbLayerTableRecord
  2
234 Custom Layer
 70
     0
 62
    -7
  6
Continuous
370
    35
390
F
  0
LAYER
  5
140
330
2
100
AcDbSymbolTableRecord
100
AcDbLayerTableRecord
  2
235 Custom Layer
 70
     0
 62
    -7
  6
Continuous
370
    35
390
F
  0
LAYER
  5
141
330
2
100
AcDbSymbolTableRecord
100
AcDbLayerTableRecord
  2
236 Custom Layer
 70
     0
 62
    -7
  6
Continuous
370
    35
390
F
  0
LAYER
  5
142
330
2
100
AcDbSymbolTableRecord
100
AcDbLayerTableRecord
  2
237 Custom Layer
 70
     0
 62
    -7
  6
Continuous
370
    35
390
F
  0
LAYER
  5
143
330
2
100
AcDbSymbolTableRecord
100
AcDbLayerTableRecord
  2
238 Custom Layer
 70
     0
 62
    -7
  6
Continuous
370
    35
390
F
  0
LAYER
  5
144
330
2
100
AcDbSymbolTableRecord
100
AcDbLayerTableRecord
  2
239 Custom Layer
 70
     0
 62
    -7
  6
Continuous
370
    35
390
F
  0
LAYER
  5
145
330
2
100
AcDbSymbolTableRecord
100
AcDbLayerTableRecord
  2
240
 70
     0
 62
    -7
  6
Continuous
370
    35
390
F
  0
LAYER
  5
146
330
2
100
AcDbSymbolTableRecord
100
AcDbLayerTableRecord
  2
241
 70
     0
 62
    -7
  6
Continuous
370
    35
390
F
  0
LAYER
  5
147
330
2
100
AcDbSymbolTableRecord
100
AcDbLayerTableRecord
  2
242
 70
     0
 62
    -7
  6
Continuous
370
    35
390
F
  0
LAYER
  5
148
330
2
100
AcDbSymbolTableRecord
100
AcDbLayerTableRecord
  2
243
 70
     0
 62
    -7
  6
Continuous
370
    35
390
F
  0
LAYER
  5
149
330
2
100
AcDbSymbolTableRecord
100
AcDbLayerTableRecord
  2
244
 70
     0
 62
    -7
  6
Continuous
370
    35
390
F
  0
LAYER
  5
14A
330
2
100
AcDbSymbolTableRecord
100
AcDbLayerTableRecord
  2
245 Red Pen Markings
 70
     0
 62
     7
  6
Continuous
370
    35
390
F
  0
LAYER
  5
14B
330
2
100
AcDbSymbolTableRecord
100
AcDbLayerTableRecord
  2
246 Red Pen Markings
 70
     0
 62
     7
  6
Continuous
370
    35
390
F
  0
LAYER
  5
14C
330
2
100
AcDbSymbolTableRecord
100
AcDbLayerTableRecord
  2
247 Red Pen Markings
 70
     0
 62
     7
  6
Continuous
370
    35
390
F
  0
LAYER
  5
14D
330
2
100
AcDbSymbolTableRecord
100
AcDbLayerTableRecord
  2
248 Red Pen Markings
 70
     0
 62
     7
  6
Continuous
370
    35
390
F
  0
LAYER
  5
14E
330
2
100
AcDbSymbolTableRecord
100
AcDbLayerTableRecord
  2
249 Red Pen Markings
 70
     0
 62
     7
  6
Continuous
370
    35
390
F
  0
LAYER
  5
14F
330
2
100
AcDbSymbolTableRecord
100
AcDbLayerTableRecord
  2
250 Red Pen Markings
 70
     0
 62
     7
  6
Continuous
370
    35
390
F
  0
LAYER
  5
150
330
2
100
AcDbSymbolTableRecord
100
AcDbLayerTableRecord
  2
251 Red Pen Markings
 70
     0
 62
     7
  6
Continuous
370
    35
390
F
  0
LAYER
  5
151
330
2
100
AcDbSymbolTableRecord
100
AcDbLayerTableRecord
  2
252 Red Pen Markings
 70
     0
 62
     7
  6
Continuous
370
    35
390
F
  0
LAYER
  5
152
330
2
100
AcDbSymbolTableRecord
100
AcDbLayerTableRecord
  2
253 Red Pen Markings
 70
     0
 62
     7
  6
Continuous
370
    35
390
F
  0
LAYER
  5
153
330
2
100
AcDbSymbolTableRecord
100
AcDbLayerTableRecord
  2
254 Red Pen Markings
 70
     0
 62
     7
  6
Continuous
370
    35
390
F
  0
ENDTAB
  0
TABLE
  2
STYLE
  5
3
330
0
100
AcDbSymbolTable
 70
    11
  0
STYLE
  5
11
330
3
100
AcDbSymbolTableRecord
100
AcDbTextStyleTableRecord
  2
Standard
 70
     0
 40
0.0
 41
1.0
 50
0.0
 71
     0
 42
0.2
  3
txt
  4

  0
STYLE
  5
40
330
3
100
AcDbSymbolTableRecord
100
AcDbTextStyleTableRecord
  2
Arial
 70
     0
 40
0.0
 41
1.0
 50
0.0
 71
     0
 42
0.2
  3
ARIAL.TTF
  4

1001
ACAD
1000
Arial
1071
       34
  0
STYLE
  5
41
330
3
100
AcDbSymbolTableRecord
100
AcDbTextStyleTableRecord
  2
Courier New
 70
     0
 40
0.0
 41
1.0
 50
0.0
 71
     0
 42
0.2
  3
COUR.TTF
  4

1001
ACAD
1000
Courier New
1071
       34
  0
STYLE
  5
42
330
3
100
AcDbSymbolTableRecord
100
AcDbTextStyleTableRecord
  2
Arial Narrow
 70
     0
 40
0.0
 41
1.0
 50
0.0
 71
     0
 42
0.2
  3
ARIALN.TTF
  4

1001
ACAD
1000
Arial Narrow
1071
       34
  0
STYLE
  5
43
330
3
100
AcDbSymbolTableRecord
100
AcDbTextStyleTableRecord
  2
Times New Roman
 70
     0
 40
0.0
 41
1.0
 50
0.0
 71
     0
 42
0.2
  3
TIMES.TTF
  4

1001
ACAD
1000
Times New Roman
1071
       34
  0
STYLE
  5
44
330
3
100
AcDbSymbolTableRecord
100
AcDbTextStyleTableRecord
  2
Impact
 70
     0
 40
0.0
 41
1.0
 50
0.0
 71
     0
 42
0.2
  3
IMPACT.TTF
  4

1001
ACAD
1000
Impact
1071
       34
  0
STYLE
  5
45
330
3
100
AcDbSymbolTableRecord
100
AcDbTextStyleTableRecord
  2
Arial Black
 70
     0
 40
0.0
 41
1.0
 50
0.0
 71
     0
 42
0.2
  3
ARIBLK.TTF
  4

1001
ACAD
1000
Arial Black
1071
       34
  0
STYLE
  5
46
330
3
100
AcDbSymbolTableRecord
100
AcDbTextStyleTableRecord
  2
Symbol
 70
     0
 40
0.0
 41
1.0
 50
0.0
 71
     0
 42
0.2
  3
SYMBOL.TTF
  4

1001
ACAD
1000
Symbol
1071
       34
  0
STYLE
  5
47
330
3
100
AcDbSymbolTableRecord
100
AcDbTextStyleTableRecord
  2
Comic Sans MS
 70
     0
 40
0.0
 41
1.0
 50
0.0
 71
     0
 42
0.2
  3
COMIC.TTF
  4

1001
ACAD
1000
Comic Sans MS
1071
       34
  0
STYLE
  5
48
330
3
100
AcDbSymbolTableRecord
100
AcDbTextStyleTableRecord
  2
Trebuchet MS
 70
     0
 40
0.0
 41
1.0
 50
0.0
 71
     0
 42
0.2
  3
TREBUC.TTF
  4

1001
ACAD
1000
Trebuchet MS
1071
       34
  0
STYLE
  5
52
330
3
100
AcDbSymbolTableRecord
100
AcDbTextStyleTableRecord
  2

 70
     1
 40
0.0
 41
1.0
 50
0.0
 71
     0
 42
22.45
  3
ltypeshp.shx
  4

  0
ENDTAB
  0
TABLE
  2
VIEW
  5
6
330
0
100
AcDbSymbolTable
 70
     0
  0
ENDTAB
  0
TABLE
  2
UCS
  5
7
330
0
100
AcDbSymbolTable
 70
     0
  0
ENDTAB
  0
TABLE
  2
APPID
  5
9
330
0
100
AcDbSymbolTable
 70
     2
  0
APPID
  5
12
330
9
100
AcDbSymbolTableRecord
100
AcDbRegAppTableRecord
  2
ACAD
 70
     0
  0
APPID
  5
3F
330
9
100
AcDbSymbolTableRecord
100
AcDbRegAppTableRecord
  2
Vertex
 70
     0
  0
ENDTAB
  0
TABLE
  2
DIMSTYLE
  5
A
330
0
100
AcDbSymbolTable
 70
     3
100
AcDbDimStyleTable
  0
DIMSTYLE
105
27
330
A
100
AcDbSymbolTableRecord
100
AcDbDimStyleTableRecord
  2
Standard
 70
     0
178
     0
340
11
  0
DIMSTYLE
105
49
330
A
100
AcDbSymbolTableRecord
100
AcDbDimStyleTableRecord
  2
Vertex Style
 70
     0
 41
0.078740157480315
 44
0.0393700787401575
 46
0.0393700787401575
 73
     0
 74
     0
 77
     1
 78
     8
 79
     2
144
25.4
146
0.65
147
0.0669291338582677
172
     1
173
     1
176
   160
177
   160
178
     0
179
     1
271
     1
340
40
343
4A
344
4A
371
    25
372
    25
  0
DIMSTYLE
105
51
330
A
100
AcDbSymbolTableRecord
100
AcDbDimStyleTableRecord
  2
Vertex Style (Inches)
 70
     0
 41
0.078740157480315
 44
0.0393700787401575
 46
0.0393700787401575
 73
     0
 74
     0
 77
     1
 79
     2
146
0.65
147
0.0669291338582677
172
     1
173
     1
176
   160
177
   160
178
     0
179
     1
276
     2
277
     4
340
40
343
4A
344
4A
371
    25
372
    25
  0
ENDTAB
  0
TABLE
  2
BLOCK_RECORD
  5
1
330
0
100
AcDbSymbolTable
 70
    82
  0
BLOCK_RECORD
  5
1F
330
1
100
AcDbSymbolTableRecord
100
AcDbBlockTableRecord
  2
*Model_Space
340
22
  0
BLOCK_RECORD
  5
1B
330
1
100
AcDbSymbolTableRecord
100
AcDbBlockTableRecord
  2
*Paper_Space
340
1E
  0
BLOCK_RECORD
  5
23
330
1
100
AcDbSymbolTableRecord
100
AcDbBlockTableRecord
  2
*Paper_Space0
340
26
  0
BLOCK_RECORD
  5
4A
330
1
100
AcDbSymbolTableRecord
100
AcDbBlockTableRecord
  2
_CLOSED
340
0
  0
BLOCK_RECORD
  5
154
330
1
100
AcDbSymbolTableRecord
100
AcDbBlockTableRecord
  2
HATCH_0_6f987ba7-3a7e-4f82-93e6-b9e50c026efc
340
0
102
{BLKREFS
331
384
102
}
  0
BLOCK_RECORD
  5
158
330
1
100
AcDbSymbolTableRecord
100
AcDbBlockTableRecord
  2
HATCH_1_988cbed1-c23e-4fa9-b4b8-268351eecad5
340
0
102
{BLKREFS
331
385
102
}
  0
BLOCK_RECORD
  5
15D
330
1
100
AcDbSymbolTableRecord
100
AcDbBlockTableRecord
  2
HATCH_2_38229203-6e0d-4869-8798-75830d8d3c92
340
0
102
{BLKREFS
331
386
102
}
  0
BLOCK_RECORD
  5
162
330
1
100
AcDbSymbolTableRecord
100
AcDbBlockTableRecord
  2
HATCH_3_329e22f8-466a-4580-9447-5eef95249266
340
0
102
{BLKREFS
331
387
102
}
  0
BLOCK_RECORD
  5
167
330
1
100
AcDbSymbolTableRecord
100
AcDbBlockTableRecord
  2
HATCH_4_c77fb018-f668-454c-a0df-96a6b1f0cb71
340
0
102
{BLKREFS
331
388
102
}
  0
BLOCK_RECORD
  5
16C
330
1
100
AcDbSymbolTableRecord
100
AcDbBlockTableRecord
  2
HATCH_5_8cfec318-7174-48d4-8431-a9c32bbb7e78
340
0
102
{BLKREFS
331
389
102
}
  0
BLOCK_RECORD
  5
171
330
1
100
AcDbSymbolTableRecord
100
AcDbBlockTableRecord
  2
HATCH_6_5ec45905-f77e-434b-99d9-affbd495df8b
340
0
102
{BLKREFS
331
38A
102
}
  0
BLOCK_RECORD
  5
176
330
1
100
AcDbSymbolTableRecord
100
AcDbBlockTableRecord
  2
HATCH_7_5370f923-a532-4cfb-997a-6741ee463ed3
340
0
102
{BLKREFS
331
38B
102
}
  0
BLOCK_RECORD
  5
17B
330
1
100
AcDbSymbolTableRecord
100
AcDbBlockTableRecord
  2
HATCH_8_47aea538-f59b-4640-a70e-1774f82b4478
340
0
102
{BLKREFS
331
38C
102
}
  0
BLOCK_RECORD
  5
180
330
1
100
AcDbSymbolTableRecord
100
AcDbBlockTableRecord
  2
HATCH_9_a11a2e0c-e45e-4cf7-a29a-09b95e9d96db
340
0
102
{BLKREFS
331
38D
102
}
  0
BLOCK_RECORD
  5
185
330
1
100
AcDbSymbolTableRecord
100
AcDbBlockTableRecord
  2
HATCH_10_61fe3fd5-36ed-463a-8a36-106d841612df
340
0
102
{BLKREFS
331
38E
102
}
  0
BLOCK_RECORD
  5
18A
330
1
100
AcDbSymbolTableRecord
100
AcDbBlockTableRecord
  2
HATCH_11_8f7e2a4e-7116-4e3f-918d-6892b063f67c
340
0
102
{BLKREFS
331
38F
102
}
  0
BLOCK_RECORD
  5
18F
330
1
100
AcDbSymbolTableRecord
100
AcDbBlockTableRecord
  2
HATCH_12_c997b9cc-4c83-47b8-8f60-6ff811229d9b
340
0
102
{BLKREFS
331
390
102
}
  0
BLOCK_RECORD
  5
194
330
1
100
AcDbSymbolTableRecord
100
AcDbBlockTableRecord
  2
HATCH_13_02fdff9a-97ea-44ae-a94b-72df23a2690a
340
0
102
{BLKREFS
331
391
102
}
  0
BLOCK_RECORD
  5
199
330
1
100
AcDbSymbolTableRecord
100
AcDbBlockTableRecord
  2
HATCH_14_6791fefb-463c-4c99-a704-8b4ec675bd26
340
0
102
{BLKREFS
331
392
102
}
  0
BLOCK_RECORD
  5
19E
330
1
100
AcDbSymbolTableRecord
100
AcDbBlockTableRecord
  2
HATCH_15_16b25f0c-899b-4f75-806e-d5de00a81e08
340
0
102
{BLKREFS
331
393
102
}
  0
BLOCK_RECORD
  5
1A3
330
1
100
AcDbSymbolTableRecord
100
AcDbBlockTableRecord
  2
HATCH_16_f6c41b1f-45ff-4aa2-afa8-ad5987a39ee4
340
0
102
{BLKREFS
331
394
102
}
  0
BLOCK_RECORD
  5
1A8
330
1
100
AcDbSymbolTableRecord
100
AcDbBlockTableRecord
  2
HATCH_17_a2c804ae-bb89-4950-996d-1d74926fa225
340
0
102
{BLKREFS
331
395
102
}
  0
BLOCK_RECORD
  5
1AD
330
1
100
AcDbSymbolTableRecord
100
AcDbBlockTableRecord
  2
HATCH_18_250d1eda-28a4-467b-9883-18bcf6279f8b
340
0
102
{BLKREFS
331
396
102
}
  0
BLOCK_RECORD
  5
1B2
330
1
100
AcDbSymbolTableRecord
100
AcDbBlockTableRecord
  2
HATCH_19_6bac7dc0-02c1-458c-af93-91ce0f476787
340
0
102
{BLKREFS
331
397
102
}
  0
BLOCK_RECORD
  5
1B7
330
1
100
AcDbSymbolTableRecord
100
AcDbBlockTableRecord
  2
HATCH_20_b4e708a5-ea45-4a77-8313-16280b734b07
340
0
102
{BLKREFS
331
398
102
}
  0
BLOCK_RECORD
  5
1BC
330
1
100
AcDbSymbolTableRecord
100
AcDbBlockTableRecord
  2
HATCH_21_a23e8668-f4c9-4a0c-bf86-302d00220305
340
0
102
{BLKREFS
331
399
102
}
  0
BLOCK_RECORD
  5
1C1
330
1
100
AcDbSymbolTableRecord
100
AcDbBlockTableRecord
  2
HATCH_22_c405cc4c-f53e-49b6-86ec-43563eb131fe
340
0
102
{BLKREFS
331
39A
102
}
  0
BLOCK_RECORD
  5
1C6
330
1
100
AcDbSymbolTableRecord
100
AcDbBlockTableRecord
  2
HATCH_23_665baf85-f6f5-4595-85ab-da1a4bbec3a6
340
0
102
{BLKREFS
331
39B
102
}
  0
BLOCK_RECORD
  5
1CB
330
1
100
AcDbSymbolTableRecord
100
AcDbBlockTableRecord
  2
HATCH_24_8af4e9cc-3cd7-419e-9a48-04a12c97de44
340
0
102
{BLKREFS
331
39C
102
}
  0
BLOCK_RECORD
  5
1D0
330
1
100
AcDbSymbolTableRecord
100
AcDbBlockTableRecord
  2
HATCH_25_3f47b1d1-1f70-41ad-af49-18056806e4fe
340
0
102
{BLKREFS
331
39D
102
}
  0
BLOCK_RECORD
  5
1D5
330
1
100
AcDbSymbolTableRecord
100
AcDbBlockTableRecord
  2
HATCH_26_55db9555-5569-4bcc-b44a-f0ce3174a0bd
340
0
102
{BLKREFS
331
39E
102
}
  0
BLOCK_RECORD
  5
1D9
330
1
100
AcDbSymbolTableRecord
100
AcDbBlockTableRecord
  2
HATCH_27_4a997817-1f5e-4da0-8927-66b56758836a
340
0
102
{BLKREFS
331
39F
102
}
  0
BLOCK_RECORD
  5
1DD
330
1
100
AcDbSymbolTableRecord
100
AcDbBlockTableRecord
  2
HATCH_28_5ea42ea4-1922-4a72-8c95-411376dfcd01
340
0
102
{BLKREFS
331
3A0
102
}
  0
BLOCK_RECORD
  5
1E1
330
1
100
AcDbSymbolTableRecord
100
AcDbBlockTableRecord
  2
HATCH_29_1e334941-3fe4-4db9-b9b0-edbb89f2d3ed
340
0
102
{BLKREFS
331
3A1
102
}
  0
BLOCK_RECORD
  5
1E5
330
1
100
AcDbSymbolTableRecord
100
AcDbBlockTableRecord
  2
HATCH_30_d2a604a6-115e-4c16-995a-88a56d50be65
340
0
102
{BLKREFS
331
3A2
102
}
  0
BLOCK_RECORD
  5
1E9
330
1
100
AcDbSymbolTableRecord
100
AcDbBlockTableRecord
  2
HATCH_31_1f81442b-f85e-42f2-b688-e8f391cc3a62
340
0
102
{BLKREFS
331
3A3
102
}
  0
BLOCK_RECORD
  5
1ED
330
1
100
AcDbSymbolTableRecord
100
AcDbBlockTableRecord
  2
HATCH_32_b97c0beb-4f70-4dde-bbe3-3dac695e95ec
340
0
102
{BLKREFS
331
3A4
102
}
  0
BLOCK_RECORD
  5
1F1
330
1
100
AcDbSymbolTableRecord
100
AcDbBlockTableRecord
  2
HATCH_33_f3ffca2b-1294-49dd-81e3-b56d1941a781
340
0
102
{BLKREFS
331
3A5
102
}
  0
BLOCK_RECORD
  5
1F5
330
1
100
AcDbSymbolTableRecord
100
AcDbBlockTableRecord
  2
HATCH_34_408b37db-3a23-48ec-b0eb-288645dccf11
340
0
102
{BLKREFS
331
3A6
102
}
  0
BLOCK_RECORD
  5
1F9
330
1
100
AcDbSymbolTableRecord
100
AcDbBlockTableRecord
  2
HATCH_35_bcb8cde5-6b55-4f80-ace8-f6e1af5ea752
340
0
102
{BLKREFS
331
3A7
102
}
  0
BLOCK_RECORD
  5
1FD
330
1
100
AcDbSymbolTableRecord
100
AcDbBlockTableRecord
  2
HATCH_36_3c74768d-5892-471e-87ae-5a341f64de75
340
0
102
{BLKREFS
331
3A8
102
}
  0
BLOCK_RECORD
  5
201
330
1
100
AcDbSymbolTableRecord
100
AcDbBlockTableRecord
  2
HATCH_37_5e31d73f-5558-41b2-8592-bbb1534cd74d
340
0
102
{BLKREFS
331
3A9
102
}
  0
BLOCK_RECORD
  5
205
330
1
100
AcDbSymbolTableRecord
100
AcDbBlockTableRecord
  2
HATCH_38_66c485ab-872d-470a-8f3c-094c17f6688d
340
0
102
{BLKREFS
331
3AA
102
}
  0
BLOCK_RECORD
  5
209
330
1
100
AcDbSymbolTableRecord
100
AcDbBlockTableRecord
  2
HATCH_39_901402b4-af31-4755-921c-7131b668b403
340
0
102
{BLKREFS
331
3AB
102
}
  0
BLOCK_RECORD
  5
20D
330
1
100
AcDbSymbolTableRecord
100
AcDbBlockTableRecord
  2
HATCH_40_d95357ae-f040-427a-bc54-fc8454ba18fe
340
0
102
{BLKREFS
331
3AC
102
}
  0
BLOCK_RECORD
  5
211
330
1
100
AcDbSymbolTableRecord
100
AcDbBlockTableRecord
  2
HATCH_41_32f01af0-085e-415a-b894-28042b2c3bd3
340
0
102
{BLKREFS
331
3AD
102
}
  0
BLOCK_RECORD
  5
215
330
1
100
AcDbSymbolTableRecord
100
AcDbBlockTableRecord
  2
HATCH_42_6456e5f3-2973-4d8b-9f45-3309ca617e20
340
0
102
{BLKREFS
331
3AE
102
}
  0
BLOCK_RECORD
  5
21A
330
1
100
AcDbSymbolTableRecord
100
AcDbBlockTableRecord
  2
HATCH_43_02dd7050-aa5c-4a91-85db-b8a94a71af67
340
0
102
{BLKREFS
331
3AF
102
}
  0
BLOCK_RECORD
  5
21F
330
1
100
AcDbSymbolTableRecord
100
AcDbBlockTableRecord
  2
HATCH_44_fab2168f-cd74-4497-a9b0-d22c1a4dbdf1
340
0
102
{BLKREFS
331
3B0
102
}
  0
BLOCK_RECORD
  5
224
330
1
100
AcDbSymbolTableRecord
100
AcDbBlockTableRecord
  2
HATCH_45_5a4d1de1-85cc-4dac-ac94-09af7ebc2b31
340
0
102
{BLKREFS
331
3B1
102
}
  0
BLOCK_RECORD
  5
229
330
1
100
AcDbSymbolTableRecord
100
AcDbBlockTableRecord
  2
HATCH_46_c4e83b32-1806-4b5a-b0a5-0ddc8db85b46
340
0
102
{BLKREFS
331
3B2
102
}
  0
BLOCK_RECORD
  5
22E
330
1
100
AcDbSymbolTableRecord
100
AcDbBlockTableRecord
  2
HATCH_47_5b99696c-ea53-491e-809f-2223c43bcaf4
340
0
102
{BLKREFS
331
3B3
102
}
  0
BLOCK_RECORD
  5
233
330
1
100
AcDbSymbolTableRecord
100
AcDbBlockTableRecord
  2
HATCH_48_61a6e052-2569-405a-9be4-f0914b461d71
340
0
102
{BLKREFS
331
3B4
102
}
  0
BLOCK_RECORD
  5
238
330
1
100
AcDbSymbolTableRecord
100
AcDbBlockTableRecord
  2
HATCH_49_0521ffcb-2a5a-486f-900d-d333f3878116
340
0
102
{BLKREFS
331
3B5
102
}
  0
BLOCK_RECORD
  5
23D
330
1
100
AcDbSymbolTableRecord
100
AcDbBlockTableRecord
  2
HATCH_50_d2bb9f02-ab06-4df2-8b1c-4f37083add6d
340
0
102
{BLKREFS
331
3B6
102
}
  0
BLOCK_RECORD
  5
242
330
1
100
AcDbSymbolTableRecord
100
AcDbBlockTableRecord
  2
HATCH_51_8871c7e2-cd85-40fa-97f1-456087cb2bff
340
0
102
{BLKREFS
331
3B7
102
}
  0
BLOCK_RECORD
  5
247
330
1
100
AcDbSymbolTableRecord
100
AcDbBlockTableRecord
  2
HATCH_52_fb16b5c3-f61c-4b71-8bfd-75ffb4231af3
340
0
102
{BLKREFS
331
3B8
102
}
  0
BLOCK_RECORD
  5
24C
330
1
100
AcDbSymbolTableRecord
100
AcDbBlockTableRecord
  2
HATCH_53_b6e0069e-c794-45e1-a9fd-d396a5589eb8
340
0
102
{BLKREFS
331
3B9
102
}
  0
BLOCK_RECORD
  5
251
330
1
100
AcDbSymbolTableRecord
100
AcDbBlockTableRecord
  2
HATCH_54_a20b881b-e547-4bb0-bcb7-10d0328f550b
340
0
102
{BLKREFS
331
3BA
102
}
  0
BLOCK_RECORD
  5
256
330
1
100
AcDbSymbolTableRecord
100
AcDbBlockTableRecord
  2
HATCH_55_9f4af671-7ba2-4d09-ab56-e878b6ac71be
340
0
102
{BLKREFS
331
3BB
102
}
  0
BLOCK_RECORD
  5
25B
330
1
100
AcDbSymbolTableRecord
100
AcDbBlockTableRecord
  2
HATCH_56_0ffa48e8-ed7a-4593-a848-61970e4c0430
340
0
102
{BLKREFS
331
3BC
102
}
  0
BLOCK_RECORD
  5
260
330
1
100
AcDbSymbolTableRecord
100
AcDbBlockTableRecord
  2
HATCH_57_90e24b20-862d-4e6a-9618-32b075162ab5
340
0
102
{BLKREFS
331
3BD
102
}
  0
BLOCK_RECORD
  5
265
330
1
100
AcDbSymbolTableRecord
100
AcDbBlockTableRecord
  2
HATCH_58_16caabfc-1e79-4592-9805-b0ccc02fa3c6
340
0
102
{BLKREFS
331
3BE
102
}
  0
BLOCK_RECORD
  5
26A
330
1
100
AcDbSymbolTableRecord
100
AcDbBlockTableRecord
  2
HATCH_59_019543a9-7b3d-488e-9e81-f17a4728b2df
340
0
102
{BLKREFS
331
3BF
102
}
  0
BLOCK_RECORD
  5
26F
330
1
100
AcDbSymbolTableRecord
100
AcDbBlockTableRecord
  2
HATCH_60_e6c4bd1b-c554-4a13-9e3e-b6b36779540b
340
0
102
{BLKREFS
331
3C0
102
}
  0
BLOCK_RECORD
  5
274
330
1
100
AcDbSymbolTableRecord
100
AcDbBlockTableRecord
  2
HATCH_61_60df5378-ba22-4378-b9b1-73c6dbc7db5c
340
0
102
{BLKREFS
331
3C1
102
}
  0
BLOCK_RECORD
  5
279
330
1
100
AcDbSymbolTableRecord
100
AcDbBlockTableRecord
  2
HATCH_62_4d7840eb-4b99-463c-8315-2f522927b86f
340
0
102
{BLKREFS
331
3C2
102
}
  0
BLOCK_RECORD
  5
27E
330
1
100
AcDbSymbolTableRecord
100
AcDbBlockTableRecord
  2
HATCH_63_755bc805-4f1a-4d02-bf82-9e22d040ac50
340
0
102
{BLKREFS
331
3C3
102
}
  0
BLOCK_RECORD
  5
282
330
1
100
AcDbSymbolTableRecord
100
AcDbBlockTableRecord
  2
HATCH_64_7a38beb6-2b1b-4d44-ac3f-e7e1de70ff44
340
0
102
{BLKREFS
331
3C4
102
}
  0
BLOCK_RECORD
  5
286
330
1
100
AcDbSymbolTableRecord
100
AcDbBlockTableRecord
  2
HATCH_65_0ab99dbb-cbe7-4111-be82-fa0289c61483
340
0
102
{BLKREFS
331
3C5
102
}
  0
BLOCK_RECORD
  5
28A
330
1
100
AcDbSymbolTableRecord
100
AcDbBlockTableRecord
  2
HATCH_66_34ee4820-9f37-47e3-95bb-08a28cb80c1c
340
0
102
{BLKREFS
331
3C6
102
}
  0
BLOCK_RECORD
  5
28E
330
1
100
AcDbSymbolTableRecord
100
AcDbBlockTableRecord
  2
HATCH_67_f3a2b66b-734b-4684-a2f4-e77b6383e925
340
0
102
{BLKREFS
331
3C7
102
}
  0
BLOCK_RECORD
  5
292
330
1
100
AcDbSymbolTableRecord
100
AcDbBlockTableRecord
  2
HATCH_68_c572beab-574d-4712-9020-c03a4793b69e
340
0
102
{BLKREFS
331
3C8
102
}
  0
BLOCK_RECORD
  5
296
330
1
100
AcDbSymbolTableRecord
100
AcDbBlockTableRecord
  2
HATCH_69_7f1a2c4a-8e27-4132-b5a5-b43b6f9c243e
340
0
102
{BLKREFS
331
3C9
102
}
  0
BLOCK_RECORD
  5
29A
330
1
100
AcDbSymbolTableRecord
100
AcDbBlockTableRecord
  2
HATCH_70_bf3251ee-9e7b-43f4-896c-0fe13fc0b1d2
340
0
102
{BLKREFS
331
3CA
102
}
  0
BLOCK_RECORD
  5
29E
330
1
100
AcDbSymbolTableRecord
100
AcDbBlockTableRecord
  2
HATCH_71_8c0f9bc8-bbd7-4e03-ad7c-cada63b7fa96
340
0
102
{BLKREFS
331
3CB
102
}
  0
BLOCK_RECORD
  5
2A2
330
1
100
AcDbSymbolTableRecord
100
AcDbBlockTableRecord
  2
HATCH_72_212e213a-2de4-4cbd-ba2a-e356312cfec3
340
0
102
{BLKREFS
331
3CC
102
}
  0
BLOCK_RECORD
  5
2A6
330
1
100
AcDbSymbolTableRecord
100
AcDbBlockTableRecord
  2
HATCH_73_7d8a97c7-a09d-47e0-8e62-0e800b40c641
340
0
102
{BLKREFS
331
3CD
102
}
  0
BLOCK_RECORD
  5
2AA
330
1
100
AcDbSymbolTableRecord
100
AcDbBlockTableRecord
  2
HATCH_74_d284f451-866f-49f3-bef0-69cba2170ae6
340
0
102
{BLKREFS
331
3CE
102
}
  0
BLOCK_RECORD
  5
2AE
330
1
100
AcDbSymbolTableRecord
100
AcDbBlockTableRecord
  2
HATCH_75_814a8fc6-4627-4793-97da-2213179192b8
340
0
102
{BLKREFS
331
3CF
102
}
  0
BLOCK_RECORD
  5
2B2
330
1
100
AcDbSymbolTableRecord
100
AcDbBlockTableRecord
  2
HATCH_76_796c57e2-42ae-42d8-b509-98a1d6899451
340
0
102
{BLKREFS
331
3D0
102
}
  0
BLOCK_RECORD
  5
2B6
330
1
100
AcDbSymbolTableRecord
100
AcDbBlockTableRecord
  2
HATCH_77_e3121ec0-8790-4cd8-ade0-0a301bf732fb
340
0
102
{BLKREFS
331
3D1
102
}
  0
BLOCK_RECORD
  5
2BA
330
1
100
AcDbSymbolTableRecord
100
AcDbBlockTableRecord
  2
HATCH_78_0f44575e-8fce-42d5-acb4-f5c0884f8d18
340
0
102
{BLKREFS
331
3D2
102
}
  0
BLOCK_RECORD
  5
2BE
330
1
100
AcDbSymbolTableRecord
100
AcDbBlockTableRecord
  2
HATCH_79_114e570d-dbb7-498f-8fe9-f13389ee7227
340
0
102
{BLKREFS
331
3D3
102
}
  0
ENDTAB
  0
ENDSEC
  0
SECTION
  2
BLOCKS
  0
BLOCK
  5
20
330
1F
100
AcDbEntity
  8
0
100
AcDbBlockBegin
  2
*Model_Space
 70
     0
 10
0.0
 20
0.0
 30
0.0
  3
*Model_Space
  1

  0
ENDBLK
  5
21
330
1F
100
AcDbEntity
  8
0
100
AcDbBlockEnd
  0
BLOCK
  5
1C
330
1B
100
AcDbEntity
 67
     1
  8
0
100
AcDbBlockBegin
  2
*Paper_Space
 70
     0
 10
0.0
 20
0.0
 30
0.0
  3
*Paper_Space
  1

  0
ENDBLK
  5
1D
330
1B
100
AcDbEntity
 67
     1
  8
0
100
AcDbBlockEnd
  0
BLOCK
  5
24
330
23
100
AcDbEntity
  8
0
100
AcDbBlockBegin
  2
*Paper_Space0
 70
     0
 10
0.0
 20
0.0
 30
0.0
  3
*Paper_Space0
  1

  0
ENDBLK
  5
25
330
23
100
AcDbEntity
  8
0
100
AcDbBlockEnd
  0
BLOCK
  5
4B
330
4A
100
AcDbEntity
  8
0
100
AcDbBlockBegin
  2
_CLOSED
 70
     0
 10
0.0
 20
0.0
 30
0.0
  3
_CLOSED
  1

  0
LINE
  5
4D
330
4A
100
AcDbEntity
  8
0
  6
ByBlock
 62
     0
370
    -2
100
AcDbLine
 10
-1.0
 20
0.166667
 30
0.0
 11
0.0
 21
0.0
 31
0.0
  0
LINE
  5
4E
330
4A
100
AcDbEntity
  8
0
  6
ByBlock
 62
     0
370
    -2
100
AcDbLine
 10
0.0
 20
0.0
 30
0.0
 11
-1.0
 21
-0.166667
 31
0.0
  0
LINE
  5
4F
330
4A
100
AcDbEntity
  8
0
  6
ByBlock
 62
     0
370
    -2
100
AcDbLine
 10
-1.0
 20
0.166667
 30
0.0
 11
-1.0
 21
-0.166667
 31
0.0
  0
LINE
  5
50
330
4A
100
AcDbEntity
  8
0
  6
ByBlock
 62
     0
370
    -2
100
AcDbLine
 10
0.0
 20
0.0
 30
0.0
 11
-1.0
 21
0.0
 31
0.0
  0
ENDBLK
  5
4C
330
4A
100
AcDbEntity
  8
0
100
AcDbBlockEnd
  0
BLOCK
  5
155
330
154
100
AcDbEntity
  8
0
100
AcDbBlockBegin
  2
HATCH_0_6f987ba7-3a7e-4f82-93e6-b9e50c026efc
 70
     0
 10
0.0
 20
0.0
 30
0.0
  3
HATCH_0_6f987ba7-3a7e-4f82-93e6-b9e50c026efc
  1

  0
LINE
  5
157
330
154
100
AcDbEntity
  8
DETAILS
 62
     0
370
     9
100
AcDbLine
 10
27.88655786636455
 20
24.25
 30
0.0
 11
27.88638121263843
 21
24.25
 31
0.0
  0
ENDBLK
  5
156
330
154
100
AcDbEntity
  8
0
100
AcDbBlockEnd
  0
BLOCK
  5
159
330
158
100
AcDbEntity
  8
0
100
AcDbBlockBegin
  2
HATCH_1_988cbed1-c23e-4fa9-b4b8-268351eecad5
 70
     0
 10
0.0
 20
0.0
 30
0.0
  3
HATCH_1_988cbed1-c23e-4fa9-b4b8-268351eecad5
  1

  0
LINE
  5
15B
330
158
100
AcDbEntity
  8
DETAILS
 62
     0
370
     9
100
AcDbLine
 10
27.90094795830726
 20
24.25
 30
0.0
 11
27.88655786636455
 21
24.25
 31
0.0
  0
LINE
  5
15C
330
158
100
AcDbEntity
  8
DETAILS
 62
     0
370
     9
100
AcDbLine
 10
27.92510532096058
 20
24.0
 30
0.0
 11
27.89402844310753
 21
24.0
 31
0.0
  0
ENDBLK
  5
15A
330
158
100
AcDbEntity
  8
0
100
AcDbBlockEnd
  0
BLOCK
  5
15E
330
15D
100
AcDbEntity
  8
0
100
AcDbBlockBegin
  2
HATCH_2_38229203-6e0d-4869-8798-75830d8d3c92
 70
     0
 10
0.0
 20
0.0
 30
0.0
  3
HATCH_2_38229203-6e0d-4869-8798-75830d8d3c92
  1

  0
LINE
  5
160
330
15D
100
AcDbEntity
  8
DETAILS
 62
     0
370
     9
100
AcDbLine
 10
27.9269476745481
 20
24.0
 30
0.0
 11
27.92510532096058
 21
24.0
 31
0.0
  0
LINE
  5
161
330
15D
100
AcDbEntity
  8
DETAILS
 62
     0
370
     9
100
AcDbLine
 10
27.9269476745481
 20
24.25
 30
0.0
 11
27.90094795830726
 21
24.25
 31
0.0
  0
ENDBLK
  5
15F
330
15D
100
AcDbEntity
  8
0
100
AcDbBlockEnd
  0
BLOCK
  5
163
330
162
100
AcDbEntity
  8
0
100
AcDbBlockBegin
  2
HATCH_3_329e22f8-466a-4580-9447-5eef95249266
 70
     0
 10
0.0
 20
0.0
 30
0.0
  3
HATCH_3_329e22f8-466a-4580-9447-5eef95249266
  1

  0
LINE
  5
165
330
162
100
AcDbEntity
  8
DETAILS
 62
     0
370
     9
100
AcDbLine
 10
27.92707904452427
 20
24.25
 30
0.0
 11
27.9269476745481
 21
24.25
 31
0.0
  0
LINE
  5
166
330
162
100
AcDbEntity
  8
DETAILS
 62
     0
370
     9
100
AcDbLine
 10
27.92726975826067
 20
24.0
 30
0.0
 11
27.9269476745481
 21
24.0
 31
0.0
  0
ENDBLK
  5
164
330
162
100
AcDbEntity
  8
0
100
AcDbBlockEnd
  0
BLOCK
  5
168
330
167
100
AcDbEntity
  8
0
100
AcDbBlockBegin
  2
HATCH_4_c77fb018-f668-454c-a0df-96a6b1f0cb71
 70
     0
 10
0.0
 20
0.0
 30
0.0
  3
HATCH_4_c77fb018-f668-454c-a0df-96a6b1f0cb71
  1

  0
LINE
  5
16A
330
167
100
AcDbEntity
  8
DETAILS
 62
     0
370
     9
100
AcDbLine
 10
27.92728439094802
 20
24.0
 30
0.0
 11
27.92726975826067
 21
24.0
 31
0.0
  0
LINE
  5
16B
330
167
100
AcDbEntity
  8
DETAILS
 62
     0
370
     9
100
AcDbLine
 10
27.92728439094802
 20
24.25
 30
0.0
 11
27.92707904452427
 21
24.25
 31
0.0
  0
ENDBLK
  5
169
330
167
100
AcDbEntity
  8
0
100
AcDbBlockEnd
  0
BLOCK
  5
16D
330
16C
100
AcDbEntity
  8
0
100
AcDbBlockBegin
  2
HATCH_5_8cfec318-7174-48d4-8431-a9c32bbb7e78
 70
     0
 10
0.0
 20
0.0
 30
0.0
  3
HATCH_5_8cfec318-7174-48d4-8431-a9c32bbb7e78
  1

  0
LINE
  5
16F
330
16C
100
AcDbEntity
  8
DETAILS
 62
     0
370
     9
100
AcDbLine
 10
27.9440172463215
 20
24.25
 30
0.0
 11
27.92728439094802
 21
24.25
 31
0.0
  0
LINE
  5
170
330
16C
100
AcDbEntity
  8
DETAILS
 62
     0
370
     9
100
AcDbLine
 10
27.96828147956941
 20
24.0
 30
0.0
 11
27.92728439094802
 21
24.0
 31
0.0
  0
ENDBLK
  5
16E
330
16C
100
AcDbEntity
  8
0
100
AcDbBlockEnd
  0
BLOCK
  5
172
330
171
100
AcDbEntity
  8
0
100
AcDbBlockBegin
  2
HATCH_6_5ec45905-f77e-434b-99d9-affbd495df8b
 70
     0
 10
0.0
 20
0.0
 30
0.0
  3
HATCH_6_5ec45905-f77e-434b-99d9-affbd495df8b
  1

  0
LINE
  5
174
330
171
100
AcDbEntity
  8
DETAILS
 62
     0
370
     9
100
AcDbLine
 10
27.97161667313796
 20
24.0
 30
0.0
 11
27.96828147956941
 21
24.0
 31
0.0
  0
LINE
  5
175
330
171
100
AcDbEntity
  8
DETAILS
 62
     0
370
     9
100
AcDbLine
 10
27.97161667313796
 20
24.25
 30
0.0
 11
27.9440172463215
 21
24.25
 31
0.0
  0
ENDBLK
  5
173
330
171
100
AcDbEntity
  8
0
100
AcDbBlockEnd
  0
BLOCK
  5
177
330
176
100
AcDbEntity
  8
0
100
AcDbBlockBegin
  2
HATCH_7_5370f923-a532-4cfb-997a-6741ee463ed3
 70
     0
 10
0.0
 20
0.0
 30
0.0
  3
HATCH_7_5370f923-a532-4cfb-997a-6741ee463ed3
  1

  0
LINE
  5
179
330
176
100
AcDbEntity
  8
DETAILS
 62
     0
370
     9
100
AcDbLine
 10
27.97168028917634
 20
24.25
 30
0.0
 11
27.97161667313796
 21
24.25
 31
0.0
  0
LINE
  5
17A
330
176
100
AcDbEntity
  8
DETAILS
 62
     0
370
     9
100
AcDbLine
 10
27.97176509712554
 20
24.0
 30
0.0
 11
27.97161667313796
 21
24.0
 31
0.0
  0
ENDBLK
  5
178
330
176
100
AcDbEntity
  8
0
100
AcDbBlockEnd
  0
BLOCK
  5
17C
330
17B
100
AcDbEntity
  8
0
100
AcDbBlockBegin
  2
HATCH_8_47aea538-f59b-4640-a70e-1774f82b4478
 70
     0
 10
0.0
 20
0.0
 30
0.0
  3
HATCH_8_47aea538-f59b-4640-a70e-1774f82b4478
  1

  0
LINE
  5
17E
330
17B
100
AcDbEntity
  8
DETAILS
 62
     0
370
     9
100
AcDbLine
 10
27.97177676161028
 20
24.0
 30
0.0
 11
27.97176509712554
 21
24.0
 31
0.0
  0
LINE
  5
17F
330
17B
100
AcDbEntity
  8
DETAILS
 62
     0
370
     9
100
AcDbLine
 10
27.97177676161028
 20
24.25
 30
0.0
 11
27.97168028917634
 21
24.25
 31
0.0
  0
ENDBLK
  5
17D
330
17B
100
AcDbEntity
  8
0
100
AcDbBlockEnd
  0
BLOCK
  5
181
330
180
100
AcDbEntity
  8
0
100
AcDbBlockBegin
  2
HATCH_9_a11a2e0c-e45e-4cf7-a29a-09b95e9d96db
 70
     0
 10
0.0
 20
0.0
 30
0.0
  3
HATCH_9_a11a2e0c-e45e-4cf7-a29a-09b95e9d96db
  1

  0
LINE
  5
183
330
180
100
AcDbEntity
  8
DETAILS
 62
     0
370
     9
100
AcDbLine
 10
27.99004750630023
 20
24.25
 30
0.0
 11
27.97177676161028
 21
24.25
 31
0.0
  0
LINE
  5
184
330
180
100
AcDbEntity
  8
DETAILS
 62
     0
370
     9
100
AcDbLine
 10
28.01439754756656
 20
24.0
 30
0.0
 11
27.97177676161028
 21
24.0
 31
0.0
  0
ENDBLK
  5
182
330
180
100
AcDbEntity
  8
0
100
AcDbBlockEnd
  0
BLOCK
  5
186
330
185
100
AcDbEntity
  8
0
100
AcDbBlockBegin
  2
HATCH_10_61fe3fd5-36ed-463a-8a36-106d841612df
 70
     0
 10
0.0
 20
0.0
 30
0.0
  3
HATCH_10_61fe3fd5-36ed-463a-8a36-106d841612df
  1

  0
LINE
  5
188
330
185
100
AcDbEntity
  8
DETAILS
 62
     0
370
     9
100
AcDbLine
 10
28.01836251325624
 20
24.0
 30
0.0
 11
28.01439754756656
 21
24.0
 31
0.0
  0
LINE
  5
189
330
185
100
AcDbEntity
  8
DETAILS
 62
     0
370
     9
100
AcDbLine
 10
28.01836251325624
 20
24.25
 30
0.0
 11
27.99004750630023
 21
24.25
 31
0.0
  0
ENDBLK
  5
187
330
185
100
AcDbEntity
  8
0
100
AcDbBlockEnd
  0
BLOCK
  5
18B
330
18A
100
AcDbEntity
  8
0
100
AcDbBlockBegin
  2
HATCH_11_8f7e2a4e-7116-4e3f-918d-6892b063f67c
 70
     0
 10
0.0
 20
0.0
 30
0.0
  3
HATCH_11_8f7e2a4e-7116-4e3f-918d-6892b063f67c
  1

  0
LINE
  5
18D
330
18A
100
AcDbEntity
  8
DETAILS
 62
     0
370
     9
100
AcDbLine
 10
28.01837885907028
 20
24.25
 30
0.0
 11
28.01836251325624
 21
24.25
 31
0.0
  0
LINE
  5
18E
330
18A
100
AcDbEntity
  8
DETAILS
 62
     0
370
     9
100
AcDbLine
 10
28.01839993464488
 20
24.0
 30
0.0
 11
28.01836251325624
 21
24.0
 31
0.0
  0
ENDBLK
  5
18C
330
18A
100
AcDbEntity
  8
0
100
AcDbBlockEnd
  0
BLOCK
  5
190
330
18F
100
AcDbEntity
  8
0
100
AcDbBlockBegin
  2
HATCH_12_c997b9cc-4c83-47b8-8f60-6ff811229d9b
 70
     0
 10
0.0
 20
0.0
 30
0.0
  3
HATCH_12_c997b9cc-4c83-47b8-8f60-6ff811229d9b
  1

  0
LINE
  5
192
330
18F
100
AcDbEntity
  8
DETAILS
 62
     0
370
     9
100
AcDbLine
 10
28.0184033668901
 20
24.0
 30
0.0
 11
28.01839993464488
 21
24.0
 31
0.0
  0
LINE
  5
193
330
18F
100
AcDbEntity
  8
DETAILS
 62
     0
370
     9
100
AcDbLine
 10
28.0184033668901
 20
24.25
 30
0.0
 11
28.01837885907028
 21
24.25
 31
0.0
  0
ENDBLK
  5
191
330
18F
100
AcDbEntity
  8
0
100
AcDbBlockEnd
  0
BLOCK
  5
195
330
194
100
AcDbEntity
  8
0
100
AcDbBlockBegin
  2
HATCH_13_02fdff9a-97ea-44ae-a94b-72df23a2690a
 70
     0
 10
0.0
 20
0.0
 30
0.0
  3
HATCH_13_02fdff9a-97ea-44ae-a94b-72df23a2690a
  1

  0
LINE
  5
197
330
194
100
AcDbEntity
  8
DETAILS
 62
     0
370
     9
100
AcDbLine
 10
28.03727298987116
 20
24.25
 30
0.0
 11
28.0184033668901
 21
24.25
 31
0.0
  0
LINE
  5
198
330
194
100
AcDbEntity
  8
DETAILS
 62
     0
370
     9
100
AcDbLine
 10
28.06160295843171
 20
24.0
 30
0.0
 11
28.0184033668901
 21
24.0
 31
0.0
  0
ENDBLK
  5
196
330
194
100
AcDbEntity
  8
0
100
AcDbBlockEnd
  0
BLOCK
  5
19A
330
199
100
AcDbEntity
  8
0
100
AcDbBlockBegin
  2
HATCH_14_6791fefb-463c-4c99-a704-8b4ec675bd26
 70
     0
 10
0.0
 20
0.0
 30
0.0
  3
HATCH_14_6791fefb-463c-4c99-a704-8b4ec675bd26
  1

  0
LINE
  5
19C
330
199
100
AcDbEntity
  8
DETAILS
 62
     0
370
     9
100
AcDbLine
 10
28.06529049074635
 20
24.0
 30
0.0
 11
28.06160295843171
 21
24.0
 31
0.0
  0
LINE
  5
19D
330
199
100
AcDbEntity
  8
DETAILS
 62
     0
370
     9
100
AcDbLine
 10
28.06529049074635
 20
24.25
 30
0.0
 11
28.03727298987116
 21
24.25
 31
0.0
  0
ENDBLK
  5
19B
330
199
100
AcDbEntity
  8
0
100
AcDbBlockEnd
  0
BLOCK
  5
19F
330
19E
100
AcDbEntity
  8
0
100
AcDbBlockBegin
  2
HATCH_15_16b25f0c-899b-4f75-806e-d5de00a81e08
 70
     0
 10
0.0
 20
0.0
 30
0.0
  3
HATCH_15_16b25f0c-899b-4f75-806e-d5de00a81e08
  1

  0
LINE
  5
1A1
330
19E
100
AcDbEntity
  8
DETAILS
 62
     0
370
     9
100
AcDbLine
 10
28.06538753273508
 20
24.25
 30
0.0
 11
28.06529049074635
 21
24.25
 31
0.0
  0
LINE
  5
1A2
330
19E
100
AcDbEntity
  8
DETAILS
 62
     0
370
     9
100
AcDbLine
 10
28.06551448592943
 20
24.0
 30
0.0
 11
28.06529049074635
 21
24.0
 31
0.0
  0
ENDBLK
  5
1A0
330
19E
100
AcDbEntity
  8
0
100
AcDbBlockEnd
  0
BLOCK
  5
1A4
330
1A3
100
AcDbEntity
  8
0
100
AcDbBlockBegin
  2
HATCH_16_f6c41b1f-45ff-4aa2-afa8-ad5987a39ee4
 70
     0
 10
0.0
 20
0.0
 30
0.0
  3
HATCH_16_f6c41b1f-45ff-4aa2-afa8-ad5987a39ee4
  1

  0
LINE
  5
1A6
330
1A3
100
AcDbEntity
  8
DETAILS
 62
     0
370
     9
100
AcDbLine
 10
28.06553371994906
 20
24.0
 30
0.0
 11
28.06551448592943
 21
24.0
 31
0.0
  0
LINE
  5
1A7
330
1A3
100
AcDbEntity
  8
DETAILS
 62
     0
370
     9
100
AcDbLine
 10
28.06553371994906
 20
24.25
 30
0.0
 11
28.06538753273508
 21
24.25
 31
0.0
  0
ENDBLK
  5
1A5
330
1A3
100
AcDbEntity
  8
0
100
AcDbBlockEnd
  0
BLOCK
  5
1A9
330
1A8
100
AcDbEntity
  8
0
100
AcDbBlockBegin
  2
HATCH_17_a2c804ae-bb89-4950-996d-1d74926fa225
 70
     0
 10
0.0
 20
0.0
 30
0.0
  3
HATCH_17_a2c804ae-bb89-4950-996d-1d74926fa225
  1

  0
LINE
  5
1AB
330
1A8
100
AcDbEntity
  8
DETAILS
 62
     0
370
     9
100
AcDbLine
 10
28.08404522427234
 20
24.25
 30
0.0
 11
28.06553371994906
 21
24.25
 31
0.0
  0
LINE
  5
1AC
330
1A8
100
AcDbEntity
  8
DETAILS
 62
     0
370
     9
100
AcDbLine
 10
28.1082705162922
 20
24.0
 30
0.0
 11
28.06553371994906
 21
24.0
 31
0.0
  0
ENDBLK
  5
1AA
330
1A8
100
AcDbEntity
  8
0
100
AcDbBlockEnd
  0
BLOCK
  5
1AE
330
1AD
100
AcDbEntity
  8
0
100
AcDbBlockBegin
  2
HATCH_18_250d1eda-28a4-467b-9883-18bcf6279f8b
 70
     0
 10
0.0
 20
0.0
 30
0.0
  3
HATCH_18_250d1eda-28a4-467b-9883-18bcf6279f8b
  1

  0
LINE
  5
1B0
330
1AD
100
AcDbEntity
  8
DETAILS
 62
     0
370
     9
100
AcDbLine
 10
28.11079667469554
 20
24.0
 30
0.0
 11
28.1082705162922
 21
24.0
 31
0.0
  0
LINE
  5
1B1
330
1AD
100
AcDbEntity
  8
DETAILS
 62
     0
370
     9
100
AcDbLine
 10
28.11079667469554
 20
24.25
 30
0.0
 11
28.08404522427234
 21
24.25
 31
0.0
  0
ENDBLK
  5
1AF
330
1AD
100
AcDbEntity
  8
0
100
AcDbBlockEnd
  0
BLOCK
  5
1B3
330
1B2
100
AcDbEntity
  8
0
100
AcDbBlockBegin
  2
HATCH_19_6bac7dc0-02c1-458c-af93-91ce0f476787
 70
     0
 10
0.0
 20
0.0
 30
0.0
  3
HATCH_19_6bac7dc0-02c1-458c-af93-91ce0f476787
  1

  0
LINE
  5
1B5
330
1B2
100
AcDbEntity
  8
DETAILS
 62
     0
370
     9
100
AcDbLine
 10
28.11096365881672
 20
24.25
 30
0.0
 11
28.11079667469554
 21
24.25
 31
0.0
  0
LINE
  5
1B6
330
1B2
100
AcDbEntity
  8
DETAILS
 62
     0
370
     9
100
AcDbLine
 10
28.11119648967636
 20
24.0
 30
0.0
 11
28.11079667469554
 21
24.0
 31
0.0
  0
ENDBLK
  5
1B4
330
1B2
100
AcDbEntity
  8
0
100
AcDbBlockEnd
  0
BLOCK
  5
1B8
330
1B7
100
AcDbEntity
  8
0
100
AcDbBlockBegin
  2
HATCH_20_b4e708a5-ea45-4a77-8313-16280b734b07
 70
     0
 10
0.0
 20
0.0
 30
0.0
  3
HATCH_20_b4e708a5-ea45-4a77-8313-16280b734b07
  1

  0
LINE
  5
1BA
330
1B7
100
AcDbEntity
  8
DETAILS
 62
     0
370
     9
100
AcDbLine
 10
28.11122066574738
 20
24.0
 30
0.0
 11
28.11119648967636
 21
24.0
 31
0.0
  0
LINE
  5
1BB
330
1B7
100
AcDbEntity
  8
DETAILS
 62
     0
370
     9
100
AcDbLine
 10
28.11122066574738
 20
24.25
 30
0.0
 11
28.11096365881672
 21
24.25
 31
0.0
  0
ENDBLK
  5
1B9
330
1B7
100
AcDbEntity
  8
0
100
AcDbBlockEnd
  0
BLOCK
  5
1BD
330
1BC
100
AcDbEntity
  8
0
100
AcDbBlockBegin
  2
HATCH_21_a23e8668-f4c9-4a0c-bf86-302d00220305
 70
     0
 10
0.0
 20
0.0
 30
0.0
  3
HATCH_21_a23e8668-f4c9-4a0c-bf86-302d00220305
  1

  0
LINE
  5
1BF
330
1BC
100
AcDbEntity
  8
DETAILS
 62
     0
370
     9
100
AcDbLine
 10
28.12850063365929
 20
24.25
 30
0.0
 11
28.11122066574738
 21
24.25
 31
0.0
  0
LINE
  5
1C0
330
1BC
100
AcDbEntity
  8
DETAILS
 62
     0
370
     9
100
AcDbLine
 10
28.1526220067713
 20
24.0
 30
0.0
 11
28.11122066574738
 21
24.0
 31
0.0
  0
ENDBLK
  5
1BE
330
1BC
100
AcDbEntity
  8
0
100
AcDbBlockEnd
  0
BLOCK
  5
1C2
330
1C1
100
AcDbEntity
  8
0
100
AcDbBlockBegin
  2
HATCH_22_c405cc4c-f53e-49b6-86ec-43563eb131fe
 70
     0
 10
0.0
 20
0.0
 30
0.0
  3
HATCH_22_c405cc4c-f53e-49b6-86ec-43563eb131fe
  1

  0
LINE
  5
1C4
330
1C1
100
AcDbEntity
  8
DETAILS
 62
     0
370
     9
100
AcDbLine
 10
28.15317049083832
 20
24.0
 30
0.0
 11
28.1526220067713
 21
24.0
 31
0.0
  0
LINE
  5
1C5
330
1C1
100
AcDbEntity
  8
DETAILS
 62
     0
370
     9
100
AcDbLine
 10
28.15317049083832
 20
24.25
 30
0.0
 11
28.12850063365929
 21
24.25
 31
0.0
  0
ENDBLK
  5
1C3
330
1C1
100
AcDbEntity
  8
0
100
AcDbBlockEnd
  0
BLOCK
  5
1C7
330
1C6
100
AcDbEntity
  8
0
100
AcDbBlockBegin
  2
HATCH_23_665baf85-f6f5-4595-85ab-da1a4bbec3a6
 70
     0
 10
0.0
 20
0.0
 30
0.0
  3
HATCH_23_665baf85-f6f5-4595-85ab-da1a4bbec3a6
  1

  0
LINE
  5
1C9
330
1C6
100
AcDbEntity
  8
DETAILS
 62
     0
370
     9
100
AcDbLine
 10
28.15338582540061
 20
24.25
 30
0.0
 11
28.15317049083832
 21
24.25
 31
0.0
  0
LINE
  5
1CA
330
1C6
100
AcDbEntity
  8
DETAILS
 62
     0
370
     9
100
AcDbLine
 10
28.15372453400907
 20
24.0
 30
0.0
 11
28.15317049083832
 21
24.0
 31
0.0
  0
ENDBLK
  5
1C8
330
1C6
100
AcDbEntity
  8
0
100
AcDbBlockEnd
  0
BLOCK
  5
1CC
330
1CB
100
AcDbEntity
  8
0
100
AcDbBlockBegin
  2
HATCH_24_8af4e9cc-3cd7-419e-9a48-04a12c97de44
 70
     0
 10
0.0
 20
0.0
 30
0.0
  3
HATCH_24_8af4e9cc-3cd7-419e-9a48-04a12c97de44
  1

  0
LINE
  5
1CE
330
1CB
100
AcDbEntity
  8
DETAILS
 62
     0
370
     9
100
AcDbLine
 10
28.15373186815543
 20
24.0
 30
0.0
 11
28.15372453400907
 21
24.0
 31
0.0
  0
LINE
  5
1CF
330
1CB
100
AcDbEntity
  8
DETAILS
 62
     0
370
     9
100
AcDbLine
 10
28.15373186815543
 20
24.25
 30
0.0
 11
28.15338582540061
 21
24.25
 31
0.0
  0
ENDBLK
  5
1CD
330
1CB
100
AcDbEntity
  8
0
100
AcDbBlockEnd
  0
BLOCK
  5
1D1
330
1D0
100
AcDbEntity
  8
0
100
AcDbBlockBegin
  2
HATCH_25_3f47b1d1-1f70-41ad-af49-18056806e4fe
 70
     0
 10
0.0
 20
0.0
 30
0.0
  3
HATCH_25_3f47b1d1-1f70-41ad-af49-18056806e4fe
  1

  0
LINE
  5
1D3
330
1D0
100
AcDbEntity
  8
DETAILS
 62
     0
370
     9
100
AcDbLine
 10
28.1609236995296
 20
24.0
 30
0.0
 11
28.15373186815543
 21
24.0
 31
0.0
  0
LINE
  5
1D4
330
1D0
100
AcDbEntity
  8
DETAILS
 62
     0
370
     9
100
AcDbLine
 10
28.16896181640891
 20
24.25
 30
0.0
 11
28.15373186815543
 21
24.25
 31
0.0
  0
ENDBLK
  5
1D2
330
1D0
100
AcDbEntity
  8
0
100
AcDbBlockEnd
  0
BLOCK
  5
1D6
330
1D5
100
AcDbEntity
  8
0
100
AcDbBlockBegin
  2
HATCH_26_55db9555-5569-4bcc-b44a-f0ce3174a0bd
 70
     0
 10
0.0
 20
0.0
 30
0.0
  3
HATCH_26_55db9555-5569-4bcc-b44a-f0ce3174a0bd
  1

  0
LINE
  5
1D8
330
1D5
100
AcDbEntity
  8
DETAILS
 62
     0
370
     9
100
AcDbLine
 10
28.19081911039551
 20
24.25
 30
0.0
 11
28.16896181640891
 21
24.25
 31
0.0
  0
ENDBLK
  5
1D7
330
1D5
100
AcDbEntity
  8
0
100
AcDbBlockEnd
  0
BLOCK
  5
1DA
330
1D9
100
AcDbEntity
  8
0
100
AcDbBlockBegin
  2
HATCH_27_4a997817-1f5e-4da0-8927-66b56758836a
 70
     0
 10
0.0
 20
0.0
 30
0.0
  3
HATCH_27_4a997817-1f5e-4da0-8927-66b56758836a
  1

  0
LINE
  5
1DC
330
1D9
100
AcDbEntity
  8
DETAILS
 62
     0
370
     9
100
AcDbLine
 10
28.19105168964403
 20
24.25
 30
0.0
 11
28.19081911039551
 21
24.25
 31
0.0
  0
ENDBLK
  5
1DB
330
1D9
100
AcDbEntity
  8
0
100
AcDbBlockEnd
  0
BLOCK
  5
1DE
330
1DD
100
AcDbEntity
  8
0
100
AcDbBlockBegin
  2
HATCH_28_5ea42ea4-1922-4a72-8c95-411376dfcd01
 70
     0
 10
0.0
 20
0.0
 30
0.0
  3
HATCH_28_5ea42ea4-1922-4a72-8c95-411376dfcd01
  1

  0
LINE
  5
1E0
330
1DD
100
AcDbEntity
  8
DETAILS
 62
     0
370
     9
100
AcDbLine
 10
28.19145540738827
 20
24.25
 30
0.0
 11
28.19105168964403
 21
24.25
 31
0.0
  0
ENDBLK
  5
1DF
330
1DD
100
AcDbEntity
  8
0
100
AcDbBlockEnd
  0
BLOCK
  5
1E2
330
1E1
100
AcDbEntity
  8
0
100
AcDbBlockBegin
  2
HATCH_29_1e334941-3fe4-4db9-b9b0-edbb89f2d3ed
 70
     0
 10
0.0
 20
0.0
 30
0.0
  3
HATCH_29_1e334941-3fe4-4db9-b9b0-edbb89f2d3ed
  1

  0
LINE
  5
1E4
330
1E1
100
AcDbEntity
  8
DETAILS
 62
     0
370
     9
100
AcDbLine
 10
28.20390217081406
 20
24.25
 30
0.0
 11
28.19145540738827
 21
24.25
 31
0.0
  0
ENDBLK
  5
1E3
330
1E1
100
AcDbEntity
  8
0
100
AcDbBlockEnd
  0
BLOCK
  5
1E6
330
1E5
100
AcDbEntity
  8
0
100
AcDbBlockBegin
  2
HATCH_30_d2a604a6-115e-4c16-995a-88a56d50be65
 70
     0
 10
0.0
 20
0.0
 30
0.0
  3
HATCH_30_d2a604a6-115e-4c16-995a-88a56d50be65
  1

  0
LINE
  5
1E8
330
1E5
100
AcDbEntity
  8
DETAILS
 62
     0
370
     9
100
AcDbLine
 10
28.22232732439643
 20
24.25
 30
0.0
 11
28.20390217081406
 21
24.25
 31
0.0
  0
ENDBLK
  5
1E7
330
1E5
100
AcDbEntity
  8
0
100
AcDbBlockEnd
  0
BLOCK
  5
1EA
330
1E9
100
AcDbEntity
  8
0
100
AcDbBlockBegin
  2
HATCH_31_1f81442b-f85e-42f2-b688-e8f391cc3a62
 70
     0
 10
0.0
 20
0.0
 30
0.0
  3
HATCH_31_1f81442b-f85e-42f2-b688-e8f391cc3a62
  1

  0
LINE
  5
1EC
330
1E9
100
AcDbEntity
  8
DETAILS
 62
     0
370
     9
100
AcDbLine
 10
28.22253847006716
 20
24.25
 30
0.0
 11
28.22232732439643
 21
24.25
 31
0.0
  0
ENDBLK
  5
1EB
330
1E9
100
AcDbEntity
  8
0
100
AcDbBlockEnd
  0
BLOCK
  5
1EE
330
1ED
100
AcDbEntity
  8
0
100
AcDbBlockBegin
  2
HATCH_32_b97c0beb-4f70-4dde-bbe3-3dac695e95ec
 70
     0
 10
0.0
 20
0.0
 30
0.0
  3
HATCH_32_b97c0beb-4f70-4dde-bbe3-3dac695e95ec
  1

  0
LINE
  5
1F0
330
1ED
100
AcDbEntity
  8
DETAILS
 62
     0
370
     9
100
AcDbLine
 10
28.22296090002219
 20
24.25
 30
0.0
 11
28.22253847006716
 21
24.25
 31
0.0
  0
ENDBLK
  5
1EF
330
1ED
100
AcDbEntity
  8
0
100
AcDbBlockEnd
  0
BLOCK
  5
1F2
330
1F1
100
AcDbEntity
  8
0
100
AcDbBlockBegin
  2
HATCH_33_f3ffca2b-1294-49dd-81e3-b56d1941a781
 70
     0
 10
0.0
 20
0.0
 30
0.0
  3
HATCH_33_f3ffca2b-1294-49dd-81e3-b56d1941a781
  1

  0
LINE
  5
1F4
330
1F1
100
AcDbEntity
  8
DETAILS
 62
     0
370
     9
100
AcDbLine
 10
28.2320031434685
 20
24.25
 30
0.0
 11
28.22296090002219
 21
24.25
 31
0.0
  0
ENDBLK
  5
1F3
330
1F1
100
AcDbEntity
  8
0
100
AcDbBlockEnd
  0
BLOCK
  5
1F6
330
1F5
100
AcDbEntity
  8
0
100
AcDbBlockBegin
  2
HATCH_34_408b37db-3a23-48ec-b0eb-288645dccf11
 70
     0
 10
0.0
 20
0.0
 30
0.0
  3
HATCH_34_408b37db-3a23-48ec-b0eb-288645dccf11
  1

  0
LINE
  5
1F8
330
1F5
100
AcDbEntity
  8
DETAILS
 62
     0
370
     9
100
AcDbLine
 10
28.24651074128495
 20
24.25
 30
0.0
 11
28.2320031434685
 21
24.25
 31
0.0
  0
ENDBLK
  5
1F7
330
1F5
100
AcDbEntity
  8
0
100
AcDbBlockEnd
  0
BLOCK
  5
1FA
330
1F9
100
AcDbEntity
  8
0
100
AcDbBlockBegin
  2
HATCH_35_bcb8cde5-6b55-4f80-ace8-f6e1af5ea752
 70
     0
 10
0.0
 20
0.0
 30
0.0
  3
HATCH_35_bcb8cde5-6b55-4f80-ace8-f6e1af5ea752
  1

  0
LINE
  5
1FC
330
1F9
100
AcDbEntity
  8
DETAILS
 62
     0
370
     9
100
AcDbLine
 10
28.24665666011694
 20
24.25
 30
0.0
 11
28.24651074128495
 21
24.25
 31
0.0
  0
ENDBLK
  5
1FB
330
1F9
100
AcDbEntity
  8
0
100
AcDbBlockEnd
  0
BLOCK
  5
1FE
330
1FD
100
AcDbEntity
  8
0
100
AcDbBlockBegin
  2
HATCH_36_3c74768d-5892-471e-87ae-5a341f64de75
 70
     0
 10
0.0
 20
0.0
 30
0.0
  3
HATCH_36_3c74768d-5892-471e-87ae-5a341f64de75
  1

  0
LINE
  5
200
330
1FD
100
AcDbEntity
  8
DETAILS
 62
     0
370
     9
100
AcDbLine
 10
28.24705373560079
 20
24.25
 30
0.0
 11
28.24665666011694
 21
24.25
 31
0.0
  0
ENDBLK
  5
1FF
330
1FD
100
AcDbEntity
  8
0
100
AcDbBlockEnd
  0
BLOCK
  5
202
330
201
100
AcDbEntity
  8
0
100
AcDbBlockBegin
  2
HATCH_37_5e31d73f-5558-41b2-8592-bbb1534cd74d
 70
     0
 10
0.0
 20
0.0
 30
0.0
  3
HATCH_37_5e31d73f-5558-41b2-8592-bbb1534cd74d
  1

  0
LINE
  5
204
330
201
100
AcDbEntity
  8
DETAILS
 62
     0
370
     9
100
AcDbLine
 10
28.25220173214506
 20
24.25
 30
0.0
 11
28.24705373560079
 21
24.25
 31
0.0
  0
ENDBLK
  5
203
330
201
100
AcDbEntity
  8
0
100
AcDbBlockEnd
  0
BLOCK
  5
206
330
205
100
AcDbEntity
  8
0
100
AcDbBlockBegin
  2
HATCH_38_66c485ab-872d-470a-8f3c-094c17f6688d
 70
     0
 10
0.0
 20
0.0
 30
0.0
  3
HATCH_38_66c485ab-872d-470a-8f3c-094c17f6688d
  1

  0
LINE
  5
208
330
205
100
AcDbEntity
  8
DETAILS
 62
     0
370
     9
100
AcDbLine
 10
28.26246030811504
 20
24.25
 30
0.0
 11
28.25220173214506
 21
24.25
 31
0.0
  0
ENDBLK
  5
207
330
205
100
AcDbEntity
  8
0
100
AcDbBlockEnd
  0
BLOCK
  5
20A
330
209
100
AcDbEntity
  8
0
100
AcDbBlockBegin
  2
HATCH_39_901402b4-af31-4755-921c-7131b668b403
 70
     0
 10
0.0
 20
0.0
 30
0.0
  3
HATCH_39_901402b4-af31-4755-921c-7131b668b403
  1

  0
LINE
  5
20C
330
209
100
AcDbEntity
  8
DETAILS
 62
     0
370
     9
100
AcDbLine
 10
28.26249493522023
 20
24.25
 30
0.0
 11
28.26246030811504
 21
24.25
 31
0.0
  0
ENDBLK
  5
20B
330
209
100
AcDbEntity
  8
0
100
AcDbBlockEnd
  0
BLOCK
  5
20E
330
20D
100
AcDbEntity
  8
0
100
AcDbBlockBegin
  2
HATCH_40_d95357ae-f040-427a-bc54-fc8454ba18fe
 70
     0
 10
0.0
 20
0.0
 30
0.0
  3
HATCH_40_d95357ae-f040-427a-bc54-fc8454ba18fe
  1

  0
LINE
  5
210
330
20D
100
AcDbEntity
  8
DETAILS
 62
     0
370
     9
100
AcDbLine
 10
27.59904564912005
 20
25.5
 30
0.0
 11
27.59876204742262
 21
25.5
 31
0.0
  0
ENDBLK
  5
20F
330
20D
100
AcDbEntity
  8
0
100
AcDbBlockEnd
  0
BLOCK
  5
212
330
211
100
AcDbEntity
  8
0
100
AcDbBlockBegin
  2
HATCH_41_32f01af0-085e-415a-b894-28042b2c3bd3
 70
     0
 10
0.0
 20
0.0
 30
0.0
  3
HATCH_41_32f01af0-085e-415a-b894-28042b2c3bd3
  1

  0
LINE
  5
214
330
211
100
AcDbEntity
  8
DETAILS
 62
     0
370
     9
100
AcDbLine
 10
27.62214764980235
 20
25.5
 30
0.0
 11
27.59904564912005
 21
25.5
 31
0.0
  0
ENDBLK
  5
213
330
211
100
AcDbEntity
  8
0
100
AcDbBlockEnd
  0
BLOCK
  5
216
330
215
100
AcDbEntity
  8
0
100
AcDbBlockBegin
  2
HATCH_42_6456e5f3-2973-4d8b-9f45-3309ca617e20
 70
     0
 10
0.0
 20
0.0
 30
0.0
  3
HATCH_42_6456e5f3-2973-4d8b-9f45-3309ca617e20
  1

  0
LINE
  5
218
330
215
100
AcDbEntity
  8
DETAILS
 62
     0
370
     9
100
AcDbLine
 10
27.63943545730362
 20
25.5
 30
0.0
 11
27.62214764980235
 21
25.5
 31
0.0
  0
LINE
  5
219
330
215
100
AcDbEntity
  8
DETAILS
 62
     0
370
     9
100
AcDbLine
 10
27.63943545730362
 20
25.75
 30
0.0
 11
27.6179879167114
 21
25.75
 31
0.0
  0
ENDBLK
  5
217
330
215
100
AcDbEntity
  8
0
100
AcDbBlockEnd
  0
BLOCK
  5
21B
330
21A
100
AcDbEntity
  8
0
100
AcDbBlockBegin
  2
HATCH_43_02dd7050-aa5c-4a91-85db-b8a94a71af67
 70
     0
 10
0.0
 20
0.0
 30
0.0
  3
HATCH_43_02dd7050-aa5c-4a91-85db-b8a94a71af67
  1

  0
LINE
  5
21D
330
21A
100
AcDbEntity
  8
DETAILS
 62
     0
370
     9
100
AcDbLine
 10
27.63944489094641
 20
25.75
 30
0.0
 11
27.63943545730362
 21
25.75
 31
0.0
  0
LINE
  5
21E
330
21A
100
AcDbEntity
  8
DETAILS
 62
     0
370
     9
100
AcDbLine
 10
27.63963560468279
 20
25.5
 30
0.0
 11
27.63943545730362
 21
25.5
 31
0.0
  0
ENDBLK
  5
21C
330
21A
100
AcDbEntity
  8
0
100
AcDbBlockEnd
  0
BLOCK
  5
220
330
21F
100
AcDbEntity
  8
0
100
AcDbBlockBegin
  2
HATCH_44_fab2168f-cd74-4497-a9b0-d22c1a4dbdf1
 70
     0
 10
0.0
 20
0.0
 30
0.0
  3
HATCH_44_fab2168f-cd74-4497-a9b0-d22c1a4dbdf1
  1

  0
LINE
  5
222
330
21F
100
AcDbEntity
  8
DETAILS
 62
     0
370
     9
100
AcDbLine
 10
27.63977217370352
 20
25.5
 30
0.0
 11
27.63963560468279
 21
25.5
 31
0.0
  0
LINE
  5
223
330
21F
100
AcDbEntity
  8
DETAILS
 62
     0
370
     9
100
AcDbLine
 10
27.63977217370352
 20
25.75
 30
0.0
 11
27.63944489094641
 21
25.75
 31
0.0
  0
ENDBLK
  5
221
330
21F
100
AcDbEntity
  8
0
100
AcDbBlockEnd
  0
BLOCK
  5
225
330
224
100
AcDbEntity
  8
0
100
AcDbBlockBegin
  2
HATCH_45_5a4d1de1-85cc-4dac-ac94-09af7ebc2b31
 70
     0
 10
0.0
 20
0.0
 30
0.0
  3
HATCH_45_5a4d1de1-85cc-4dac-ac94-09af7ebc2b31
  1

  0
LINE
  5
227
330
224
100
AcDbEntity
  8
DETAILS
 62
     0
370
     9
100
AcDbLine
 10
27.64099124548394
 20
25.75
 30
0.0
 11
27.63977217370352
 21
25.75
 31
0.0
  0
LINE
  5
228
330
224
100
AcDbEntity
  8
DETAILS
 62
     0
370
     9
100
AcDbLine
 10
27.66525547873186
 20
25.5
 30
0.0
 11
27.63977217370352
 21
25.5
 31
0.0
  0
ENDBLK
  5
226
330
224
100
AcDbEntity
  8
0
100
AcDbBlockEnd
  0
BLOCK
  5
22A
330
229
100
AcDbEntity
  8
0
100
AcDbBlockBegin
  2
HATCH_46_c4e83b32-1806-4b5a-b0a5-0ddc8db85b46
 70
     0
 10
0.0
 20
0.0
 30
0.0
  3
HATCH_46_c4e83b32-1806-4b5a-b0a5-0ddc8db85b46
  1

  0
LINE
  5
22C
330
229
100
AcDbEntity
  8
DETAILS
 62
     0
370
     9
100
AcDbLine
 10
27.68410445589349
 20
25.5
 30
0.0
 11
27.66525547873186
 21
25.5
 31
0.0
  0
LINE
  5
22D
330
229
100
AcDbEntity
  8
DETAILS
 62
     0
370
     9
100
AcDbLine
 10
27.68410445589349
 20
25.75
 30
0.0
 11
27.64099124548394
 21
25.75
 31
0.0
  0
ENDBLK
  5
22B
330
229
100
AcDbEntity
  8
0
100
AcDbBlockEnd
  0
BLOCK
  5
22F
330
22E
100
AcDbEntity
  8
0
100
AcDbBlockBegin
  2
HATCH_47_5b99696c-ea53-491e-809f-2223c43bcaf4
 70
     0
 10
0.0
 20
0.0
 30
0.0
  3
HATCH_47_5b99696c-ea53-491e-809f-2223c43bcaf4
  1

  0
LINE
  5
231
330
22E
100
AcDbEntity
  8
DETAILS
 62
     0
370
     9
100
AcDbLine
 10
27.68411384841048
 20
25.75
 30
0.0
 11
27.68410445589349
 21
25.75
 31
0.0
  0
LINE
  5
232
330
22E
100
AcDbEntity
  8
DETAILS
 62
     0
370
     9
100
AcDbLine
 10
27.68419865635965
 20
25.5
 30
0.0
 11
27.68410445589349
 21
25.5
 31
0.0
  0
ENDBLK
  5
230
330
22E
100
AcDbEntity
  8
0
100
AcDbBlockEnd
  0
BLOCK
  5
234
330
233
100
AcDbEntity
  8
0
100
AcDbBlockBegin
  2
HATCH_48_61a6e052-2569-405a-9be4-f0914b461d71
 70
     0
 10
0.0
 20
0.0
 30
0.0
  3
HATCH_48_61a6e052-2569-405a-9be4-f0914b461d71
  1

  0
LINE
  5
236
330
233
100
AcDbEntity
  8
DETAILS
 62
     0
370
     9
100
AcDbLine
 10
27.68426454436579
 20
25.5
 30
0.0
 11
27.68419865635965
 21
25.5
 31
0.0
  0
LINE
  5
237
330
233
100
AcDbEntity
  8
DETAILS
 62
     0
370
     9
100
AcDbLine
 10
27.68426454436579
 20
25.75
 30
0.0
 11
27.68411384841048
 21
25.75
 31
0.0
  0
ENDBLK
  5
235
330
233
100
AcDbEntity
  8
0
100
AcDbBlockEnd
  0
BLOCK
  5
239
330
238
100
AcDbEntity
  8
0
100
AcDbBlockBegin
  2
HATCH_49_0521ffcb-2a5a-486f-900d-d333f3878116
 70
     0
 10
0.0
 20
0.0
 30
0.0
  3
HATCH_49_0521ffcb-2a5a-486f-900d-d333f3878116
  1

  0
LINE
  5
23B
330
238
100
AcDbEntity
  8
DETAILS
 62
     0
370
     9
100
AcDbLine
 10
27.68696664252862
 20
25.75
 30
0.0
 11
27.68426454436579
 21
25.75
 31
0.0
  0
LINE
  5
23C
330
238
100
AcDbEntity
  8
DETAILS
 62
     0
370
     9
100
AcDbLine
 10
27.71131668379495
 20
25.5
 30
0.0
 11
27.68426454436579
 21
25.5
 31
0.0
  0
ENDBLK
  5
23A
330
238
100
AcDbEntity
  8
0
100
AcDbBlockEnd
  0
BLOCK
  5
23E
330
23D
100
AcDbEntity
  8
0
100
AcDbBlockBegin
  2
HATCH_50_d2bb9f02-ab06-4df2-8b1c-4f37083add6d
 70
     0
 10
0.0
 20
0.0
 30
0.0
  3
HATCH_50_d2bb9f02-ab06-4df2-8b1c-4f37083add6d
  1

  0
LINE
  5
240
330
23D
100
AcDbEntity
  8
DETAILS
 62
     0
370
     9
100
AcDbLine
 10
27.73085029601175
 20
25.5
 30
0.0
 11
27.71131668379495
 21
25.5
 31
0.0
  0
LINE
  5
241
330
23D
100
AcDbEntity
  8
DETAILS
 62
     0
370
     9
100
AcDbLine
 10
27.73085029601175
 20
25.75
 30
0.0
 11
27.68696664252862
 21
25.75
 31
0.0
  0
ENDBLK
  5
23F
330
23D
100
AcDbEntity
  8
0
100
AcDbBlockEnd
  0
BLOCK
  5
243
330
242
100
AcDbEntity
  8
0
100
AcDbBlockBegin
  2
HATCH_51_8871c7e2-cd85-40fa-97f1-456087cb2bff
 70
     0
 10
0.0
 20
0.0
 30
0.0
  3
HATCH_51_8871c7e2-cd85-40fa-97f1-456087cb2bff
  1

  0
LINE
  5
245
330
242
100
AcDbEntity
  8
DETAILS
 62
     0
370
     9
100
AcDbLine
 10
27.73085316676972
 20
25.75
 30
0.0
 11
27.73085029601175
 21
25.75
 31
0.0
  0
LINE
  5
246
330
242
100
AcDbEntity
  8
DETAILS
 62
     0
370
     9
100
AcDbLine
 10
27.73087424234434
 20
25.5
 30
0.0
 11
27.73085029601175
 21
25.5
 31
0.0
  0
ENDBLK
  5
244
330
242
100
AcDbEntity
  8
0
100
AcDbBlockEnd
  0
BLOCK
  5
248
330
247
100
AcDbEntity
  8
0
100
AcDbBlockBegin
  2
HATCH_52_fb16b5c3-f61c-4b71-8bfd-75ffb4231af3
 70
     0
 10
0.0
 20
0.0
 30
0.0
  3
HATCH_52_fb16b5c3-f61c-4b71-8bfd-75ffb4231af3
  1

  0
LINE
  5
24A
330
247
100
AcDbEntity
  8
DETAILS
 62
     0
370
     9
100
AcDbLine
 10
27.73089114964564
 20
25.5
 30
0.0
 11
27.73087424234434
 21
25.5
 31
0.0
  0
LINE
  5
24B
330
247
100
AcDbEntity
  8
DETAILS
 62
     0
370
     9
100
AcDbLine
 10
27.73089114964564
 20
25.75
 30
0.0
 11
27.73085316676972
 21
25.75
 31
0.0
  0
ENDBLK
  5
249
330
247
100
AcDbEntity
  8
0
100
AcDbBlockEnd
  0
BLOCK
  5
24D
330
24C
100
AcDbEntity
  8
0
100
AcDbBlockBegin
  2
HATCH_53_b6e0069e-c794-45e1-a9fd-d396a5589eb8
 70
     0
 10
0.0
 20
0.0
 30
0.0
  3
HATCH_53_b6e0069e-c794-45e1-a9fd-d396a5589eb8
  1

  0
LINE
  5
24F
330
24C
100
AcDbEntity
  8
DETAILS
 62
     0
370
     9
100
AcDbLine
 10
27.73420495995304
 20
25.75
 30
0.0
 11
27.73089114964564
 21
25.75
 31
0.0
  0
LINE
  5
250
330
24C
100
AcDbEntity
  8
DETAILS
 62
     0
370
     9
100
AcDbLine
 10
27.75853492851357
 20
25.5
 30
0.0
 11
27.73089114964564
 21
25.5
 31
0.0
  0
ENDBLK
  5
24E
330
24C
100
AcDbEntity
  8
0
100
AcDbBlockEnd
  0
BLOCK
  5
252
330
251
100
AcDbEntity
  8
0
100
AcDbBlockBegin
  2
HATCH_54_a20b881b-e547-4bb0-bcb7-10d0328f550b
 70
     0
 10
0.0
 20
0.0
 30
0.0
  3
HATCH_54_a20b881b-e547-4bb0-bcb7-10d0328f550b
  1

  0
LINE
  5
254
330
251
100
AcDbEntity
  8
DETAILS
 62
     0
370
     9
100
AcDbLine
 10
27.77777827350186
 20
25.5
 30
0.0
 11
27.75853492851357
 21
25.5
 31
0.0
  0
LINE
  5
255
330
251
100
AcDbEntity
  8
DETAILS
 62
     0
370
     9
100
AcDbLine
 10
27.77777827350186
 20
25.75
 30
0.0
 11
27.73420495995304
 21
25.75
 31
0.0
  0
ENDBLK
  5
253
330
251
100
AcDbEntity
  8
0
100
AcDbBlockEnd
  0
BLOCK
  5
257
330
256
100
AcDbEntity
  8
0
100
AcDbBlockBegin
  2
HATCH_55_9f4af671-7ba2-4d09-ab56-e878b6ac71be
 70
     0
 10
0.0
 20
0.0
 30
0.0
  3
HATCH_55_9f4af671-7ba2-4d09-ab56-e878b6ac71be
  1

  0
LINE
  5
259
330
256
100
AcDbEntity
  8
DETAILS
 62
     0
370
     9
100
AcDbLine
 10
27.77779414563192
 20
25.75
 30
0.0
 11
27.77777827350186
 21
25.75
 31
0.0
  0
LINE
  5
25A
330
256
100
AcDbEntity
  8
DETAILS
 62
     0
370
     9
100
AcDbLine
 10
27.77792109882629
 20
25.5
 30
0.0
 11
27.77777827350186
 21
25.5
 31
0.0
  0
ENDBLK
  5
258
330
256
100
AcDbEntity
  8
0
100
AcDbBlockEnd
  0
BLOCK
  5
25C
330
25B
100
AcDbEntity
  8
0
100
AcDbBlockBegin
  2
HATCH_56_0ffa48e8-ed7a-4593-a848-61970e4c0430
 70
     0
 10
0.0
 20
0.0
 30
0.0
  3
HATCH_56_0ffa48e8-ed7a-4593-a848-61970e4c0430
  1

  0
LINE
  5
25E
330
25B
100
AcDbEntity
  8
DETAILS
 62
     0
370
     9
100
AcDbLine
 10
27.77802150270461
 20
25.5
 30
0.0
 11
27.77792109882629
 21
25.5
 31
0.0
  0
LINE
  5
25F
330
25B
100
AcDbEntity
  8
DETAILS
 62
     0
370
     9
100
AcDbLine
 10
27.77802150270461
 20
25.75
 30
0.0
 11
27.77779414563192
 21
25.75
 31
0.0
  0
ENDBLK
  5
25D
330
25B
100
AcDbEntity
  8
0
100
AcDbBlockEnd
  0
BLOCK
  5
261
330
260
100
AcDbEntity
  8
0
100
AcDbBlockBegin
  2
HATCH_57_90e24b20-862d-4e6a-9618-32b075162ab5
 70
     0
 10
0.0
 20
0.0
 30
0.0
  3
HATCH_57_90e24b20-862d-4e6a-9618-32b075162ab5
  1

  0
LINE
  5
263
330
260
100
AcDbEntity
  8
DETAILS
 62
     0
370
     9
100
AcDbLine
 10
27.78104412122486
 20
25.75
 30
0.0
 11
27.77802150270461
 21
25.75
 31
0.0
  0
LINE
  5
264
330
260
100
AcDbEntity
  8
DETAILS
 62
     0
370
     9
100
AcDbLine
 10
27.80526941324469
 20
25.5
 30
0.0
 11
27.77802150270461
 21
25.5
 31
0.0
  0
ENDBLK
  5
262
330
260
100
AcDbEntity
  8
0
100
AcDbBlockEnd
  0
BLOCK
  5
266
330
265
100
AcDbEntity
  8
0
100
AcDbBlockBegin
  2
HATCH_58_16caabfc-1e79-4592-9805-b0ccc02fa3c6
 70
     0
 10
0.0
 20
0.0
 30
0.0
  3
HATCH_58_16caabfc-1e79-4592-9805-b0ccc02fa3c6
  1

  0
LINE
  5
268
330
265
100
AcDbEntity
  8
DETAILS
 62
     0
370
     9
100
AcDbLine
 10
27.82328445745105
 20
25.5
 30
0.0
 11
27.80526941324469
 21
25.5
 31
0.0
  0
LINE
  5
269
330
265
100
AcDbEntity
  8
DETAILS
 62
     0
370
     9
100
AcDbLine
 10
27.82328445745105
 20
25.75
 30
0.0
 11
27.78104412122486
 21
25.75
 31
0.0
  0
ENDBLK
  5
267
330
265
100
AcDbEntity
  8
0
100
AcDbBlockEnd
  0
BLOCK
  5
26B
330
26A
100
AcDbEntity
  8
0
100
AcDbBlockBegin
  2
HATCH_59_019543a9-7b3d-488e-9e81-f17a4728b2df
 70
     0
 10
0.0
 20
0.0
 30
0.0
  3
HATCH_59_019543a9-7b3d-488e-9e81-f17a4728b2df
  1

  0
LINE
  5
26D
330
26A
100
AcDbEntity
  8
DETAILS
 62
     0
370
     9
100
AcDbLine
 10
27.82330257688183
 20
25.75
 30
0.0
 11
27.82328445745105
 21
25.75
 31
0.0
  0
LINE
  5
26E
330
26A
100
AcDbEntity
  8
DETAILS
 62
     0
370
     9
100
AcDbLine
 10
27.8235354077415
 20
25.5
 30
0.0
 11
27.82328445745105
 21
25.5
 31
0.0
  0
ENDBLK
  5
26C
330
26A
100
AcDbEntity
  8
0
100
AcDbBlockEnd
  0
BLOCK
  5
270
330
26F
100
AcDbEntity
  8
0
100
AcDbBlockBegin
  2
HATCH_60_e6c4bd1b-c554-4a13-9e3e-b6b36779540b
 70
     0
 10
0.0
 20
0.0
 30
0.0
  3
HATCH_60_e6c4bd1b-c554-4a13-9e3e-b6b36779540b
  1

  0
LINE
  5
272
330
26F
100
AcDbEntity
  8
DETAILS
 62
     0
370
     9
100
AcDbLine
 10
27.82370844850294
 20
25.5
 30
0.0
 11
27.8235354077415
 21
25.5
 31
0.0
  0
LINE
  5
273
330
26F
100
AcDbEntity
  8
DETAILS
 62
     0
370
     9
100
AcDbLine
 10
27.82370844850294
 20
25.75
 30
0.0
 11
27.82330257688183
 21
25.75
 31
0.0
  0
ENDBLK
  5
271
330
26F
100
AcDbEntity
  8
0
100
AcDbBlockEnd
  0
BLOCK
  5
275
330
274
100
AcDbEntity
  8
0
100
AcDbBlockBegin
  2
HATCH_61_60df5378-ba22-4378-b9b1-73c6dbc7db5c
 70
     0
 10
0.0
 20
0.0
 30
0.0
  3
HATCH_61_60df5378-ba22-4378-b9b1-73c6dbc7db5c
  1

  0
LINE
  5
277
330
274
100
AcDbEntity
  8
DETAILS
 62
     0
370
     9
100
AcDbLine
 10
27.82556597307595
 20
25.75
 30
0.0
 11
27.82370844850294
 21
25.75
 31
0.0
  0
LINE
  5
278
330
274
100
AcDbEntity
  8
DETAILS
 62
     0
370
     9
100
AcDbLine
 10
27.84968734618793
 20
25.5
 30
0.0
 11
27.82370844850294
 21
25.5
 31
0.0
  0
ENDBLK
  5
276
330
274
100
AcDbEntity
  8
0
100
AcDbBlockEnd
  0
BLOCK
  5
27A
330
279
100
AcDbEntity
  8
0
100
AcDbBlockBegin
  2
HATCH_62_4d7840eb-4b99-463c-8315-2f522927b86f
 70
     0
 10
0.0
 20
0.0
 30
0.0
  3
HATCH_62_4d7840eb-4b99-463c-8315-2f522927b86f
  1

  0
LINE
  5
27C
330
279
100
AcDbEntity
  8
DETAILS
 62
     0
370
     9
100
AcDbLine
 10
27.86565827359382
 20
25.5
 30
0.0
 11
27.84968734618793
 21
25.5
 31
0.0
  0
LINE
  5
27D
330
279
100
AcDbEntity
  8
DETAILS
 62
     0
370
     9
100
AcDbLine
 10
27.86377644678504
 20
25.75
 30
0.0
 11
27.82556597307595
 21
25.75
 31
0.0
  0
ENDBLK
  5
27B
330
279
100
AcDbEntity
  8
0
100
AcDbBlockEnd
  0
BLOCK
  5
27F
330
27E
100
AcDbEntity
  8
0
100
AcDbBlockBegin
  2
HATCH_63_755bc805-4f1a-4d02-bf82-9e22d040ac50
 70
     0
 10
0.0
 20
0.0
 30
0.0
  3
HATCH_63_755bc805-4f1a-4d02-bf82-9e22d040ac50
  1

  0
LINE
  5
281
330
27E
100
AcDbEntity
  8
DETAILS
 62
     0
370
     9
100
AcDbLine
 10
27.86599575718907
 20
25.5
 30
0.0
 11
27.86565827359382
 21
25.5
 31
0.0
  0
ENDBLK
  5
280
330
27E
100
AcDbEntity
  8
0
100
AcDbBlockEnd
  0
BLOCK
  5
283
330
282
100
AcDbEntity
  8
0
100
AcDbBlockBegin
  2
HATCH_64_7a38beb6-2b1b-4d44-ac3f-e7e1de70ff44
 70
     0
 10
0.0
 20
0.0
 30
0.0
  3
HATCH_64_7a38beb6-2b1b-4d44-ac3f-e7e1de70ff44
  1

  0
LINE
  5
285
330
282
100
AcDbEntity
  8
DETAILS
 62
     0
370
     9
100
AcDbLine
 10
27.86621965091098
 20
25.5
 30
0.0
 11
27.86599575718907
 21
25.5
 31
0.0
  0
ENDBLK
  5
284
330
282
100
AcDbEntity
  8
0
100
AcDbBlockEnd
  0
BLOCK
  5
287
330
286
100
AcDbEntity
  8
0
100
AcDbBlockBegin
  2
HATCH_65_0ab99dbb-cbe7-4111-be82-fa0289c61483
 70
     0
 10
0.0
 20
0.0
 30
0.0
  3
HATCH_65_0ab99dbb-cbe7-4111-be82-fa0289c61483
  1

  0
LINE
  5
289
330
286
100
AcDbEntity
  8
DETAILS
 62
     0
370
     9
100
AcDbLine
 10
27.89011170200272
 20
25.5
 30
0.0
 11
27.86621965091098
 21
25.5
 31
0.0
  0
ENDBLK
  5
288
330
286
100
AcDbEntity
  8
0
100
AcDbBlockEnd
  0
BLOCK
  5
28B
330
28A
100
AcDbEntity
  8
0
100
AcDbBlockBegin
  2
HATCH_66_34ee4820-9f37-47e3-95bb-08a28cb80c1c
 70
     0
 10
0.0
 20
0.0
 30
0.0
  3
HATCH_66_34ee4820-9f37-47e3-95bb-08a28cb80c1c
  1

  0
LINE
  5
28D
330
28A
100
AcDbEntity
  8
DETAILS
 62
     0
370
     9
100
AcDbLine
 10
27.903306893151
 20
25.5
 30
0.0
 11
27.89011170200272
 21
25.5
 31
0.0
  0
ENDBLK
  5
28C
330
28A
100
AcDbEntity
  8
0
100
AcDbBlockEnd
  0
BLOCK
  5
28F
330
28E
100
AcDbEntity
  8
0
100
AcDbBlockBegin
  2
HATCH_67_f3a2b66b-734b-4684-a2f4-e77b6383e925
 70
     0
 10
0.0
 20
0.0
 30
0.0
  3
HATCH_67_f3a2b66b-734b-4684-a2f4-e77b6383e925
  1

  0
LINE
  5
291
330
28E
100
AcDbEntity
  8
DETAILS
 62
     0
370
     9
100
AcDbLine
 10
27.90369980433999
 20
25.5
 30
0.0
 11
27.903306893151
 21
25.5
 31
0.0
  0
ENDBLK
  5
290
330
28E
100
AcDbEntity
  8
0
100
AcDbBlockEnd
  0
BLOCK
  5
293
330
292
100
AcDbEntity
  8
0
100
AcDbBlockBegin
  2
HATCH_68_c572beab-574d-4712-9020-c03a4793b69e
 70
     0
 10
0.0
 20
0.0
 30
0.0
  3
HATCH_68_c572beab-574d-4712-9020-c03a4793b69e
  1

  0
LINE
  5
295
330
292
100
AcDbEntity
  8
DETAILS
 62
     0
370
     9
100
AcDbLine
 10
27.90394319014382
 20
25.5
 30
0.0
 11
27.90369980433999
 21
25.5
 31
0.0
  0
ENDBLK
  5
294
330
292
100
AcDbEntity
  8
0
100
AcDbBlockEnd
  0
BLOCK
  5
297
330
296
100
AcDbEntity
  8
0
100
AcDbBlockBegin
  2
HATCH_69_7f1a2c4a-8e27-4132-b5a5-b43b6f9c243e
 70
     0
 10
0.0
 20
0.0
 30
0.0
  3
HATCH_69_7f1a2c4a-8e27-4132-b5a5-b43b6f9c243e
  1

  0
LINE
  5
299
330
296
100
AcDbEntity
  8
DETAILS
 62
     0
370
     9
100
AcDbLine
 10
27.9250167899623
 20
25.5
 30
0.0
 11
27.90394319014382
 21
25.5
 31
0.0
  0
ENDBLK
  5
298
330
296
100
AcDbEntity
  8
0
100
AcDbBlockEnd
  0
BLOCK
  5
29B
330
29A
100
AcDbEntity
  8
0
100
AcDbBlockBegin
  2
HATCH_70_bf3251ee-9e7b-43f4-896c-0fe13fc0b1d2
 70
     0
 10
0.0
 20
0.0
 30
0.0
  3
HATCH_70_bf3251ee-9e7b-43f4-896c-0fe13fc0b1d2
  1

  0
LINE
  5
29D
330
29A
100
AcDbEntity
  8
DETAILS
 62
     0
370
     9
100
AcDbLine
 10
27.93481510715192
 20
25.5
 30
0.0
 11
27.9250167899623
 21
25.5
 31
0.0
  0
ENDBLK
  5
29C
330
29A
100
AcDbEntity
  8
0
100
AcDbBlockEnd
  0
BLOCK
  5
29F
330
29E
100
AcDbEntity
  8
0
100
AcDbBlockBegin
  2
HATCH_71_8c0f9bc8-bbd7-4e03-ad7c-cada63b7fa96
 70
     0
 10
0.0
 20
0.0
 30
0.0
  3
HATCH_71_8c0f9bc8-bbd7-4e03-ad7c-cada63b7fa96
  1

  0
LINE
  5
2A1
330
29E
100
AcDbEntity
  8
DETAILS
 62
     0
370
     9
100
AcDbLine
 10
27.93522476772813
 20
25.5
 30
0.0
 11
27.93481510715192
 21
25.5
 31
0.0
  0
ENDBLK
  5
2A0
330
29E
100
AcDbEntity
  8
0
100
AcDbBlockEnd
  0
BLOCK
  5
2A3
330
2A2
100
AcDbEntity
  8
0
100
AcDbBlockBegin
  2
HATCH_72_212e213a-2de4-4cbd-ba2a-e356312cfec3
 70
     0
 10
0.0
 20
0.0
 30
0.0
  3
HATCH_72_212e213a-2de4-4cbd-ba2a-e356312cfec3
  1

  0
LINE
  5
2A5
330
2A2
100
AcDbEntity
  8
DETAILS
 62
     0
370
     9
100
AcDbLine
 10
27.93544868277773
 20
25.5
 30
0.0
 11
27.93522476772813
 21
25.5
 31
0.0
  0
ENDBLK
  5
2A4
330
2A2
100
AcDbEntity
  8
0
100
AcDbBlockEnd
  0
BLOCK
  5
2A7
330
2A6
100
AcDbEntity
  8
0
100
AcDbBlockBegin
  2
HATCH_73_7d8a97c7-a09d-47e0-8e62-0e800b40c641
 70
     0
 10
0.0
 20
0.0
 30
0.0
  3
HATCH_73_7d8a97c7-a09d-47e0-8e62-0e800b40c641
  1

  0
LINE
  5
2A9
330
2A6
100
AcDbEntity
  8
DETAILS
 62
     0
370
     9
100
AcDbLine
 10
27.95308693762943
 20
25.5
 30
0.0
 11
27.93544868277773
 21
25.5
 31
0.0
  0
ENDBLK
  5
2A8
330
2A6
100
AcDbEntity
  8
0
100
AcDbBlockEnd
  0
BLOCK
  5
2AB
330
2AA
100
AcDbEntity
  8
0
100
AcDbBlockBegin
  2
HATCH_74_d284f451-866f-49f3-bef0-69cba2170ae6
 70
     0
 10
0.0
 20
0.0
 30
0.0
  3
HATCH_74_d284f451-866f-49f3-bef0-69cba2170ae6
  1

  0
LINE
  5
2AD
330
2AA
100
AcDbEntity
  8
DETAILS
 62
     0
370
     9
100
AcDbLine
 10
27.95899852404044
 20
25.5
 30
0.0
 11
27.95308693762943
 21
25.5
 31
0.0
  0
ENDBLK
  5
2AC
330
2AA
100
AcDbEntity
  8
0
100
AcDbBlockEnd
  0
BLOCK
  5
2AF
330
2AE
100
AcDbEntity
  8
0
100
AcDbBlockBegin
  2
HATCH_75_814a8fc6-4627-4793-97da-2213179192b8
 70
     0
 10
0.0
 20
0.0
 30
0.0
  3
HATCH_75_814a8fc6-4627-4793-97da-2213179192b8
  1

  0
LINE
  5
2B1
330
2AE
100
AcDbEntity
  8
DETAILS
 62
     0
370
     9
100
AcDbLine
 10
27.95938114081414
 20
25.5
 30
0.0
 11
27.95899852404044
 21
25.5
 31
0.0
  0
ENDBLK
  5
2B0
330
2AE
100
AcDbEntity
  8
0
100
AcDbBlockEnd
  0
BLOCK
  5
2B3
330
2B2
100
AcDbEntity
  8
0
100
AcDbBlockBegin
  2
HATCH_76_796c57e2-42ae-42d8-b509-98a1d6899451
 70
     0
 10
0.0
 20
0.0
 30
0.0
  3
HATCH_76_796c57e2-42ae-42d8-b509-98a1d6899451
  1

  0
LINE
  5
2B5
330
2B2
100
AcDbEntity
  8
DETAILS
 62
     0
370
     9
100
AcDbLine
 10
27.95954151835631
 20
25.5
 30
0.0
 11
27.95938114081414
 21
25.5
 31
0.0
  0
ENDBLK
  5
2B4
330
2B2
100
AcDbEntity
  8
0
100
AcDbBlockEnd
  0
BLOCK
  5
2B7
330
2B6
100
AcDbEntity
  8
0
100
AcDbBlockBegin
  2
HATCH_77_e3121ec0-8790-4cd8-ade0-0a301bf732fb
 70
     0
 10
0.0
 20
0.0
 30
0.0
  3
HATCH_77_e3121ec0-8790-4cd8-ade0-0a301bf732fb
  1

  0
LINE
  5
2B9
330
2B6
100
AcDbEntity
  8
DETAILS
 62
     0
370
     9
100
AcDbLine
 10
27.97327268523245
 20
25.5
 30
0.0
 11
27.95954151835631
 21
25.5
 31
0.0
  0
ENDBLK
  5
2B8
330
2B6
100
AcDbEntity
  8
0
100
AcDbBlockEnd
  0
BLOCK
  5
2BB
330
2BA
100
AcDbEntity
  8
0
100
AcDbBlockBegin
  2
HATCH_78_0f44575e-8fce-42d5-acb4-f5c0884f8d18
 70
     0
 10
0.0
 20
0.0
 30
0.0
  3
HATCH_78_0f44575e-8fce-42d5-acb4-f5c0884f8d18
  1

  0
LINE
  5
2BD
330
2BA
100
AcDbEntity
  8
DETAILS
 62
     0
370
     9
100
AcDbLine
 10
27.97494809087052
 20
25.5
 30
0.0
 11
27.97327268523245
 21
25.5
 31
0.0
  0
ENDBLK
  5
2BC
330
2BA
100
AcDbEntity
  8
0
100
AcDbBlockEnd
  0
BLOCK
  5
2BF
330
2BE
100
AcDbEntity
  8
0
100
AcDbBlockBegin
  2
HATCH_79_114e570d-dbb7-498f-8fe9-f13389ee7227
 70
     0
 10
0.0
 20
0.0
 30
0.0
  3
HATCH_79_114e570d-dbb7-498f-8fe9-f13389ee7227
  1

  0
LINE
  5
2C1
330
2BE
100
AcDbEntity
  8
DETAILS
 62
     0
370
     9
100
AcDbLine
 10
27.97525759903856
 20
25.5
 30
0.0
 11
27.97494809087052
 21
25.5
 31
0.0
  0
ENDBLK
  5
2C0
330
2BE
100
AcDbEntity
  8
0
100
AcDbBlockEnd
  0
ENDSEC
  0
SECTION
  2
ENTITIES
  0
LINE
  5
2C2
330
1F
100
AcDbEntity
  8
DETAILS
  6
Continuous
 62
     7
370
    25
100
AcDbLine
 10
0.004395300665692
 20
52.76290744651714
 30
0.0
 11
52.80919477261767
 21
52.76290744651714
 31
0.0
  0
LINE
  5
2C3
330
1F
100
AcDbEntity
  8
DETAILS
  6
Continuous
 62
     7
370
    25
100
AcDbLine
 10
52.80919477261767
 20
-0.0000011167626326
 30
0.0
 11
0.004395300665692
 21
-0.0000011167626326
 31
0.0
  0
LINE
  5
2C4
330
1F
100
AcDbEntity
  8
DETAILS
  6
Continuous
 62
     7
370
    25
100
AcDbLine
 10
0.004395300665692
 20
-0.0000011167626326
 30
0.0
 11
0.004395300665692
 21
52.76290744651714
 31
0.0
  0
LINE
  5
2C5
330
1F
100
AcDbEntity
  8
DETAILS
  6
Continuous
 62
     7
370
    25
100
AcDbLine
 10
5.107544780573334
 20
48.60257792686296
 30
0.0
 11
-0.0000025915865649
 21
48.60257792686296
 31
0.0
  0
LINE
  5
2C6
330
1F
100
AcDbEntity
  8
DETAILS
  6
Continuous
 62
     7
370
    25
100
AcDbLine
 10
5.107544780573334
 20
52.76290744651669
 30
0.0
 11
5.107544780573334
 21
48.60257792686296
 31
0.0
  0
LINE
  5
2C7
330
1F
100
AcDbEntity
  8
DETAILS
  6
Continuous
 62
     7
370
    25
100
AcDbLine
 10
29.27780815764856
 20
19.58928495785585
 30
0.0
 11
28.2753189128272
 21
20.04387924682987
 31
0.0
  0
LINE
  5
2C8
330
1F
100
AcDbEntity
  8
DETAILS
  6
Continuous
 62
     7
370
    25
100
AcDbLine
 10
29.56768018478692
 20
20.86339232629416
 30
0.0
 11
28.27102771040455
 21
21.45134548850455
 31
0.0
  0
LINE
  5
2C9
330
1F
100
AcDbEntity
  8
DETAILS
  6
Continuous
 62
     7
370
    25
100
AcDbLine
 10
26.58405960122354
 20
25.58567378851467
 30
0.0
 11
30.70763438740363
 21
23.69257018934422
 31
0.0
  0
LINE
  5
2CA
330
1F
100
AcDbEntity
  8
DETAILS
  6
Continuous
 62
     7
370
    25
100
AcDbLine
 10
26.58405960122354
 20
25.69570861128886
 30
0.0
 11
30.70763438740366
 21
23.80260501211887
 31
0.0
  0
LINE
  5
2CB
330
1F
100
AcDbEntity
  8
DETAILS
  6
Continuous
 62
     7
370
    25
100
AcDbLine
 10
27.868367649074
 20
9.956990958790813
 30
0.0
 11
28.3060686044133
 21
9.9583254585782
 31
0.0
  0
LINE
  5
2CC
330
1F
100
AcDbEntity
  8
DETAILS
  6
Continuous
 62
     7
370
    25
100
AcDbLine
 10
27.86821520554278
 20
10.00699072640009
 30
0.0
 11
28.30591616088208
 21
10.00832522618747
 31
0.0
  0
LINE
  5
2CD
330
1F
100
AcDbEntity
  8
DETAILS
  6
Continuous
 62
     7
370
    25
100
AcDbLine
 10
27.86806276201159
 20
10.05699049400937
 30
0.0
 11
28.30576371735088
 21
10.05832499379675
 31
0.0
  0
LINE
  5
2CE
330
1F
100
AcDbEntity
  8
DETAILS
  6
Continuous
 62
     7
370
    25
100
AcDbLine
 10
27.86791031848037
 20
10.10699026161864
 30
0.0
 11
28.30561127381966
 21
10.10832476140603
 31
0.0
  0
LINE
  5
2CF
330
1F
100
AcDbEntity
  8
DETAILS
  6
Continuous
 62
     7
370
    25
100
AcDbLine
 10
27.50330474598945
 20
9.581992120744415
 30
0.0
 11
28.78443897954912
 21
9.581992120743509
 31
0.0
  0
LINE
  5
2D0
330
1F
100
AcDbEntity
  8
DETAILS
  6
Continuous
 62
     7
370
    25
100
AcDbLine
 10
28.26169247911198
 20
24.51319659889304
 30
0.0
 11
28.30683372884852
 21
9.707373229572568
 31
0.0
  0
LINE
  5
2D1
330
1F
100
AcDbEntity
  8
DETAILS
  6
Continuous
 62
     7
370
    25
100
AcDbLine
 10
27.47380935909373
 20
9.456992120743962
 30
0.0
 11
28.68429132830442
 21
9.456992120744873
 31
0.0
  0
LINE
  5
2D2
330
1F
100
AcDbEntity
  8
DETAILS
  6
Continuous
 62
     7
370
    25
100
AcDbLine
 10
27.8066298667303
 20
9.331992120743962
 30
0.0
 11
28.36933214322132
 21
9.331992120744415
 31
0.0
  0
LINE
  5
2D3
330
1F
100
AcDbEntity
  8
DETAILS
  6
Continuous
 62
     7
370
    25
100
AcDbLine
 10
27.86912986673002
 20
9.706992120744415
 30
0.0
 11
28.3068308220693
 21
9.708326620531807
 31
0.0
  0
LINE
  5
2D4
330
1F
100
AcDbEntity
  8
DETAILS
  6
Continuous
 62
     7
370
    25
100
AcDbLine
 10
27.86897742319883
 20
9.756991888353696
 30
0.0
 11
28.30667837853812
 21
9.758326388141084
 31
0.0
  0
LINE
  5
2D5
330
1F
100
AcDbEntity
  8
DETAILS
  6
Continuous
 62
     7
370
    25
100
AcDbLine
 10
27.86882497966761
 20
9.806991655962975
 30
0.0
 11
28.3065259350069
 21
9.808326155750363
 31
0.0
  0
LINE
  5
2D6
330
1F
100
AcDbEntity
  8
DETAILS
  6
Continuous
 62
     7
370
    25
100
AcDbLine
 10
27.86867253613641
 20
9.856991423572252
 30
0.0
 11
28.30637349147571
 21
9.858325923359644
 31
0.0
  0
LINE
  5
2D7
330
1F
100
AcDbEntity
  8
DETAILS
  6
Continuous
 62
     7
370
    25
100
AcDbLine
 10
27.86852009260519
 20
9.906991191181532
 30
0.0
 11
28.30622104794449
 21
9.908325690968923
 31
0.0
  0
ARC
  5
2D8
330
1F
100
AcDbEntity
  8
DETAILS
  6
Continuous
 62
     7
370
    25
100
AcDbCircle
 10
28.0741930600891
 20
6.467980717428873
 30
0.0
 40
1.44
100
AcDbArc
 50
151.1657148054903
 51
30.23194736924228
  0
ARC
  5
2D9
330
1F
100
AcDbEntity
  8
DETAILS
  6
Continuous
 62
     7
370
    25
100
AcDbCircle
 10
28.0741930600891
 20
6.467980717428873
 30
0.0
 40
1.315
100
AcDbArc
 50
151.1657148054903
 51
30.23194736924228
  0
LINE
  5
2DA
330
1F
100
AcDbEntity
  8
DETAILS
  6
Continuous
 62
     7
370
    25
100
AcDbLine
 10
28.26456683922359
 20
23.5704387363985
 30
0.0
 11
29.34443440103595
 21
23.07467928643154
 31
0.0
  0
LINE
  5
2DB
330
1F
100
AcDbEntity
  8
DETAILS
  6
Continuous
 62
     7
370
    25
100
AcDbLine
 10
25.32085961485552
 20
27.21257955647752
 30
0.0
 11
29.34443440103564
 21
25.36538523984245
 31
0.0
  0
LINE
  5
2DC
330
1F
100
AcDbEntity
  8
DETAILS
  6
Continuous
 62
     7
370
    25
100
AcDbLine
 10
25.44486324553167
 20
27.61270638138921
 30
0.0
 11
36.28723865162118
 21
22.63548691368396
 31
0.0
  0
LINE
  5
2DD
330
1F
100
AcDbEntity
  8
DETAILS
  6
Continuous
 62
     7
370
    25
100
AcDbLine
 10
28.26878967421285
 20
22.18539624567074
 30
0.0
 11
36.28723865162118
 21
18.50418384962767
 31
0.0
  0
LINE
  5
2DE
330
1F
100
AcDbEntity
  8
DETAILS
  6
Continuous
 62
     7
370
    25
100
AcDbLine
 10
28.00796517743151
 20
25.61982380939935
 30
0.0
 11
34.85007719511941
 21
33.28218310962029
 31
0.0
  0
LINE
  5
2DF
330
1F
100
AcDbEntity
  8
DETAILS
  6
Continuous
 62
     7
370
    25
100
AcDbLine
 10
36.08666569300237
 20
30.18584027988481
 30
0.0
 11
11.89540679782328
 21
41.15617145302985
 31
0.0
  0
LINE
  5
2E0
330
1F
100
AcDbEntity
  8
DETAILS
  6
Continuous
 62
     7
370
    25
100
AcDbLine
 10
34.53590043469825
 20
29.48293259558295
 30
0.0
 11
11.89540679782328
 21
39.75020783072613
 31
0.0
  0
LINE
  5
2E1
330
1F
100
AcDbEntity
  8
DETAILS
  6
Continuous
 62
     7
370
    25
100
AcDbLine
 10
33.98630865197242
 20
29.2338218515556
 30
0.0
 11
11.34297043971127
 21
39.49973510595782
 31
0.0
  0
LINE
  5
2E2
330
1F
100
AcDbEntity
  8
DETAILS
  6
Continuous
 62
     7
370
    25
100
AcDbLine
 10
17.65007919938318
 20
26.32036870242382
 30
0.0
 11
18.46116590231639
 21
26.68800595317725
 31
0.0
  0
LINE
  5
2E3
330
1F
100
AcDbEntity
  8
DETAILS
  6
Continuous
 62
     7
370
    25
100
AcDbLine
 10
18.46116590231639
 20
30.81859006197919
 30
0.0
 11
17.22512692096796
 21
26.51305875686694
 31
0.0
  0
LINE
  5
2E4
330
1F
100
AcDbEntity
  8
DETAILS
  6
Continuous
 62
     7
370
    25
100
AcDbLine
 10
17.0979659159484
 20
30.20069915906697
 30
0.0
 11
18.46116590231639
 21
26.68800595317725
 31
0.0
  0
LINE
  5
2E5
330
1F
100
AcDbEntity
  8
DETAILS
  6
Continuous
 62
     7
370
    25
100
AcDbLine
 10
17.0979659159484
 20
30.20069915906697
 30
0.0
 11
18.46116590231639
 21
30.81859006197919
 31
0.0
  0
LINE
  5
2E6
330
1F
100
AcDbEntity
  8
DETAILS
  6
Continuous
 62
     7
370
    25
100
AcDbLine
 10
27.88013799075597
 20
18.9869193388622
 30
0.0
 11
10.53220681145524
 21
26.85327705548707
 31
0.0
  0
LINE
  5
2E7
330
1F
100
AcDbEntity
  8
DETAILS
  6
Continuous
 62
     7
370
    25
100
AcDbLine
 10
27.88160357291403
 20
20.22241557121515
 30
0.0
 11
11.89540679782328
 21
27.471604322031
 31
0.0
  0
LINE
  5
2E8
330
1F
100
AcDbEntity
  8
DETAILS
  6
Continuous
 62
     7
370
    25
100
AcDbLine
 10
27.88326993426116
 20
21.62717009467905
 30
0.0
 11
11.89540679782328
 21
28.87669521707084
 31
0.0
  0
LINE
  5
2E9
330
1F
100
AcDbEntity
  8
DETAILS
  6
Continuous
 62
     7
370
    25
100
AcDbLine
 10
11.08507953319923
 20
40.08533510010193
 30
0.0
 11
11.08507953319923
 21
27.80673159140724
 31
0.0
  0
LINE
  5
2EA
330
1F
100
AcDbEntity
  8
DETAILS
  6
Continuous
 62
     7
370
    25
100
AcDbLine
 10
11.34297043971127
 20
40.20271691710968
 30
0.0
 11
11.34297043971127
 21
31.03689882695062
 31
0.0
  0
LINE
  5
2EB
330
1F
100
AcDbEntity
  8
DETAILS
  6
Continuous
 62
     7
370
    25
100
AcDbLine
 10
10.53220681145524
 20
26.85327705548707
 30
0.0
 11
10.53220681145524
 21
28.25880431415908
 31
0.0
  0
LINE
  5
2EC
330
1F
100
AcDbEntity
  8
DETAILS
  6
Continuous
 62
     7
370
    25
100
AcDbLine
 10
11.89540679782328
 20
27.471604322031
 30
0.0
 11
10.53220681145524
 21
26.85327705548707
 31
0.0
  0
LINE
  5
2ED
330
1F
100
AcDbEntity
  8
DETAILS
  6
Continuous
 62
     7
370
    25
100
AcDbLine
 10
11.34297043971127
 20
27.9236770447842
 30
0.0
 11
11.34297043971127
 21
30.03218611460715
 31
0.0
  0
LINE
  5
2EE
330
1F
100
AcDbEntity
  8
DETAILS
  6
Continuous
 62
     7
370
    25
100
AcDbLine
 10
11.34297043971127
 20
30.03218611460715
 30
0.0
 11
11.34297043971127
 21
31.43771337327916
 31
0.0
  0
LINE
  5
2EF
330
1F
100
AcDbEntity
  8
DETAILS
  6
Continuous
 62
     7
370
    25
100
AcDbLine
 10
11.34297043971127
 20
27.92367704478329
 30
0.0
 11
11.08507953319923
 21
27.80673159140679
 31
0.0
  0
LINE
  5
2F0
330
1F
100
AcDbEntity
  8
DETAILS
  6
Continuous
 62
     7
370
    25
100
AcDbLine
 10
11.08507953319923
 20
28.50927703892693
 30
0.0
 11
10.53220681145524
 21
28.25880431415908
 31
0.0
  0
LINE
  5
2F1
330
1F
100
AcDbEntity
  8
DETAILS
  6
Continuous
 62
     7
370
    25
100
AcDbLine
 10
11.89540679782328
 20
27.471604322031
 30
0.0
 11
11.89540679782328
 21
28.87669521707084
 31
0.0
  0
LINE
  5
2F2
330
1F
100
AcDbEntity
  8
DETAILS
  6
Continuous
 62
     7
370
    25
100
AcDbLine
 10
11.89540679782328
 20
28.87669521707084
 30
0.0
 11
11.34297043971127
 21
28.62665885593514
 31
0.0
  0
LINE
  5
2F3
330
1F
100
AcDbEntity
  8
DETAILS
  6
Continuous
 62
     7
370
    25
100
AcDbLine
 10
17.0979659159484
 20
26.57071855121285
 30
0.0
 11
17.0979659159484
 21
30.20069915906788
 31
0.0
  0
LINE
  5
2F4
330
1F
100
AcDbEntity
  8
DETAILS
  6
Continuous
 62
     7
370
    25
100
AcDbLine
 10
11.89540679782328
 20
39.75020783072568
 30
0.0
 11
11.34297043971127
 21
39.49973510595782
 31
0.0
  0
LINE
  5
2F5
330
1F
100
AcDbEntity
  8
DETAILS
  6
Continuous
 62
     7
370
    25
100
AcDbLine
 10
11.89540679782328
 20
39.75020783072568
 30
0.0
 11
11.89540679782328
 21
41.15617145302985
 31
0.0
  0
LINE
  5
2F6
330
1F
100
AcDbEntity
  8
DETAILS
  6
Continuous
 62
     7
370
    25
100
AcDbLine
 10
11.08507953319923
 20
38.88140783941389
 30
0.0
 11
10.53220681145524
 21
39.1323169278139
 31
0.0
  0
LINE
  5
2F7
330
1F
100
AcDbEntity
  8
DETAILS
  6
Continuous
 62
     7
370
    25
100
AcDbLine
 10
11.34297043971127
 20
40.20271691710968
 30
0.0
 11
11.08507953319923
 21
40.08533510010193
 31
0.0
  0
LINE
  5
2F8
330
1F
100
AcDbEntity
  8
DETAILS
  6
Continuous
 62
     7
370
    25
100
AcDbLine
 10
10.53220681145524
 20
39.1323169278139
 30
0.0
 11
10.53220681145524
 21
40.53828055011763
 31
0.0
  0
LINE
  5
2F9
330
1F
100
AcDbEntity
  8
DETAILS
  6
Continuous
 62
     7
370
    25
100
AcDbLine
 10
11.08507953319923
 20
39.38235328895007
 30
0.0
 11
10.53220681145524
 21
39.1323169278139
 31
0.0
  0
LINE
  5
2FA
330
1F
100
AcDbEntity
  8
DETAILS
  6
Continuous
 62
     7
370
    25
100
AcDbLine
 10
10.53220681145524
 20
40.53828055011763
 30
0.0
 11
11.89540679782328
 21
41.15617145302985
 31
0.0
  0
LINE
  5
2FB
330
1F
100
AcDbEntity
  8
DETAILS
  6
Continuous
 62
     7
370
    25
100
AcDbLine
 10
18.46116590231639
 20
26.68800595317725
 30
0.0
 11
27.88414159392431
 21
22.36198541961903
 31
0.0
  0
LINE
  5
2FC
330
1F
100
AcDbEntity
  8
DETAILS
  6
Continuous
 62
     7
370
    25
100
AcDbLine
 10
18.46116590231639
 20
30.81859006197919
 30
0.0
 11
25.44486324553167
 21
27.61270638138921
 31
0.0
  0
LINE
  5
2FD
330
1F
100
AcDbEntity
  8
DETAILS
  6
Continuous
 62
     7
370
    25
100
AcDbLine
 10
26.33079886421024
 20
25.06008503272005
 30
0.0
 11
20.34093523716933
 21
19.77286877492542
 31
0.0
  0
LINE
  5
2FE
330
1F
100
AcDbEntity
  8
DETAILS
  6
Continuous
 62
     7
370
    25
100
AcDbLine
 10
18.46116590231639
 20
26.68800595317725
 30
0.0
 11
18.46116590231639
 21
30.81859006197919
 31
0.0
  0
LINE
  5
2FF
330
1F
100
AcDbEntity
  8
DETAILS
  6
Continuous
 62
     7
370
    25
100
AcDbLine
 10
25.22085961485555
 20
24.96778288560244
 30
0.0
 11
26.58405960122354
 21
25.58567378851467
 31
0.0
  0
LINE
  5
300
330
1F
100
AcDbEntity
  8
DETAILS
  6
Continuous
 62
     7
370
    25
100
AcDbLine
 10
25.22085961485555
 20
24.96778288560244
 30
0.0
 11
27.88578137955386
 21
23.74433642328404
 31
0.0
  0
LINE
  5
301
330
1F
100
AcDbEntity
  8
DETAILS
  6
Continuous
 62
     7
370
    25
100
AcDbLine
 10
25.32085961485549
 20
25.12290234071542
 30
0.0
 11
26.58405960122357
 21
25.69546673914647
 31
0.0
  0
LINE
  5
302
330
1F
100
AcDbEntity
  8
DETAILS
  6
Continuous
 62
     7
370
    25
100
AcDbLine
 10
25.22085961485555
 20
24.96778288560244
 30
0.0
 11
25.22085961485555
 21
27.16725305199679
 31
0.0
  0
LINE
  5
303
330
1F
100
AcDbEntity
  8
DETAILS
  6
Continuous
 62
     7
370
    25
100
AcDbLine
 10
25.32085961485552
 20
25.12290234071497
 30
0.0
 11
25.32085961485552
 21
27.21257955647752
 31
0.0
  0
LINE
  5
304
330
1F
100
AcDbEntity
  8
DETAILS
  6
Continuous
 62
     7
370
    25
100
AcDbLine
 10
25.22085961485553
 20
27.16725305199679
 30
0.0
 11
25.32085961485555
 21
27.21257955647752
 31
0.0
  0
LINE
  5
305
330
1F
100
AcDbEntity
  8
DETAILS
  6
Continuous
 62
     7
370
    25
100
AcDbLine
 10
26.58405960122354
 20
25.58567378851467
 30
0.0
 11
26.58405960122354
 21
25.69570861128886
 31
0.0
  0
LINE
  5
306
330
1F
100
AcDbEntity
  8
DETAILS
  6
Continuous
 62
     7
370
    25
100
AcDbLine
 10
27.40436735728598
 20
9.706992120744873
 30
0.0
 11
27.86912986673002
 21
9.706992120743962
 31
0.0
  0
LINE
  5
307
330
1F
100
AcDbEntity
  8
DETAILS
  6
Continuous
 62
     7
370
    25
100
AcDbLine
 10
27.8866931480353
 20
24.51296376865639
 30
0.0
 11
27.86912986673002
 21
9.706992120744415
 31
0.0
  0
LINE
  5
308
330
1F
100
AcDbEntity
  8
DETAILS
  6
Continuous
 62
     7
370
    25
100
AcDbLine
 10
27.8066298667303
 20
9.331992120743962
 30
0.0
 11
27.80662986673021
 21
9.456992120744415
 31
0.0
  0
LINE
  5
309
330
1F
100
AcDbEntity
  8
DETAILS
  6
Continuous
 62
     7
370
    25
100
AcDbLine
 10
26.79704165448083
 20
7.133175641607523
 30
0.0
 11
27.4043673572861
 21
9.706992120745326
 31
0.0
  0
LINE
  5
30A
330
1F
100
AcDbEntity
  8
DETAILS
  6
Continuous
 62
     7
370
    25
100
AcDbLine
 10
26.91870063075927
 20
7.10446861301034
 30
0.0
 11
27.50330474598945
 21
9.581992120744415
 31
0.0
  0
CIRCLE
  5
30B
330
1F
100
AcDbEntity
  8
DETAILS
  6
Continuous
 62
     7
370
    25
100
AcDbCircle
 10
28.02746670272631
 20
24.20159161241554
 30
0.0
 40
0.2424746011815913
  0
LWPOLYLINE
  5
30C
330
1F
100
AcDbEntity
  8
DETAILS
  6
Continuous
 62
     7
370
    25
100
AcDbPolyline
 90
        3
 70
     1
 43
0.0
 10
27.88655786636455
 20
24.00432681093111
 10
27.88609010920652
 20
24.00459772666548
 10
27.88655786636455
 20
24.39892035348828
  0
LWPOLYLINE
  5
30D
330
1F
100
AcDbEntity
  8
DETAILS
  6
Continuous
 62
     7
370
    25
100
AcDbPolyline
 90
        3
 70
     1
 43
0.0
 10
27.88655786636455
 20
24.00432681093111
 10
27.88655786636455
 20
24.39892035348828
 10
27.9269476745481
 20
23.98093382942959
  0
LWPOLYLINE
  5
30E
330
1F
100
AcDbEntity
  8
DETAILS
  6
Continuous
 62
     7
370
    25
100
AcDbPolyline
 90
        3
 70
     1
 43
0.0
 10
27.9269476745481
 20
23.98093382942959
 10
27.88655786636455
 20
24.39892035348828
 10
27.9269476745481
 20
24.42220832995499
  0
LWPOLYLINE
  5
30F
330
1F
100
AcDbEntity
  8
DETAILS
  6
Continuous
 62
     7
370
    25
100
AcDbPolyline
 90
        3
 70
     1
 43
0.0
 10
27.9269476745481
 20
23.98093382942959
 10
27.9269476745481
 20
24.42220832995499
 10
27.92728439094802
 20
23.98081851938629
  0
LWPOLYLINE
  5
310
330
1F
100
AcDbEntity
  8
DETAILS
  6
Continuous
 62
     7
370
    25
100
AcDbPolyline
 90
        3
 70
     1
 43
0.0
 10
27.92728439094802
 20
23.98081851938629
 10
27.9269476745481
 20
24.42220832995499
 10
27.92728439094802
 20
24.4224024740708
  0
LWPOLYLINE
  5
311
330
1F
100
AcDbEntity
  8
DETAILS
  6
Continuous
 62
     7
370
    25
100
AcDbPolyline
 90
        3
 70
     1
 43
0.0
 10
27.92728439094802
 20
23.98081851938629
 10
27.92728439094802
 20
24.4224024740708
 10
27.97161667313796
 20
23.96563673025976
  0
LWPOLYLINE
  5
312
330
1F
100
AcDbEntity
  8
DETAILS
  6
Continuous
 62
     7
370
    25
100
AcDbPolyline
 90
        3
 70
     1
 43
0.0
 10
27.97161667313796
 20
23.96563673025976
 10
27.92728439094802
 20
24.4224024740708
 10
27.97161667313796
 20
24.43752970384171
  0
LWPOLYLINE
  5
313
330
1F
100
AcDbEntity
  8
DETAILS
  6
Continuous
 62
     7
370
    25
100
AcDbPolyline
 90
        3
 70
     1
 43
0.0
 10
27.97161667313796
 20
23.96563673025976
 10
27.97161667313796
 20
24.43752970384171
 10
27.97177676161028
 20
23.96561500174244
  0
LWPOLYLINE
  5
314
330
1F
100
AcDbEntity
  8
DETAILS
  6
Continuous
 62
     7
370
    25
100
AcDbPolyline
 90
        3
 70
     1
 43
0.0
 10
27.97177676161028
 20
23.96561500174244
 10
27.97161667313796
 20
24.43752970384171
 10
27.97177676161028
 20
24.4375843298385
  0
LWPOLYLINE
  5
315
330
1F
100
AcDbEntity
  8
DETAILS
  6
Continuous
 62
     7
370
    25
100
AcDbPolyline
 90
        3
 70
     1
 43
0.0
 10
27.97177676161028
 20
23.96561500174244
 10
27.97177676161028
 20
24.4375843298385
 10
28.01836251325624
 20
23.95929200235937
  0
LWPOLYLINE
  5
316
330
1F
100
AcDbEntity
  8
DETAILS
  6
Continuous
 62
     7
370
    25
100
AcDbPolyline
 90
        3
 70
     1
 43
0.0
 10
28.01836251325624
 20
23.95929200235937
 10
27.97177676161028
 20
24.4375843298385
 10
28.01836251325624
 20
24.44389523589706
  0
LWPOLYLINE
  5
317
330
1F
100
AcDbEntity
  8
DETAILS
  6
Continuous
 62
     7
370
    25
100
AcDbPolyline
 90
        3
 70
     1
 43
0.0
 10
28.01836251325624
 20
23.95929200235937
 10
28.01836251325624
 20
24.44389523589706
 10
28.0184033668901
 20
23.95928645736991
  0
LWPOLYLINE
  5
318
330
1F
100
AcDbEntity
  8
DETAILS
  6
Continuous
 62
     7
370
    25
100
AcDbPolyline
 90
        3
 70
     1
 43
0.0
 10
28.0184033668901
 20
23.95928645736991
 10
28.01836251325624
 20
24.44389523589706
 10
28.0184033668901
 20
24.44389280070472
  0
LWPOLYLINE
  5
319
330
1F
100
AcDbEntity
  8
DETAILS
  6
Continuous
 62
     7
370
    25
100
AcDbPolyline
 90
        3
 70
     1
 43
0.0
 10
28.0184033668901
 20
23.95928645736991
 10
28.0184033668901
 20
24.44389280070472
 10
28.06529049074635
 20
23.96210915454477
  0
LWPOLYLINE
  5
31A
330
1F
100
AcDbEntity
  8
DETAILS
  6
Continuous
 62
     7
370
    25
100
AcDbPolyline
 90
        3
 70
     1
 43
0.0
 10
28.06529049074635
 20
23.96210915454477
 10
28.0184033668901
 20
24.44389280070472
 10
28.06529049074635
 20
24.44109796573001
  0
LWPOLYLINE
  5
31B
330
1F
100
AcDbEntity
  8
DETAILS
  6
Continuous
 62
     7
370
    25
100
AcDbPolyline
 90
        3
 70
     1
 43
0.0
 10
28.06529049074635
 20
23.96210915454477
 10
28.06529049074635
 20
24.44109796573001
 10
28.06553371994906
 20
23.96212379742169
  0
LWPOLYLINE
  5
31C
330
1F
100
AcDbEntity
  8
DETAILS
  6
Continuous
 62
     7
370
    25
100
AcDbPolyline
 90
        3
 70
     1
 43
0.0
 10
28.06553371994906
 20
23.96212379742169
 10
28.06529049074635
 20
24.44109796573001
 10
28.06553371994906
 20
24.44103489349165
  0
LWPOLYLINE
  5
31D
330
1F
100
AcDbEntity
  8
DETAILS
  6
Continuous
 62
     7
370
    25
100
AcDbPolyline
 90
        3
 70
     1
 43
0.0
 10
28.06553371994906
 20
23.96212379742169
 10
28.06553371994906
 20
24.44103489349165
 10
28.11079667469554
 20
23.97393056808901
  0
LWPOLYLINE
  5
31E
330
1F
100
AcDbEntity
  8
DETAILS
  6
Continuous
 62
     7
370
    25
100
AcDbPolyline
 90
        3
 70
     1
 43
0.0
 10
28.11079667469554
 20
23.97393056808901
 10
28.06553371994906
 20
24.44103489349165
 10
28.11079667469554
 20
24.42929766852689
  0
LWPOLYLINE
  5
31F
330
1F
100
AcDbEntity
  8
DETAILS
  6
Continuous
 62
     7
370
    25
100
AcDbPolyline
 90
        3
 70
     1
 43
0.0
 10
28.11079667469554
 20
23.97393056808901
 10
28.11079667469554
 20
24.42929766852689
 10
28.11122066574738
 20
23.97404116548908
  0
LWPOLYLINE
  5
320
330
1F
100
AcDbEntity
  8
DETAILS
  6
Continuous
 62
     7
370
    25
100
AcDbPolyline
 90
        3
 70
     1
 43
0.0
 10
28.11122066574738
 20
23.97404116548908
 10
28.11079667469554
 20
24.42929766852689
 10
28.11122066574738
 20
24.42909394949928
  0
LWPOLYLINE
  5
321
330
1F
100
AcDbEntity
  8
DETAILS
  6
Continuous
 62
     7
370
    25
100
AcDbPolyline
 90
        3
 70
     1
 43
0.0
 10
28.11122066574738
 20
23.97404116548908
 10
28.11122066574738
 20
24.42909394949928
 10
28.15317049083832
 20
23.99431537267309
  0
LWPOLYLINE
  5
322
330
1F
100
AcDbEntity
  8
DETAILS
  6
Continuous
 62
     7
370
    25
100
AcDbPolyline
 90
        3
 70
     1
 43
0.0
 10
28.15317049083832
 20
23.99431537267309
 10
28.11122066574738
 20
24.42909394949928
 10
28.15317049083832
 20
24.40893791663258
  0
LWPOLYLINE
  5
323
330
1F
100
AcDbEntity
  8
DETAILS
  6
Continuous
 62
     7
370
    25
100
AcDbPolyline
 90
        3
 70
     1
 43
0.0
 10
28.15317049083832
 20
23.99431537267309
 10
28.15317049083832
 20
24.40893791663258
 10
28.15373186815543
 20
23.99458668441303
  0
LWPOLYLINE
  5
324
330
1F
100
AcDbEntity
  8
DETAILS
  6
Continuous
 62
     7
370
    25
100
AcDbPolyline
 90
        3
 70
     1
 43
0.0
 10
28.15373186815543
 20
23.99458668441303
 10
28.15317049083832
 20
24.40893791663258
 10
28.15373186815543
 20
24.40851811498835
  0
LWPOLYLINE
  5
325
330
1F
100
AcDbEntity
  8
DETAILS
  6
Continuous
 62
     7
370
    25
100
AcDbPolyline
 90
        3
 70
     1
 43
0.0
 10
28.15373186815543
 20
23.99458668441303
 10
28.15373186815543
 20
24.40851811498835
 10
28.19081911039551
 20
24.02250237598737
  0
LWPOLYLINE
  5
326
330
1F
100
AcDbEntity
  8
DETAILS
  6
Continuous
 62
     7
370
    25
100
AcDbPolyline
 90
        3
 70
     1
 43
0.0
 10
28.19081911039551
 20
24.02250237598737
 10
28.15373186815543
 20
24.40851811498835
 10
28.19081911039551
 20
24.38078403169396
  0
LWPOLYLINE
  5
327
330
1F
100
AcDbEntity
  8
DETAILS
  6
Continuous
 62
     7
370
    25
100
AcDbPolyline
 90
        3
 70
     1
 43
0.0
 10
28.19081911039551
 20
24.02250237598737
 10
28.19081911039551
 20
24.38078403169396
 10
28.19145540738827
 20
24.0229813188671
  0
LWPOLYLINE
  5
328
330
1F
100
AcDbEntity
  8
DETAILS
  6
Continuous
 62
     7
370
    25
100
AcDbPolyline
 90
        3
 70
     1
 43
0.0
 10
28.19145540738827
 20
24.0229813188671
 10
28.19081911039551
 20
24.38078403169396
 10
28.19145540738827
 20
24.38007944650229
  0
LWPOLYLINE
  5
329
330
1F
100
AcDbEntity
  8
DETAILS
  6
Continuous
 62
     7
370
    25
100
AcDbPolyline
 90
        3
 70
     1
 43
0.0
 10
28.19145540738827
 20
24.0229813188671
 10
28.19145540738827
 20
24.38007944650229
 10
28.22232732439643
 20
24.05744120397194
  0
LWPOLYLINE
  5
32A
330
1F
100
AcDbEntity
  8
DETAILS
  6
Continuous
 62
     7
370
    25
100
AcDbPolyline
 90
        3
 70
     1
 43
0.0
 10
28.22232732439643
 20
24.05744120397194
 10
28.19145540738827
 20
24.38007944650229
 10
28.22232732439643
 20
24.34589431627277
  0
LWPOLYLINE
  5
32B
330
1F
100
AcDbEntity
  8
DETAILS
  6
Continuous
 62
     7
370
    25
100
AcDbPolyline
 90
        3
 70
     1
 43
0.0
 10
28.22232732439643
 20
24.05744120397194
 10
28.22232732439643
 20
24.34589431627277
 10
28.22296090002219
 20
24.05814841445269
  0
LWPOLYLINE
  5
32C
330
1F
100
AcDbEntity
  8
DETAILS
  6
Continuous
 62
     7
370
    25
100
AcDbPolyline
 90
        3
 70
     1
 43
0.0
 10
28.22296090002219
 20
24.05814841445269
 10
28.22232732439643
 20
24.34589431627277
 10
28.22296090002219
 20
24.34483813815957
  0
LWPOLYLINE
  5
32D
330
1F
100
AcDbEntity
  8
DETAILS
  6
Continuous
 62
     7
370
    25
100
AcDbPolyline
 90
        3
 70
     1
 43
0.0
 10
28.22296090002219
 20
24.05814841445269
 10
28.22296090002219
 20
24.34483813815957
 10
28.24651074128495
 20
24.09783935820245
  0
LWPOLYLINE
  5
32E
330
1F
100
AcDbEntity
  8
DETAILS
  6
Continuous
 62
     7
370
    25
100
AcDbPolyline
 90
        3
 70
     1
 43
0.0
 10
28.24651074128495
 20
24.09783935820245
 10
28.22296090002219
 20
24.34483813815957
 10
28.24651074128495
 20
24.30558027232658
  0
LWPOLYLINE
  5
32F
330
1F
100
AcDbEntity
  8
DETAILS
  6
Continuous
 62
     7
370
    25
100
AcDbPolyline
 90
        3
 70
     1
 43
0.0
 10
28.24651074128495
 20
24.09783935820245
 10
28.24651074128495
 20
24.30558027232658
 10
28.24705373560079
 20
24.09875452177431
  0
LWPOLYLINE
  5
330
330
1F
100
AcDbEntity
  8
DETAILS
  6
Continuous
 62
     7
370
    25
100
AcDbPolyline
 90
        3
 70
     1
 43
0.0
 10
28.24705373560079
 20
24.09875452177431
 10
28.24651074128495
 20
24.30558027232658
 10
28.24705373560079
 20
24.30407472538576
  0
LWPOLYLINE
  5
331
330
1F
100
AcDbEntity
  8
DETAILS
  6
Continuous
 62
     7
370
    25
100
AcDbPolyline
 90
        3
 70
     1
 43
0.0
 10
28.24705373560079
 20
24.09875452177431
 10
28.24705373560079
 20
24.30407472538576
 10
28.26246030811504
 20
24.14224357987532
  0
LWPOLYLINE
  5
332
330
1F
100
AcDbEntity
  8
DETAILS
  6
Continuous
 62
     7
370
    25
100
AcDbPolyline
 90
        3
 70
     1
 43
0.0
 10
28.26246030811504
 20
24.14224357987532
 10
28.24705373560079
 20
24.30407472538576
 10
28.26246030811504
 20
24.26135730194204
  0
LWPOLYLINE
  5
333
330
1F
100
AcDbEntity
  8
DETAILS
  6
Continuous
 62
     7
370
    25
100
AcDbPolyline
 90
        3
 70
     1
 43
0.0
 10
28.26246030811504
 20
24.14224357987532
 10
28.26246030811504
 20
24.26135730194204
 10
28.2628203733126
 20
24.14325995754677
  0
LWPOLYLINE
  5
334
330
1F
100
AcDbEntity
  8
DETAILS
  6
Continuous
 62
     7
370
    25
100
AcDbPolyline
 90
        3
 70
     1
 43
0.0
 10
27.59904564912005
 20
25.34448471500984
 10
27.59857789196203
 20
25.3447556307442
 10
27.59904564912005
 20
25.73907825756714
  0
LWPOLYLINE
  5
335
330
1F
100
AcDbEntity
  8
DETAILS
  6
Continuous
 62
     7
370
    25
100
AcDbPolyline
 90
        3
 70
     1
 43
0.0
 10
27.59904564912005
 20
25.34448471500984
 10
27.59904564912005
 20
25.73907825756714
 10
27.63943545730362
 20
25.32109173350831
  0
LWPOLYLINE
  5
336
330
1F
100
AcDbEntity
  8
DETAILS
  6
Continuous
 62
     7
370
    25
100
AcDbPolyline
 90
        3
 70
     1
 43
0.0
 10
27.63943545730362
 20
25.32109173350831
 10
27.59904564912005
 20
25.73907825756714
 10
27.63943545730362
 20
25.76236623403386
  0
LWPOLYLINE
  5
337
330
1F
100
AcDbEntity
  8
DETAILS
  6
Continuous
 62
     7
370
    25
100
AcDbPolyline
 90
        3
 70
     1
 43
0.0
 10
27.63943545730362
 20
25.32109173350831
 10
27.63943545730362
 20
25.76236623403386
 10
27.63977217370352
 20
25.32097642346502
  0
LWPOLYLINE
  5
338
330
1F
100
AcDbEntity
  8
DETAILS
  6
Continuous
 62
     7
370
    25
100
AcDbPolyline
 90
        3
 70
     1
 43
0.0
 10
27.63977217370352
 20
25.32097642346502
 10
27.63943545730362
 20
25.76236623403386
 10
27.63977217370352
 20
25.76256037814965
  0
LWPOLYLINE
  5
339
330
1F
100
AcDbEntity
  8
DETAILS
  6
Continuous
 62
     7
370
    25
100
AcDbPolyline
 90
        3
 70
     1
 43
0.0
 10
27.63977217370352
 20
25.32097642346502
 10
27.63977217370352
 20
25.76256037814965
 10
27.68410445589349
 20
25.3057946343385
  0
LWPOLYLINE
  5
33A
330
1F
100
AcDbEntity
  8
DETAILS
  6
Continuous
 62
     7
370
    25
100
AcDbPolyline
 90
        3
 70
     1
 43
0.0
 10
27.68410445589349
 20
25.3057946343385
 10
27.63977217370352
 20
25.76256037814965
 10
27.68410445589349
 20
25.77768760792057
  0
LWPOLYLINE
  5
33B
330
1F
100
AcDbEntity
  8
DETAILS
  6
Continuous
 62
     7
370
    25
100
AcDbPolyline
 90
        3
 70
     1
 43
0.0
 10
27.68410445589349
 20
25.3057946343385
 10
27.68410445589349
 20
25.77768760792057
 10
27.68426454436579
 20
25.30577290582118
  0
LWPOLYLINE
  5
33C
330
1F
100
AcDbEntity
  8
DETAILS
  6
Continuous
 62
     7
370
    25
100
AcDbPolyline
 90
        3
 70
     1
 43
0.0
 10
27.68426454436579
 20
25.30577290582118
 10
27.68410445589349
 20
25.77768760792057
 10
27.68426454436579
 20
25.77774223391734
  0
LWPOLYLINE
  5
33D
330
1F
100
AcDbEntity
  8
DETAILS
  6
Continuous
 62
     7
370
    25
100
AcDbPolyline
 90
        3
 70
     1
 43
0.0
 10
27.68426454436579
 20
25.30577290582118
 10
27.68426454436579
 20
25.77774223391734
 10
27.73085029601175
 20
25.29944990643812
  0
LWPOLYLINE
  5
33E
330
1F
100
AcDbEntity
  8
DETAILS
  6
Continuous
 62
     7
370
    25
100
AcDbPolyline
 90
        3
 70
     1
 43
0.0
 10
27.73085029601175
 20
25.29944990643812
 10
27.68426454436579
 20
25.77774223391734
 10
27.73085029601175
 20
25.7840531399759
  0
LWPOLYLINE
  5
33F
330
1F
100
AcDbEntity
  8
DETAILS
  6
Continuous
 62
     7
370
    25
100
AcDbPolyline
 90
        3
 70
     1
 43
0.0
 10
27.73085029601175
 20
25.29944990643812
 10
27.73085029601175
 20
25.7840531399759
 10
27.73089114964564
 20
25.29944436144866
  0
LWPOLYLINE
  5
340
330
1F
100
AcDbEntity
  8
DETAILS
  6
Continuous
 62
     7
370
    25
100
AcDbPolyline
 90
        3
 70
     1
 43
0.0
 10
27.73089114964564
 20
25.29944436144866
 10
27.73085029601175
 20
25.7840531399759
 10
27.73089114964564
 20
25.78405070478356
  0
LWPOLYLINE
  5
341
330
1F
100
AcDbEntity
  8
DETAILS
  6
Continuous
 62
     7
370
    25
100
AcDbPolyline
 90
        3
 70
     1
 43
0.0
 10
27.73089114964564
 20
25.29944436144866
 10
27.73089114964564
 20
25.78405070478356
 10
27.77777827350186
 20
25.30226705862354
  0
LWPOLYLINE
  5
342
330
1F
100
AcDbEntity
  8
DETAILS
  6
Continuous
 62
     7
370
    25
100
AcDbPolyline
 90
        3
 70
     1
 43
0.0
 10
27.77777827350186
 20
25.30226705862354
 10
27.73089114964564
 20
25.78405070478356
 10
27.77777827350186
 20
25.78125586980884
  0
LWPOLYLINE
  5
343
330
1F
100
AcDbEntity
  8
DETAILS
  6
Continuous
 62
     7
370
    25
100
AcDbPolyline
 90
        3
 70
     1
 43
0.0
 10
27.77777827350186
 20
25.30226705862354
 10
27.77777827350186
 20
25.78125586980884
 10
27.77802150270461
 20
25.30228170150045
  0
LWPOLYLINE
  5
344
330
1F
100
AcDbEntity
  8
DETAILS
  6
Continuous
 62
     7
370
    25
100
AcDbPolyline
 90
        3
 70
     1
 43
0.0
 10
27.77802150270461
 20
25.30228170150045
 10
27.77777827350186
 20
25.78125586980884
 10
27.77802150270461
 20
25.78119279757048
  0
LWPOLYLINE
  5
345
330
1F
100
AcDbEntity
  8
DETAILS
  6
Continuous
 62
     7
370
    25
100
AcDbPolyline
 90
        3
 70
     1
 43
0.0
 10
27.77802150270461
 20
25.30228170150045
 10
27.77802150270461
 20
25.78119279757048
 10
27.82328445745105
 20
25.31408847216778
  0
LWPOLYLINE
  5
346
330
1F
100
AcDbEntity
  8
DETAILS
  6
Continuous
 62
     7
370
    25
100
AcDbPolyline
 90
        3
 70
     1
 43
0.0
 10
27.82328445745105
 20
25.31408847216778
 10
27.77802150270461
 20
25.78119279757048
 10
27.82328445745105
 20
25.76945557260572
  0
LWPOLYLINE
  5
347
330
1F
100
AcDbEntity
  8
DETAILS
  6
Continuous
 62
     7
370
    25
100
AcDbPolyline
 90
        3
 70
     1
 43
0.0
 10
27.82328445745105
 20
25.31408847216778
 10
27.82328445745105
 20
25.76945557260572
 10
27.82370844850294
 20
25.31419906956786
  0
LWPOLYLINE
  5
348
330
1F
100
AcDbEntity
  8
DETAILS
  6
Continuous
 62
     7
370
    25
100
AcDbPolyline
 90
        3
 70
     1
 43
0.0
 10
27.82370844850294
 20
25.31419906956786
 10
27.82328445745105
 20
25.76945557260572
 10
27.82370844850294
 20
25.76925185357808
  0
LWPOLYLINE
  5
349
330
1F
100
AcDbEntity
  8
DETAILS
  6
Continuous
 62
     7
370
    25
100
AcDbPolyline
 90
        3
 70
     1
 43
0.0
 10
27.82370844850294
 20
25.31419906956786
 10
27.82370844850294
 20
25.76925185357808
 10
27.86565827359382
 20
25.33447327675187
  0
LWPOLYLINE
  5
34A
330
1F
100
AcDbEntity
  8
DETAILS
  6
Continuous
 62
     7
370
    25
100
AcDbPolyline
 90
        3
 70
     1
 43
0.0
 10
27.86565827359382
 20
25.33447327675187
 10
27.82370844850294
 20
25.76925185357808
 10
27.86565827359382
 20
25.74909582071141
  0
LWPOLYLINE
  5
34B
330
1F
100
AcDbEntity
  8
DETAILS
  6
Continuous
 62
     7
370
    25
100
AcDbPolyline
 90
        3
 70
     1
 43
0.0
 10
27.86565827359382
 20
25.33447327675187
 10
27.86565827359382
 20
25.74909582071141
 10
27.86621965091098
 20
25.33474458849183
  0
LWPOLYLINE
  5
34C
330
1F
100
AcDbEntity
  8
DETAILS
  6
Continuous
 62
     7
370
    25
100
AcDbPolyline
 90
        3
 70
     1
 43
0.0
 10
27.86621965091098
 20
25.33474458849183
 10
27.86565827359382
 20
25.74909582071141
 10
27.86621965091098
 20
25.74867601906714
  0
LWPOLYLINE
  5
34D
330
1F
100
AcDbEntity
  8
DETAILS
  6
Continuous
 62
     7
370
    25
100
AcDbPolyline
 90
        3
 70
     1
 43
0.0
 10
27.86621965091098
 20
25.33474458849183
 10
27.86621965091098
 20
25.74867601906714
 10
27.903306893151
 20
25.36266028006615
  0
LWPOLYLINE
  5
34E
330
1F
100
AcDbEntity
  8
DETAILS
  6
Continuous
 62
     7
370
    25
100
AcDbPolyline
 90
        3
 70
     1
 43
0.0
 10
27.903306893151
 20
25.36266028006615
 10
27.86621965091098
 20
25.74867601906714
 10
27.903306893151
 20
25.72094193577278
  0
LWPOLYLINE
  5
34F
330
1F
100
AcDbEntity
  8
DETAILS
  6
Continuous
 62
     7
370
    25
100
AcDbPolyline
 90
        3
 70
     1
 43
0.0
 10
27.903306893151
 20
25.36266028006615
 10
27.903306893151
 20
25.72094193577278
 10
27.90394319014382
 20
25.36313922294592
  0
LWPOLYLINE
  5
350
330
1F
100
AcDbEntity
  8
DETAILS
  6
Continuous
 62
     7
370
    25
100
AcDbPolyline
 90
        3
 70
     1
 43
0.0
 10
27.90394319014382
 20
25.36313922294592
 10
27.903306893151
 20
25.72094193577278
 10
27.90394319014382
 20
25.72023735058105
  0
LWPOLYLINE
  5
351
330
1F
100
AcDbEntity
  8
DETAILS
  6
Continuous
 62
     7
370
    25
100
AcDbPolyline
 90
        3
 70
     1
 43
0.0
 10
27.90394319014382
 20
25.36313922294592
 10
27.90394319014382
 20
25.72023735058105
 10
27.93481510715192
 20
25.39759910805073
  0
LWPOLYLINE
  5
352
330
1F
100
AcDbEntity
  8
DETAILS
  6
Continuous
 62
     7
370
    25
100
AcDbPolyline
 90
        3
 70
     1
 43
0.0
 10
27.93481510715192
 20
25.39759910805073
 10
27.90394319014382
 20
25.72023735058105
 10
27.93481510715192
 20
25.68605222035159
  0
LWPOLYLINE
  5
353
330
1F
100
AcDbEntity
  8
DETAILS
  6
Continuous
 62
     7
370
    25
100
AcDbPolyline
 90
        3
 70
     1
 43
0.0
 10
27.93481510715192
 20
25.39759910805073
 10
27.93481510715192
 20
25.68605222035159
 10
27.93544868277773
 20
25.39830631853153
  0
LWPOLYLINE
  5
354
330
1F
100
AcDbEntity
  8
DETAILS
  6
Continuous
 62
     7
370
    25
100
AcDbPolyline
 90
        3
 70
     1
 43
0.0
 10
27.93544868277773
 20
25.39830631853153
 10
27.93481510715192
 20
25.68605222035159
 10
27.93544868277773
 20
25.68499604223831
  0
LWPOLYLINE
  5
355
330
1F
100
AcDbEntity
  8
DETAILS
  6
Continuous
 62
     7
370
    25
100
AcDbPolyline
 90
        3
 70
     1
 43
0.0
 10
27.93544868277773
 20
25.39830631853153
 10
27.93544868277773
 20
25.68499604223831
 10
27.95899852404044
 20
25.43799726228126
  0
LWPOLYLINE
  5
356
330
1F
100
AcDbEntity
  8
DETAILS
  6
Continuous
 62
     7
370
    25
100
AcDbPolyline
 90
        3
 70
     1
 43
0.0
 10
27.95899852404044
 20
25.43799726228126
 10
27.93544868277773
 20
25.68499604223831
 10
27.95899852404044
 20
25.64573817640539
  0
LWPOLYLINE
  5
357
330
1F
100
AcDbEntity
  8
DETAILS
  6
Continuous
 62
     7
370
    25
100
AcDbPolyline
 90
        3
 70
     1
 43
0.0
 10
27.95899852404044
 20
25.43799726228126
 10
27.95899852404044
 20
25.64573817640539
 10
27.95954151835631
 20
25.43891242585317
  0
LWPOLYLINE
  5
358
330
1F
100
AcDbEntity
  8
DETAILS
  6
Continuous
 62
     7
370
    25
100
AcDbPolyline
 90
        3
 70
     1
 43
0.0
 10
27.95954151835631
 20
25.43891242585317
 10
27.95899852404044
 20
25.64573817640539
 10
27.95954151835631
 20
25.64423262946448
  0
LWPOLYLINE
  5
359
330
1F
100
AcDbEntity
  8
DETAILS
  6
Continuous
 62
     7
370
    25
100
AcDbPolyline
 90
        3
 70
     1
 43
0.0
 10
27.95954151835631
 20
25.43891242585317
 10
27.95954151835631
 20
25.64423262946448
 10
27.97494809087052
 20
25.48240148395412
  0
LWPOLYLINE
  5
35A
330
1F
100
AcDbEntity
  8
DETAILS
  6
Continuous
 62
     7
370
    25
100
AcDbPolyline
 90
        3
 70
     1
 43
0.0
 10
27.97494809087052
 20
25.48240148395412
 10
27.95954151835631
 20
25.64423262946448
 10
27.97494809087052
 20
25.60151520602085
  0
LWPOLYLINE
  5
35B
330
1F
100
AcDbEntity
  8
DETAILS
  6
Continuous
 62
     7
370
    25
100
AcDbPolyline
 90
        3
 70
     1
 43
0.0
 10
27.97494809087052
 20
25.48240148395412
 10
27.97494809087052
 20
25.60151520602085
 10
27.97530815606811
 20
25.48341786162564
  0
LINE
  5
35C
330
1F
100
AcDbEntity
  8
DETAILS
  6
Continuous
 62
     7
370
    25
100
AcDbLine
 10
32.72046266560119
 20
19.84630290665018
 30
0.0
 11
43.78705692926451
 21
12.7004540259245
 31
0.0
  0
LINE
  5
35D
330
1F
100
AcDbEntity
  8
DETAILS
  6
Continuous
 62
     7
370
    25
100
AcDbLine
 10
39.29862151841451
 20
13.80889544372257
 30
0.0
 11
38.54833660301238
 21
14.14910947114413
 31
0.0
  0
LINE
  5
35E
330
1F
100
AcDbEntity
  8
DETAILS
  6
Continuous
 62
     7
370
    25
100
AcDbLine
 10
40.11205667676671
 20
26.45656360229213
 30
0.0
 11
33.98630865197242
 21
29.2338218515556
 31
0.0
  0
LINE
  5
35F
330
1F
100
AcDbEntity
  8
DETAILS
  6
Continuous
 62
     7
370
    25
100
AcDbLine
 10
40.66103924500208
 20
26.70523317667857
 30
0.0
 11
34.53590043469825
 21
29.48293259558295
 31
0.0
  0
LINE
  5
360
330
1F
100
AcDbEntity
  8
DETAILS
  6
Continuous
 62
     7
370
    25
100
AcDbLine
 10
40.66138514115033
 20
28.11128154824245
 30
0.0
 11
36.08666569300237
 21
30.18584027988481
 31
0.0
  0
LINE
  5
361
330
1F
100
AcDbEntity
  8
DETAILS
  6
Continuous
 62
     7
370
    25
100
AcDbLine
 10
40.6613851411505
 20
15.83274996893851
 30
0.0
 11
38.54833660301244
 21
16.79088917311719
 31
0.0
  0
LINE
  5
362
330
1F
100
AcDbEntity
  8
DETAILS
  6
Continuous
 62
     7
370
    25
100
AcDbLine
 10
40.6613851411505
 20
14.42678634663479
 30
0.0
 11
38.5483366030125
 21
15.38498096340981
 31
0.0
  0
LINE
  5
363
330
1F
100
AcDbEntity
  8
DETAILS
  6
Continuous
 62
     7
370
    25
100
AcDbLine
 10
34.69432490192252
 20
21.72397944903877
 30
0.0
 11
41.79857947385357
 21
19.77605726885849
 31
0.0
  0
LINE
  5
364
330
1F
100
AcDbEntity
  8
DETAILS
  6
Continuous
 62
     7
370
    25
100
AcDbLine
 10
38.54833660301244
 20
14.14946260649276
 30
0.0
 11
29.02287519449828
 21
18.46874921656808
 31
0.0
  0
LINE
  5
365
330
1F
100
AcDbEntity
  8
DETAILS
  6
Continuous
 62
     7
370
    25
100
AcDbLine
 10
38.54833660301238
 20
15.38542011959953
 30
0.0
 11
29.27780815764856
 21
19.58928495785585
 31
0.0
  0
LINE
  5
366
330
1F
100
AcDbEntity
  8
DETAILS
  6
Continuous
 62
     7
370
    25
100
AcDbLine
 10
38.54833660301238
 20
16.79120996121582
 30
0.0
 11
29.56768018478692
 21
20.86339232629416
 31
0.0
  0
LINE
  5
367
330
1F
100
AcDbEntity
  8
DETAILS
  6
Continuous
 62
     7
370
    25
100
AcDbLine
 10
29.02287519449828
 20
18.46874921656808
 30
0.0
 11
28.27909301952786
 21
18.80601459945955
 31
0.0
  0
LINE
  5
368
330
1F
100
AcDbEntity
  8
DETAILS
  6
Continuous
 62
     7
370
    25
100
AcDbLine
 10
29.34443440103564
 20
23.074679286432
 30
0.0
 11
30.70763438740363
 21
23.69257018934422
 31
0.0
  0
LINE
  5
369
330
1F
100
AcDbEntity
  8
DETAILS
  6
Continuous
 62
     7
370
    25
100
AcDbLine
 10
29.34443440103567
 20
24.42844034539075
 30
0.0
 11
29.34443440103564
 21
25.36538523984245
 31
0.0
  0
LINE
  5
36A
330
1F
100
AcDbEntity
  8
DETAILS
  6
Continuous
 62
     7
370
    25
100
AcDbLine
 10
30.70763438740363
 20
23.69257018934422
 30
0.0
 11
30.70763438740363
 21
23.80260501211887
 31
0.0
  0
LINE
  5
36B
330
1F
100
AcDbEntity
  8
DETAILS
  6
Continuous
 62
     7
370
    25
100
AcDbLine
 10
28.36933214322132
 20
9.331992120744415
 30
0.0
 11
28.36933214322124
 21
9.456992120744873
 31
0.0
  0
LINE
  5
36C
330
1F
100
AcDbEntity
  8
DETAILS
  6
Continuous
 62
     7
370
    25
100
AcDbLine
 10
28.75650298763798
 20
9.706992120744873
 30
0.0
 11
28.30683372884852
 21
9.707373229572568
 31
0.0
  0
LINE
  5
36D
330
1F
100
AcDbEntity
  8
DETAILS
  6
Continuous
 62
     7
370
    25
100
AcDbLine
 10
28.75650298763798
 20
9.706992120744873
 30
0.0
 11
29.3183446941857
 21
7.193023275748602
 31
0.0
  0
LINE
  5
36E
330
1F
100
AcDbEntity
  8
DETAILS
  6
Continuous
 62
     7
370
    25
100
AcDbLine
 10
28.68429132830442
 20
9.456992120744873
 30
0.0
 11
29.19635409792354
 21
7.165759849265214
 31
0.0
  0
LINE
  5
36F
330
1F
100
AcDbEntity
  8
DETAILS
  6
Continuous
 62
     7
370
    25
100
AcDbLine
 10
35.47623098671033
 20
18.13658242404699
 30
0.0
 11
36.28723865162118
 21
18.50418384962767
 31
0.0
  0
LINE
  5
370
330
1F
100
AcDbEntity
  8
DETAILS
  6
Continuous
 62
     7
370
    25
100
AcDbLine
 10
36.28723865162118
 20
18.50418384962767
 30
0.0
 11
36.28723865162118
 21
22.63548691368396
 31
0.0
  0
LINE
  5
371
330
1F
100
AcDbEntity
  8
DETAILS
  6
Continuous
 62
     7
370
    25
100
AcDbLine
 10
40.6613851411505
 20
26.70538985532948
 30
0.0
 11
40.6613851411505
 21
28.11135347763365
 31
0.0
  0
LINE
  5
372
330
1F
100
AcDbEntity
  8
DETAILS
  6
Continuous
 62
     7
370
    25
100
AcDbLine
 10
40.10938514667048
 20
26.45535349419333
 30
0.0
 11
40.10938514667048
 21
16.08304844806525
 31
0.0
  0
LINE
  5
373
330
1F
100
AcDbEntity
  8
DETAILS
  6
Continuous
 62
     7
370
    25
100
AcDbLine
 10
40.6613851411505
 20
26.70538985532948
 30
0.0
 11
40.10938514667048
 21
26.45535349419333
 31
0.0
  0
LINE
  5
374
330
1F
100
AcDbEntity
  8
DETAILS
  6
Continuous
 62
     7
370
    25
100
AcDbLine
 10
40.6613851411505
 20
14.42678634663479
 30
0.0
 11
40.6613851411505
 21
15.83274996893851
 31
0.0
  0
LINE
  5
375
330
1F
100
AcDbEntity
  8
DETAILS
  6
Continuous
 62
     7
370
    25
100
AcDbLine
 10
40.6613851411505
 20
14.42678634663479
 30
0.0
 11
39.29862151841451
 21
13.80889544372257
 31
0.0
  0
LINE
  5
376
330
1F
100
AcDbEntity
  8
DETAILS
  6
Continuous
 62
     7
370
    25
100
AcDbLine
 10
52.80919477261767
 20
52.76290744651714
 30
0.0
 11
52.80919477261767
 21
-0.0000011167626326
 31
0.0
  0
TEXT
  5
377
330
1F
100
AcDbEntity
  8
DETAILS
 62
     7
370
    25
100
AcDbText
 10
42.35631076992797
 20
19.49634381828186
 30
0.0
 40
1.2
  1
2x6 Block 
  7
Arial
 11
42.35631076992797
 21
19.14125290919095
 31
0.0
100
AcDbText
 73
     1
  0
TEXT
  5
378
330
1F
100
AcDbEntity
  8
DETAILS
 62
     7
370
    25
100
AcDbText
 10
1.930323783709127
 20
0.7158961636311192
 30
0.0
 40
1.2
  1
Verify hanger capacity with manufacturer.
  7
Arial
 11
1.930323783709127
 21
0.3608052545402101
 31
0.0
100
AcDbText
 73
     1
  0
TEXT
  5
379
330
1F
100
AcDbEntity
  8
DETAILS
 62
     7
370
    25
100
AcDbText
 10
5.741513423794117
 20
49.69075275669731
 30
0.0
 40
1.75
  1
SPRINKLER SUPPORT
  7
Arial
 11
5.741513423794117
 21
49.1729118476064
 31
0.0
100
AcDbText
 73
     1
  0
TEXT
  5
37A
330
1F
100
AcDbEntity
  8
DETAILS
 62
     7
370
    25
100
AcDbText
 10
5.853480759893841
 20
46.78296369208912
 30
0.0
 40
1.19
  1
Assembly Capacity 90 lbs.
  7
Arial
 11
5.853480759893841
 21
46.4308318739073
 31
0.0
100
AcDbText
 73
     1
  0
TEXT
  5
37B
330
1F
100
AcDbEntity
  8
DETAILS
 62
     7
370
    25
100
AcDbText
 10
5.999234160240689
 20
18.38324325278939
 30
0.0
 40
1.2
  1
Side beam bracket
  7
Arial
 11
5.999234160240689
 21
18.02815234369849
 31
0.0
100
AcDbText
 73
     1
  0
TEXT
  5
37C
330
1F
100
AcDbEntity
  8
DETAILS
 62
     7
370
    25
100
AcDbText
 10
1.347835537956996
 20
49.733501637418
 30
0.0
 40
1.7
  1
S9
  7
Arial
 11
1.347835537956996
 21
49.23045618287254
 31
0.0
100
AcDbText
 73
     1
  0
TEXT
  5
37D
330
1F
100
AcDbEntity
  8
DETAILS
 62
     7
370
    25
100
AcDbText
 10
38.74816344342164
 20
12.19265452339046
 30
0.0
 40
1.2
  1
1/8" minimal 
  7
Arial
 11
38.74816344342164
 21
13.39265452339046
 31
0.0
100
AcDbText
 73
     3
  0
TEXT
  5
37E
330
1F
100
AcDbEntity
  8
DETAILS
 62
     7
370
    25
100
AcDbText
 10
38.42941344342164
 20
10.30265452339046
 30
0.0
 40
1.2
  1
gap between 
  7
Arial
 11
38.42941344342164
 21
11.50265452339046
 31
0.0
100
AcDbText
 73
     3
  0
TEXT
  5
37F
330
1F
100
AcDbEntity
  8
DETAILS
 62
     7
370
    25
100
AcDbText
 10
40.71691344342164
 20
8.412654523390461
 30
0.0
 40
1.2
  1
block and 
  7
Arial
 11
40.71691344342164
 21
9.61265452339046
 31
0.0
100
AcDbText
 73
     3
  0
TEXT
  5
380
330
1F
100
AcDbEntity
  8
DETAILS
 62
     7
370
    25
100
AcDbText
 10
43.69816344342163
 20
6.52265452339046
 30
0.0
 40
1.2
  1
flange
  7
Arial
 11
43.69816344342163
 21
7.72265452339046
 31
0.0
100
AcDbText
 73
     3
  0
TEXT
  5
381
330
1F
100
AcDbEntity
  8
DETAILS
 62
     7
370
    25
100
AcDbText
 10
34.78766358380017
 20
37.24836936951846
 30
0.0
 40
1.2
  1
3/8" minimal 
  7
Arial
 11
34.78766358380017
 21
38.44836936951847
 31
0.0
100
AcDbText
 73
     3
  0
TEXT
  5
382
330
1F
100
AcDbEntity
  8
DETAILS
 62
     7
370
    25
100
AcDbText
 10
34.78766358380017
 20
35.35836936951846
 30
0.0
 40
1.2
  1
machine bolt 
  7
Arial
 11
34.78766358380017
 21
36.55836936951847
 31
0.0
100
AcDbText
 73
     3
  0
TEXT
  5
383
330
1F
100
AcDbEntity
  8
DETAILS
 62
     7
370
    25
100
AcDbText
 10
34.78766358380017
 20
33.46836936951846
 30
0.0
 40
1.2
  1
through web
  7
Arial
 11
34.78766358380017
 21
34.66836936951847
 31
0.0
100
AcDbText
 73
     3
  0
INSERT
  5
384
330
1F
100
AcDbEntity
  8
DETAILS
  6
ByBlock
 62
     7
100
AcDbBlockReference
  2
HATCH_0_6f987ba7-3a7e-4f82-93e6-b9e50c026efc
 10
0.0
 20
0.0
 30
0.0
  0
INSERT
  5
385
330
1F
100
AcDbEntity
  8
DETAILS
  6
ByBlock
 62
     7
100
AcDbBlockReference
  2
HATCH_1_988cbed1-c23e-4fa9-b4b8-268351eecad5
 10
0.0
 20
0.0
 30
0.0
  0
INSERT
  5
386
330
1F
100
AcDbEntity
  8
DETAILS
  6
ByBlock
 62
     7
100
AcDbBlockReference
  2
HATCH_2_38229203-6e0d-4869-8798-75830d8d3c92
 10
0.0
 20
0.0
 30
0.0
  0
INSERT
  5
387
330
1F
100
AcDbEntity
  8
DETAILS
  6
ByBlock
 62
     7
100
AcDbBlockReference
  2
HATCH_3_329e22f8-466a-4580-9447-5eef95249266
 10
0.0
 20
0.0
 30
0.0
  0
INSERT
  5
388
330
1F
100
AcDbEntity
  8
DETAILS
  6
ByBlock
 62
     7
100
AcDbBlockReference
  2
HATCH_4_c77fb018-f668-454c-a0df-96a6b1f0cb71
 10
0.0
 20
0.0
 30
0.0
  0
INSERT
  5
389
330
1F
100
AcDbEntity
  8
DETAILS
  6
ByBlock
 62
     7
100
AcDbBlockReference
  2
HATCH_5_8cfec318-7174-48d4-8431-a9c32bbb7e78
 10
0.0
 20
0.0
 30
0.0
  0
INSERT
  5
38A
330
1F
100
AcDbEntity
  8
DETAILS
  6
ByBlock
 62
     7
100
AcDbBlockReference
  2
HATCH_6_5ec45905-f77e-434b-99d9-affbd495df8b
 10
0.0
 20
0.0
 30
0.0
  0
INSERT
  5
38B
330
1F
100
AcDbEntity
  8
DETAILS
  6
ByBlock
 62
     7
100
AcDbBlockReference
  2
HATCH_7_5370f923-a532-4cfb-997a-6741ee463ed3
 10
0.0
 20
0.0
 30
0.0
  0
INSERT
  5
38C
330
1F
100
AcDbEntity
  8
DETAILS
  6
ByBlock
 62
     7
100
AcDbBlockReference
  2
HATCH_8_47aea538-f59b-4640-a70e-1774f82b4478
 10
0.0
 20
0.0
 30
0.0
  0
INSERT
  5
38D
330
1F
100
AcDbEntity
  8
DETAILS
  6
ByBlock
 62
     7
100
AcDbBlockReference
  2
HATCH_9_a11a2e0c-e45e-4cf7-a29a-09b95e9d96db
 10
0.0
 20
0.0
 30
0.0
  0
INSERT
  5
38E
330
1F
100
AcDbEntity
  8
DETAILS
  6
ByBlock
 62
     7
100
AcDbBlockReference
  2
HATCH_10_61fe3fd5-36ed-463a-8a36-106d841612df
 10
0.0
 20
0.0
 30
0.0
  0
INSERT
  5
38F
330
1F
100
AcDbEntity
  8
DETAILS
  6
ByBlock
 62
     7
100
AcDbBlockReference
  2
HATCH_11_8f7e2a4e-7116-4e3f-918d-6892b063f67c
 10
0.0
 20
0.0
 30
0.0
  0
INSERT
  5
390
330
1F
100
AcDbEntity
  8
DETAILS
  6
ByBlock
 62
     7
100
AcDbBlockReference
  2
HATCH_12_c997b9cc-4c83-47b8-8f60-6ff811229d9b
 10
0.0
 20
0.0
 30
0.0
  0
INSERT
  5
391
330
1F
100
AcDbEntity
  8
DETAILS
  6
ByBlock
 62
     7
100
AcDbBlockReference
  2
HATCH_13_02fdff9a-97ea-44ae-a94b-72df23a2690a
 10
0.0
 20
0.0
 30
0.0
  0
INSERT
  5
392
330
1F
100
AcDbEntity
  8
DETAILS
  6
ByBlock
 62
     7
100
AcDbBlockReference
  2
HATCH_14_6791fefb-463c-4c99-a704-8b4ec675bd26
 10
0.0
 20
0.0
 30
0.0
  0
INSERT
  5
393
330
1F
100
AcDbEntity
  8
DETAILS
  6
ByBlock
 62
     7
100
AcDbBlockReference
  2
HATCH_15_16b25f0c-899b-4f75-806e-d5de00a81e08
 10
0.0
 20
0.0
 30
0.0
  0
INSERT
  5
394
330
1F
100
AcDbEntity
  8
DETAILS
  6
ByBlock
 62
     7
100
AcDbBlockReference
  2
HATCH_16_f6c41b1f-45ff-4aa2-afa8-ad5987a39ee4
 10
0.0
 20
0.0
 30
0.0
  0
INSERT
  5
395
330
1F
100
AcDbEntity
  8
DETAILS
  6
ByBlock
 62
     7
100
AcDbBlockReference
  2
HATCH_17_a2c804ae-bb89-4950-996d-1d74926fa225
 10
0.0
 20
0.0
 30
0.0
  0
INSERT
  5
396
330
1F
100
AcDbEntity
  8
DETAILS
  6
ByBlock
 62
     7
100
AcDbBlockReference
  2
HATCH_18_250d1eda-28a4-467b-9883-18bcf6279f8b
 10
0.0
 20
0.0
 30
0.0
  0
INSERT
  5
397
330
1F
100
AcDbEntity
  8
DETAILS
  6
ByBlock
 62
     7
100
AcDbBlockReference
  2
HATCH_19_6bac7dc0-02c1-458c-af93-91ce0f476787
 10
0.0
 20
0.0
 30
0.0
  0
INSERT
  5
398
330
1F
100
AcDbEntity
  8
DETAILS
  6
ByBlock
 62
     7
100
AcDbBlockReference
  2
HATCH_20_b4e708a5-ea45-4a77-8313-16280b734b07
 10
0.0
 20
0.0
 30
0.0
  0
INSERT
  5
399
330
1F
100
AcDbEntity
  8
DETAILS
  6
ByBlock
 62
     7
100
AcDbBlockReference
  2
HATCH_21_a23e8668-f4c9-4a0c-bf86-302d00220305
 10
0.0
 20
0.0
 30
0.0
  0
INSERT
  5
39A
330
1F
100
AcDbEntity
  8
DETAILS
  6
ByBlock
 62
     7
100
AcDbBlockReference
  2
HATCH_22_c405cc4c-f53e-49b6-86ec-43563eb131fe
 10
0.0
 20
0.0
 30
0.0
  0
INSERT
  5
39B
330
1F
100
AcDbEntity
  8
DETAILS
  6
ByBlock
 62
     7
100
AcDbBlockReference
  2
HATCH_23_665baf85-f6f5-4595-85ab-da1a4bbec3a6
 10
0.0
 20
0.0
 30
0.0
  0
INSERT
  5
39C
330
1F
100
AcDbEntity
  8
DETAILS
  6
ByBlock
 62
     7
100
AcDbBlockReference
  2
HATCH_24_8af4e9cc-3cd7-419e-9a48-04a12c97de44
 10
0.0
 20
0.0
 30
0.0
  0
INSERT
  5
39D
330
1F
100
AcDbEntity
  8
DETAILS
  6
ByBlock
 62
     7
100
AcDbBlockReference
  2
HATCH_25_3f47b1d1-1f70-41ad-af49-18056806e4fe
 10
0.0
 20
0.0
 30
0.0
  0
INSERT
  5
39E
330
1F
100
AcDbEntity
  8
DETAILS
  6
ByBlock
 62
     7
100
AcDbBlockReference
  2
HATCH_26_55db9555-5569-4bcc-b44a-f0ce3174a0bd
 10
0.0
 20
0.0
 30
0.0
  0
INSERT
  5
39F
330
1F
100
AcDbEntity
  8
DETAILS
  6
ByBlock
 62
     7
100
AcDbBlockReference
  2
HATCH_27_4a997817-1f5e-4da0-8927-66b56758836a
 10
0.0
 20
0.0
 30
0.0
  0
INSERT
  5
3A0
330
1F
100
AcDbEntity
  8
DETAILS
  6
ByBlock
 62
     7
100
AcDbBlockReference
  2
HATCH_28_5ea42ea4-1922-4a72-8c95-411376dfcd01
 10
0.0
 20
0.0
 30
0.0
  0
INSERT
  5
3A1
330
1F
100
AcDbEntity
  8
DETAILS
  6
ByBlock
 62
     7
100
AcDbBlockReference
  2
HATCH_29_1e334941-3fe4-4db9-b9b0-edbb89f2d3ed
 10
0.0
 20
0.0
 30
0.0
  0
INSERT
  5
3A2
330
1F
100
AcDbEntity
  8
DETAILS
  6
ByBlock
 62
     7
100
AcDbBlockReference
  2
HATCH_30_d2a604a6-115e-4c16-995a-88a56d50be65
 10
0.0
 20
0.0
 30
0.0
  0
INSERT
  5
3A3
330
1F
100
AcDbEntity
  8
DETAILS
  6
ByBlock
 62
     7
100
AcDbBlockReference
  2
HATCH_31_1f81442b-f85e-42f2-b688-e8f391cc3a62
 10
0.0
 20
0.0
 30
0.0
  0
INSERT
  5
3A4
330
1F
100
AcDbEntity
  8
DETAILS
  6
ByBlock
 62
     7
100
AcDbBlockReference
  2
HATCH_32_b97c0beb-4f70-4dde-bbe3-3dac695e95ec
 10
0.0
 20
0.0
 30
0.0
  0
INSERT
  5
3A5
330
1F
100
AcDbEntity
  8
DETAILS
  6
ByBlock
 62
     7
100
AcDbBlockReference
  2
HATCH_33_f3ffca2b-1294-49dd-81e3-b56d1941a781
 10
0.0
 20
0.0
 30
0.0
  0
INSERT
  5
3A6
330
1F
100
AcDbEntity
  8
DETAILS
  6
ByBlock
 62
     7
100
AcDbBlockReference
  2
HATCH_34_408b37db-3a23-48ec-b0eb-288645dccf11
 10
0.0
 20
0.0
 30
0.0
  0
INSERT
  5
3A7
330
1F
100
AcDbEntity
  8
DETAILS
  6
ByBlock
 62
     7
100
AcDbBlockReference
  2
HATCH_35_bcb8cde5-6b55-4f80-ace8-f6e1af5ea752
 10
0.0
 20
0.0
 30
0.0
  0
INSERT
  5
3A8
330
1F
100
AcDbEntity
  8
DETAILS
  6
ByBlock
 62
     7
100
AcDbBlockReference
  2
HATCH_36_3c74768d-5892-471e-87ae-5a341f64de75
 10
0.0
 20
0.0
 30
0.0
  0
INSERT
  5
3A9
330
1F
100
AcDbEntity
  8
DETAILS
  6
ByBlock
 62
     7
100
AcDbBlockReference
  2
HATCH_37_5e31d73f-5558-41b2-8592-bbb1534cd74d
 10
0.0
 20
0.0
 30
0.0
  0
INSERT
  5
3AA
330
1F
100
AcDbEntity
  8
DETAILS
  6
ByBlock
 62
     7
100
AcDbBlockReference
  2
HATCH_38_66c485ab-872d-470a-8f3c-094c17f6688d
 10
0.0
 20
0.0
 30
0.0
  0
INSERT
  5
3AB
330
1F
100
AcDbEntity
  8
DETAILS
  6
ByBlock
 62
     7
100
AcDbBlockReference
  2
HATCH_39_901402b4-af31-4755-921c-7131b668b403
 10
0.0
 20
0.0
 30
0.0
  0
INSERT
  5
3AC
330
1F
100
AcDbEntity
  8
DETAILS
  6
ByBlock
 62
     7
100
AcDbBlockReference
  2
HATCH_40_d95357ae-f040-427a-bc54-fc8454ba18fe
 10
0.0
 20
0.0
 30
0.0
  0
INSERT
  5
3AD
330
1F
100
AcDbEntity
  8
DETAILS
  6
ByBlock
 62
     7
100
AcDbBlockReference
  2
HATCH_41_32f01af0-085e-415a-b894-28042b2c3bd3
 10
0.0
 20
0.0
 30
0.0
  0
INSERT
  5
3AE
330
1F
100
AcDbEntity
  8
DETAILS
  6
ByBlock
 62
     7
100
AcDbBlockReference
  2
HATCH_42_6456e5f3-2973-4d8b-9f45-3309ca617e20
 10
0.0
 20
0.0
 30
0.0
  0
INSERT
  5
3AF
330
1F
100
AcDbEntity
  8
DETAILS
  6
ByBlock
 62
     7
100
AcDbBlockReference
  2
HATCH_43_02dd7050-aa5c-4a91-85db-b8a94a71af67
 10
0.0
 20
0.0
 30
0.0
  0
INSERT
  5
3B0
330
1F
100
AcDbEntity
  8
DETAILS
  6
ByBlock
 62
     7
100
AcDbBlockReference
  2
HATCH_44_fab2168f-cd74-4497-a9b0-d22c1a4dbdf1
 10
0.0
 20
0.0
 30
0.0
  0
INSERT
  5
3B1
330
1F
100
AcDbEntity
  8
DETAILS
  6
ByBlock
 62
     7
100
AcDbBlockReference
  2
HATCH_45_5a4d1de1-85cc-4dac-ac94-09af7ebc2b31
 10
0.0
 20
0.0
 30
0.0
  0
INSERT
  5
3B2
330
1F
100
AcDbEntity
  8
DETAILS
  6
ByBlock
 62
     7
100
AcDbBlockReference
  2
HATCH_46_c4e83b32-1806-4b5a-b0a5-0ddc8db85b46
 10
0.0
 20
0.0
 30
0.0
  0
INSERT
  5
3B3
330
1F
100
AcDbEntity
  8
DETAILS
  6
ByBlock
 62
     7
100
AcDbBlockReference
  2
HATCH_47_5b99696c-ea53-491e-809f-2223c43bcaf4
 10
0.0
 20
0.0
 30
0.0
  0
INSERT
  5
3B4
330
1F
100
AcDbEntity
  8
DETAILS
  6
ByBlock
 62
     7
100
AcDbBlockReference
  2
HATCH_48_61a6e052-2569-405a-9be4-f0914b461d71
 10
0.0
 20
0.0
 30
0.0
  0
INSERT
  5
3B5
330
1F
100
AcDbEntity
  8
DETAILS
  6
ByBlock
 62
     7
100
AcDbBlockReference
  2
HATCH_49_0521ffcb-2a5a-486f-900d-d333f3878116
 10
0.0
 20
0.0
 30
0.0
  0
INSERT
  5
3B6
330
1F
100
AcDbEntity
  8
DETAILS
  6
ByBlock
 62
     7
100
AcDbBlockReference
  2
HATCH_50_d2bb9f02-ab06-4df2-8b1c-4f37083add6d
 10
0.0
 20
0.0
 30
0.0
  0
INSERT
  5
3B7
330
1F
100
AcDbEntity
  8
DETAILS
  6
ByBlock
 62
     7
100
AcDbBlockReference
  2
HATCH_51_8871c7e2-cd85-40fa-97f1-456087cb2bff
 10
0.0
 20
0.0
 30
0.0
  0
INSERT
  5
3B8
330
1F
100
AcDbEntity
  8
DETAILS
  6
ByBlock
 62
     7
100
AcDbBlockReference
  2
HATCH_52_fb16b5c3-f61c-4b71-8bfd-75ffb4231af3
 10
0.0
 20
0.0
 30
0.0
  0
INSERT
  5
3B9
330
1F
100
AcDbEntity
  8
DETAILS
  6
ByBlock
 62
     7
100
AcDbBlockReference
  2
HATCH_53_b6e0069e-c794-45e1-a9fd-d396a5589eb8
 10
0.0
 20
0.0
 30
0.0
  0
INSERT
  5
3BA
330
1F
100
AcDbEntity
  8
DETAILS
  6
ByBlock
 62
     7
100
AcDbBlockReference
  2
HATCH_54_a20b881b-e547-4bb0-bcb7-10d0328f550b
 10
0.0
 20
0.0
 30
0.0
  0
INSERT
  5
3BB
330
1F
100
AcDbEntity
  8
DETAILS
  6
ByBlock
 62
     7
100
AcDbBlockReference
  2
HATCH_55_9f4af671-7ba2-4d09-ab56-e878b6ac71be
 10
0.0
 20
0.0
 30
0.0
  0
INSERT
  5
3BC
330
1F
100
AcDbEntity
  8
DETAILS
  6
ByBlock
 62
     7
100
AcDbBlockReference
  2
HATCH_56_0ffa48e8-ed7a-4593-a848-61970e4c0430
 10
0.0
 20
0.0
 30
0.0
  0
INSERT
  5
3BD
330
1F
100
AcDbEntity
  8
DETAILS
  6
ByBlock
 62
     7
100
AcDbBlockReference
  2
HATCH_57_90e24b20-862d-4e6a-9618-32b075162ab5
 10
0.0
 20
0.0
 30
0.0
  0
INSERT
  5
3BE
330
1F
100
AcDbEntity
  8
DETAILS
  6
ByBlock
 62
     7
100
AcDbBlockReference
  2
HATCH_58_16caabfc-1e79-4592-9805-b0ccc02fa3c6
 10
0.0
 20
0.0
 30
0.0
  0
INSERT
  5
3BF
330
1F
100
AcDbEntity
  8
DETAILS
  6
ByBlock
 62
     7
100
AcDbBlockReference
  2
HATCH_59_019543a9-7b3d-488e-9e81-f17a4728b2df
 10
0.0
 20
0.0
 30
0.0
  0
INSERT
  5
3C0
330
1F
100
AcDbEntity
  8
DETAILS
  6
ByBlock
 62
     7
100
AcDbBlockReference
  2
HATCH_60_e6c4bd1b-c554-4a13-9e3e-b6b36779540b
 10
0.0
 20
0.0
 30
0.0
  0
INSERT
  5
3C1
330
1F
100
AcDbEntity
  8
DETAILS
  6
ByBlock
 62
     7
100
AcDbBlockReference
  2
HATCH_61_60df5378-ba22-4378-b9b1-73c6dbc7db5c
 10
0.0
 20
0.0
 30
0.0
  0
INSERT
  5
3C2
330
1F
100
AcDbEntity
  8
DETAILS
  6
ByBlock
 62
     7
100
AcDbBlockReference
  2
HATCH_62_4d7840eb-4b99-463c-8315-2f522927b86f
 10
0.0
 20
0.0
 30
0.0
  0
INSERT
  5
3C3
330
1F
100
AcDbEntity
  8
DETAILS
  6
ByBlock
 62
     7
100
AcDbBlockReference
  2
HATCH_63_755bc805-4f1a-4d02-bf82-9e22d040ac50
 10
0.0
 20
0.0
 30
0.0
  0
INSERT
  5
3C4
330
1F
100
AcDbEntity
  8
DETAILS
  6
ByBlock
 62
     7
100
AcDbBlockReference
  2
HATCH_64_7a38beb6-2b1b-4d44-ac3f-e7e1de70ff44
 10
0.0
 20
0.0
 30
0.0
  0
INSERT
  5
3C5
330
1F
100
AcDbEntity
  8
DETAILS
  6
ByBlock
 62
     7
100
AcDbBlockReference
  2
HATCH_65_0ab99dbb-cbe7-4111-be82-fa0289c61483
 10
0.0
 20
0.0
 30
0.0
  0
INSERT
  5
3C6
330
1F
100
AcDbEntity
  8
DETAILS
  6
ByBlock
 62
     7
100
AcDbBlockReference
  2
HATCH_66_34ee4820-9f37-47e3-95bb-08a28cb80c1c
 10
0.0
 20
0.0
 30
0.0
  0
INSERT
  5
3C7
330
1F
100
AcDbEntity
  8
DETAILS
  6
ByBlock
 62
     7
100
AcDbBlockReference
  2
HATCH_67_f3a2b66b-734b-4684-a2f4-e77b6383e925
 10
0.0
 20
0.0
 30
0.0
  0
INSERT
  5
3C8
330
1F
100
AcDbEntity
  8
DETAILS
  6
ByBlock
 62
     7
100
AcDbBlockReference
  2
HATCH_68_c572beab-574d-4712-9020-c03a4793b69e
 10
0.0
 20
0.0
 30
0.0
  0
INSERT
  5
3C9
330
1F
100
AcDbEntity
  8
DETAILS
  6
ByBlock
 62
     7
100
AcDbBlockReference
  2
HATCH_69_7f1a2c4a-8e27-4132-b5a5-b43b6f9c243e
 10
0.0
 20
0.0
 30
0.0
  0
INSERT
  5
3CA
330
1F
100
AcDbEntity
  8
DETAILS
  6
ByBlock
 62
     7
100
AcDbBlockReference
  2
HATCH_70_bf3251ee-9e7b-43f4-896c-0fe13fc0b1d2
 10
0.0
 20
0.0
 30
0.0
  0
INSERT
  5
3CB
330
1F
100
AcDbEntity
  8
DETAILS
  6
ByBlock
 62
     7
100
AcDbBlockReference
  2
HATCH_71_8c0f9bc8-bbd7-4e03-ad7c-cada63b7fa96
 10
0.0
 20
0.0
 30
0.0
  0
INSERT
  5
3CC
330
1F
100
AcDbEntity
  8
DETAILS
  6
ByBlock
 62
     7
100
AcDbBlockReference
  2
HATCH_72_212e213a-2de4-4cbd-ba2a-e356312cfec3
 10
0.0
 20
0.0
 30
0.0
  0
INSERT
  5
3CD
330
1F
100
AcDbEntity
  8
DETAILS
  6
ByBlock
 62
     7
100
AcDbBlockReference
  2
HATCH_73_7d8a97c7-a09d-47e0-8e62-0e800b40c641
 10
0.0
 20
0.0
 30
0.0
  0
INSERT
  5
3CE
330
1F
100
AcDbEntity
  8
DETAILS
  6
ByBlock
 62
     7
100
AcDbBlockReference
  2
HATCH_74_d284f451-866f-49f3-bef0-69cba2170ae6
 10
0.0
 20
0.0
 30
0.0
  0
INSERT
  5
3CF
330
1F
100
AcDbEntity
  8
DETAILS
  6
ByBlock
 62
     7
100
AcDbBlockReference
  2
HATCH_75_814a8fc6-4627-4793-97da-2213179192b8
 10
0.0
 20
0.0
 30
0.0
  0
INSERT
  5
3D0
330
1F
100
AcDbEntity
  8
DETAILS
  6
ByBlock
 62
     7
100
AcDbBlockReference
  2
HATCH_76_796c57e2-42ae-42d8-b509-98a1d6899451
 10
0.0
 20
0.0
 30
0.0
  0
INSERT
  5
3D1
330
1F
100
AcDbEntity
  8
DETAILS
  6
ByBlock
 62
     7
100
AcDbBlockReference
  2
HATCH_77_e3121ec0-8790-4cd8-ade0-0a301bf732fb
 10
0.0
 20
0.0
 30
0.0
  0
INSERT
  5
3D2
330
1F
100
AcDbEntity
  8
DETAILS
  6
ByBlock
 62
     7
100
AcDbBlockReference
  2
HATCH_78_0f44575e-8fce-42d5-acb4-f5c0884f8d18
 10
0.0
 20
0.0
 30
0.0
  0
INSERT
  5
3D3
330
1F
100
AcDbEntity
  8
DETAILS
  6
ByBlock
 62
     7
100
AcDbBlockReference
  2
HATCH_79_114e570d-dbb7-498f-8fe9-f13389ee7227
 10
0.0
 20
0.0
 30
0.0
  0
ENDSEC
  0
SECTION
  2
OBJECTS
  0
DICTIONARY
  5
C
330
0
100
AcDbDictionary
281
     1
  3
ACAD_GROUP
350
D
  3
ACAD_LAYOUT
350
1A
  3
ACAD_MATERIAL
350
3B
  3
ACAD_MLEADERSTYLE
350
3D6
  3
ACAD_MLINESTYLE
350
17
  3
ACAD_PLOTSETTINGS
350
19
  3
ACAD_PLOTSTYLENAME
350
E
  3
ACAD_VISUALSTYLE
350
2A
  3
AcDbVariableDictionary
350
3D4
  0
DICTIONARY
  5
D
102
{ACAD_REACTORS
330
C
102
}
330
C
100
AcDbDictionary
281
     1
  0
DICTIONARY
  5
1A
102
{ACAD_REACTORS
330
C
102
}
330
C
100
AcDbDictionary
281
     1
  3
Layout1
350
1E
  3
Layout2
350
26
  3
Model
350
22
  0
DICTIONARY
  5
3B
102
{ACAD_REACTORS
330
C
102
}
330
C
100
AcDbDictionary
281
     1
  3
ByBlock
350
3D
  3
ByLayer
350
3C
  3
Global
350
3E
  0
DICTIONARY
  5
3D6
102
{ACAD_REACTORS
330
C
102
}
330
C
100
AcDbDictionary
281
     1
  0
DICTIONARY
  5
17
102
{ACAD_REACTORS
330
C
102
}
330
C
100
AcDbDictionary
281
     1
  3
Standard
350
18
  0
DICTIONARY
  5
19
102
{ACAD_REACTORS
330
C
102
}
330
C
100
AcDbDictionary
281
     1
  0
ACDBDICTIONARYWDFLT
  5
E
102
{ACAD_REACTORS
330
C
102
}
330
C
100
AcDbDictionary
281
     1
  3
Normal
350
F
100
AcDbDictionaryWithDefault
340
F
  0
DICTIONARY
  5
2A
102
{ACAD_REACTORS
330
C
102
}
330
C
100
AcDbDictionary
281
     1
  3
2dWireframe
350
2F
  3
3D Hidden
350
31
  3
3dWireframe
350
30
  3
Basic
350
32
  3
Brighten
350
36
  3
ColorChange
350
3A
  3
Conceptual
350
34
  3
Dim
350
35
  3
Facepattern
350
39
  3
Flat
350
2B
  3
FlatWithEdges
350
2C
  3
Gouraud
350
2D
  3
GouraudWithEdges
350
2E
  3
Linepattern
350
38
  3
Realistic
350
33
  3
Thicken
350
37
  0
DICTIONARY
  5
3D4
102
{ACAD_REACTORS
330
C
102
}
330
C
100
AcDbDictionary
281
     1
  3
DIMASSOC
350
3D7
  3
HIDETEXT
350
3D8
  0
LAYOUT
  5
1E
102
{ACAD_REACTORS
330
1A
102
}
330
1A
100
AcDbPlotSettings
  1

  2
none_device
  4

  6

 40
0.0
 41
0.0
 42
0.0
 43
0.0
 44
0.0
 45
0.0
 46
0.0
 47
0.0
 48
0.0
 49
0.0
140
0.0
141
0.0
142
1.0
143
1.0
 70
   688
 72
     0
 73
     0
 74
     5
  7

 75
    16
147
1.0
148
0.0
149
0.0
100
AcDbLayout
  1
Layout1
 70
     1
 71
     1
 10
0.0
 20
0.0
 11
12.0
 21
9.0
 12
0.0
 22
0.0
 32
0.0
 14
1.000000000000000E+20
 24
1.000000000000000E+20
 34
1.000000000000000E+20
 15
-1.000000000000000E+20
 25
-1.000000000000000E+20
 35
-1.000000000000000E+20
146
0.0
 13
0.0
 23
0.0
 33
0.0
 16
1.0
 26
0.0
 36
0.0
 17
0.0
 27
1.0
 37
0.0
 76
     0
330
1B
  0
LAYOUT
  5
26
102
{ACAD_REACTORS
330
1A
102
}
330
1A
100
AcDbPlotSettings
  1

  2
none_device
  4

  6

 40
0.0
 41
0.0
 42
0.0
 43
0.0
 44
0.0
 45
0.0
 46
0.0
 47
0.0
 48
0.0
 49
0.0
140
0.0
141
0.0
142
1.0
143
1.0
 70
   688
 72
     0
 73
     0
 74
     5
  7

 75
    16
147
1.0
148
0.0
149
0.0
100
AcDbLayout
  1
Layout2
 70
     1
 71
     2
 10
0.0
 20
0.0
 11
0.0
 21
0.0
 12
0.0
 22
0.0
 32
0.0
 14
0.0
 24
0.0
 34
0.0
 15
0.0
 25
0.0
 35
0.0
146
0.0
 13
0.0
 23
0.0
 33
0.0
 16
1.0
 26
0.0
 36
0.0
 17
0.0
 27
1.0
 37
0.0
 76
     0
330
23
  0
LAYOUT
  5
22
102
{ACAD_REACTORS
330
1A
102
}
330
1A
100
AcDbPlotSettings
  1

  2
none_device
  4

  6

 40
0.0
 41
0.0
 42
0.0
 43
0.0
 44
0.0
 45
0.0
 46
0.0
 47
0.0
 48
0.0
 49
0.0
140
0.0
141
0.0
142
1.0
143
1.0
 70
  1712
 72
     0
 73
     0
 74
     0
  7

 75
     0
147
1.0
148
0.0
149
0.0
100
AcDbLayout
  1
Model
 70
     1
 71
     0
 10
-0.5000025915865649
 20
-0.5000011167626326
 11
53.30919477261767
 21
53.26290744651714
 12
0.0
 22
0.0
 32
0.0
 14
-0.5000025915865649
 24
-0.5000011167626326
 34
0.0
 15
53.30919477261767
 25
53.26290744651714
 35
0.0
146
0.0
 13
0.0
 23
0.0
 33
0.0
 16
1.0
 26
0.0
 36
0.0
 17
0.0
 27
1.0
 37
0.0
 76
     0
330
1F
331
29
  0
MATERIAL
  5
3D
102
{ACAD_REACTORS
330
3B
102
}
102
{ACAD_XDICTIONARY
360
3FB
102
}
330
3B
100
AcDbMaterial
  1
ByBlock
  0
MATERIAL
  5
3C
102
{ACAD_REACTORS
330
3B
102
}
102
{ACAD_XDICTIONARY
360
3F9
102
}
330
3B
100
AcDbMaterial
  1
ByLayer
  0
MATERIAL
  5
3E
102
{ACAD_REACTORS
330
3B
102
}
102
{ACAD_XDICTIONARY
360
3FD
102
}
330
3B
100
AcDbMaterial
  1
Global
  0
MLINESTYLE
  5
18
102
{ACAD_REACTORS
330
17
102
}
330
17
100
AcDbMlineStyle
  2
Standard
 70
     0
  3

 62
   256
 51
90.0
 52
90.0
 71
     2
 49
0.5
 62
   256
  6
BYLAYER
 49
-0.5
 62
   256
  6
BYLAYER
  0
ACDBPLACEHOLDER
  5
F
102
{ACAD_REACTORS
330
E
102
}
330
E
  0
VISUALSTYLE
  5
2F
102
{ACAD_REACTORS
330
2A
102
}
102
{ACAD_XDICTIONARY
360
3E1
102
}
330
2A
100
AcDbVisualStyle
  2
2dWireframe
 70
     4
 71
     0
 72
     2
 73
     0
 90
        0
 40
-0.6
 41
-30.0
 62
     5
 63
     7
 74
     1
 91
        4
 64
     7
 65
   257
 75
     1
175
     1
 42
1.0
 92
        0
 66
   257
 43
1.0
 76
     1
 77
     6
 78
     2
 67
     7
 79
     5
170
     0
171
     0
290
     0
174
     0
 93
        1
 44
0.0
173
     0
291
     0
 45
0.0
1001
ACAD
1000
AcDbSavedByObjectVersion
1070
     0
  0
VISUALSTYLE
  5
31
102
{ACAD_REACTORS
330
2A
102
}
102
{ACAD_XDICTIONARY
360
3E5
102
}
330
2A
100
AcDbVisualStyle
  2
3D Hidden
 70
     6
 71
     1
 72
     2
 73
     2
 90
        0
 40
-0.6
 41
-30.0
 62
     5
 63
     7
 74
     2
 91
        2
 64
     7
 65
   257
 75
     2
175
     1
 42
40.0
 92
        0
 66
   257
 43
1.0
 76
     1
 77
     6
 78
     2
 67
     7
 79
     3
170
     0
171
     0
290
     0
174
     0
 93
        1
 44
0.0
173
     0
291
     0
 45
0.0
1001
ACAD
1000
AcDbSavedByObjectVersion
1070
     0
  0
VISUALSTYLE
  5
30
102
{ACAD_REACTORS
330
2A
102
}
102
{ACAD_XDICTIONARY
360
3E3
102
}
330
2A
100
AcDbVisualStyle
  2
3dWireframe
 70
     5
 71
     0
 72
     2
 73
     0
 90
        0
 40
-0.6
 41
-30.0
 62
     5
 63
     7
 74
     1
 91
        4
 64
     7
 65
   257
 75
     1
175
     1
 42
1.0
 92
        0
 66
   257
 43
1.0
 76
     1
 77
     6
 78
     2
 67
     7
 79
     5
170
     0
171
     0
290
     0
174
     0
 93
        1
 44
0.0
173
     0
291
     0
 45
0.0
1001
ACAD
1000
AcDbSavedByObjectVersion
1070
     0
  0
VISUALSTYLE
  5
32
102
{ACAD_REACTORS
330
2A
102
}
102
{ACAD_XDICTIONARY
360
3E7
102
}
330
2A
100
AcDbVisualStyle
  2
Basic
 70
     7
 71
     1
 72
     0
 73
     1
 90
        0
 40
-0.6
 41
-30.0
 62
     5
 63
     7
 74
     0
 91
        4
 64
     7
 65
   257
 75
     1
175
     1
 42
1.0
 92
        8
 66
     7
 43
1.0
 76
     1
 77
     6
 78
     2
 67
     7
 79
     5
170
     0
171
     0
290
     0
174
     0
 93
        1
 44
0.0
173
     0
291
     1
 45
0.0
1001
ACAD
1000
AcDbSavedByObjectVersion
1070
     0
  0
VISUALSTYLE
  5
36
102
{ACAD_REACTORS
330
2A
102
}
102
{ACAD_XDICTIONARY
360
3EF
102
}
330
2A
100
AcDbVisualStyle
  2
Brighten
 70
    12
 71
     2
 72
     2
 73
     0
 90
        0
 40
-0.6
 41
-30.0
 62
     5
 63
     7
 74
     1
 91
        4
 64
     7
 65
   257
 75
     1
175
     1
 42
1.0
 92
        8
 66
     7
 43
1.0
 76
     1
 77
     6
 78
     2
 67
     7
 79
     5
170
     0
171
     0
290
     0
174
     0
 93
        1
 44
50.0
173
     0
291
     1
 45
0.0
1001
ACAD
1000
AcDbSavedByObjectVersion
1070
     0
  0
VISUALSTYLE
  5
3A
102
{ACAD_REACTORS
330
2A
102
}
102
{ACAD_XDICTIONARY
360
3F7
102
}
330
2A
100
AcDbVisualStyle
  2
ColorChange
 70
    16
 71
     2
 72
     2
 73
     3
 90
        0
 40
-0.6
 41
-30.0
 62
     5
 63
     8
 74
     1
 91
        4
 64
     7
 65
   257
 75
     1
175
     1
 42
1.0
 92
        8
 66
     8
 43
1.0
 76
     1
 77
     6
 78
     2
 67
     7
 79
     5
170
     0
171
     0
290
     0
174
     0
 93
        1
 44
0.0
173
     0
291
     1
 45
0.0
1001
ACAD
1000
AcDbSavedByObjectVersion
1070
     0
  0
VISUALSTYLE
  5
34
102
{ACAD_REACTORS
330
2A
102
}
102
{ACAD_XDICTIONARY
360
3EB
102
}
330
2A
100
AcDbVisualStyle
  2
Conceptual
 70
     9
 71
     3
 72
     2
 73
     0
 90
        0
 40
-0.6
 41
-30.0
 62
     5
 63
     7
 74
     2
 91
        2
 64
     7
 65
   257
 75
     1
175
     1
 42
40.0
 92
        8
 66
     7
 43
1.0
 76
     1
 77
     6
 78
     2
 67
     7
 79
     3
170
     0
171
     0
290
     0
174
     0
 93
        1
 44
0.0
173
     0
291
     0
 45
0.0
1001
ACAD
1000
AcDbSavedByObjectVersion
1070
     0
  0
VISUALSTYLE
  5
35
102
{ACAD_REACTORS
330
2A
102
}
102
{ACAD_XDICTIONARY
360
3ED
102
}
330
2A
100
AcDbVisualStyle
  2
Dim
 70
    11
 71
     2
 72
     2
 73
     0
 90
        0
 40
-0.6
 41
-30.0
 62
     5
 63
     7
 74
     1
 91
        4
 64
     7
 65
   257
 75
     1
175
     1
 42
1.0
 92
        8
 66
     7
 43
1.0
 76
     1
 77
     6
 78
     2
 67
     7
 79
     5
170
     0
171
     0
290
     0
174
     0
 93
        1
 44
-50.0
173
     0
291
     1
 45
0.0
1001
ACAD
1000
AcDbSavedByObjectVersion
1070
     0
  0
VISUALSTYLE
  5
39
102
{ACAD_REACTORS
330
2A
102
}
102
{ACAD_XDICTIONARY
360
3F5
102
}
330
2A
100
AcDbVisualStyle
  2
Facepattern
 70
    15
 71
     2
 72
     2
 73
     0
 90
        0
 40
-0.6
 41
-30.0
 62
     5
 63
     7
 74
     1
 91
        4
 64
     7
 65
   257
 75
     1
175
     1
 42
1.0
 92
        8
 66
     7
 43
1.0
 76
     1
 77
     6
 78
     2
 67
     7
 79
     5
170
     0
171
     0
290
     0
174
     0
 93
        1
 44
0.0
173
     0
291
     1
 45
0.0
1001
ACAD
1000
AcDbSavedByObjectVersion
1070
     0
  0
VISUALSTYLE
  5
2B
102
{ACAD_REACTORS
330
2A
102
}
102
{ACAD_XDICTIONARY
360
3D9
102
}
330
2A
100
AcDbVisualStyle
  2
Flat
 70
     0
 71
     2
 72
     1
 73
     1
 90
        2
 40
-0.6
 41
30.0
 62
     5
 63
     7
 74
     0
 91
        4
 64
     7
 65
   257
 75
     1
175
     1
 42
1.0
 92
        8
 66
     7
 43
1.0
 76
     1
 77
     6
 78
     2
 67
     7
 79
     5
170
     0
171
     0
290
     0
174
     0
 93
       13
 44
0.0
173
     0
291
     1
 45
0.0
1001
ACAD
1000
AcDbSavedByObjectVersion
1070
     0
  0
VISUALSTYLE
  5
2C
102
{ACAD_REACTORS
330
2A
102
}
102
{ACAD_XDICTIONARY
360
3DB
102
}
330
2A
100
AcDbVisualStyle
  2
FlatWithEdges
 70
     1
 71
     2
 72
     1
 73
     1
 90
        2
 40
-0.6
 41
30.0
 62
     5
 63
     7
 74
     1
 91
        4
 64
     7
 65
   257
 75
     1
175
     1
 42
1.0
 92
        0
 66
   257
 43
1.0
 76
     1
 77
     6
 78
     2
 67
     7
 79
     5
170
     0
171
     0
290
     0
174
     0
 93
       13
 44
0.0
173
     0
291
     1
 45
0.0
1001
ACAD
1000
AcDbSavedByObjectVersion
1070
     0
  0
VISUALSTYLE
  5
2D
102
{ACAD_REACTORS
330
2A
102
}
102
{ACAD_XDICTIONARY
360
3DD
102
}
330
2A
100
AcDbVisualStyle
  2
Gouraud
 70
     2
 71
     2
 72
     2
 73
     1
 90
        2
 40
-0.6
 41
30.0
 62
     5
 63
     7
 74
     0
 91
        4
 64
     7
 65
   257
 75
     1
175
     1
 42
1.0
 92
        0
 66
     7
 43
1.0
 76
     1
 77
     6
 78
     2
 67
     7
 79
     5
170
     0
171
     0
290
     0
174
     0
 93
       13
 44
0.0
173
     0
291
     1
 45
0.0
1001
ACAD
1000
AcDbSavedByObjectVersion
1070
     0
  0
VISUALSTYLE
  5
2E
102
{ACAD_REACTORS
330
2A
102
}
102
{ACAD_XDICTIONARY
360
3DF
102
}
330
2A
100
AcDbVisualStyle
  2
GouraudWithEdges
 70
     3
 71
     2
 72
     2
 73
     1
 90
        2
 40
-0.6
 41
30.0
 62
     5
 63
     7
 74
     1
 91
        4
 64
     7
 65
   257
 75
     1
175
     1
 42
1.0
 92
        0
 66
   257
 43
1.0
 76
     1
 77
     6
 78
     2
 67
     7
 79
     5
170
     0
171
     0
290
     0
174
     0
 93
       13
 44
0.0
173
     0
291
     1
 45
0.0
1001
ACAD
1000
AcDbSavedByObjectVersion
1070
     0
  0
VISUALSTYLE
  5
38
102
{ACAD_REACTORS
330
2A
102
}
102
{ACAD_XDICTIONARY
360
3F3
102
}
330
2A
100
AcDbVisualStyle
  2
Linepattern
 70
    14
 71
     2
 72
     2
 73
     0
 90
        0
 40
-0.6
 41
-30.0
 62
     5
 63
     7
 74
     1
 91
        4
 64
     7
 65
   257
 75
     7
175
     7
 42
1.0
 92
        8
 66
     7
 43
1.0
 76
     1
 77
     6
 78
     2
 67
     7
 79
     5
170
     0
171
     0
290
     0
174
     0
 93
        1
 44
0.0
173
     0
291
     1
 45
0.0
1001
ACAD
1000
AcDbSavedByObjectVersion
1070
     0
  0
VISUALSTYLE
  5
33
102
{ACAD_REACTORS
330
2A
102
}
102
{ACAD_XDICTIONARY
360
3E9
102
}
330
2A
100
AcDbVisualStyle
  2
Realistic
 70
     8
 71
     2
 72
     2
 73
     0
 90
        0
 40
-0.6
 41
-30.0
 62
     5
 63
     7
 74
     1
 91
        0
 64
     7
 65
   257
 75
     1
175
     1
 42
1.0
 92
        8
 66
     8
 43
1.0
 76
     1
 77
     6
 78
     2
 67
     7
 79
     5
170
     0
171
     0
290
     0
174
     0
 93
       13
 44
0.0
173
     0
291
     0
 45
0.0
1001
ACAD
1000
AcDbSavedByObjectVersion
1070
     0
  0
VISUALSTYLE
  5
37
102
{ACAD_REACTORS
330
2A
102
}
102
{ACAD_XDICTIONARY
360
3F1
102
}
330
2A
100
AcDbVisualStyle
  2
Thicken
 70
    13
 71
     2
 72
     2
 73
     0
 90
        0
 40
-0.6
 41
-30.0
 62
     5
 63
     7
 74
     1
 91
        4
 64
     7
 65
   257
 75
     1
175
     1
 42
1.0
 92
       12
 66
     7
 43
1.0
 76
     1
 77
     6
 78
     2
 67
     7
 79
     5
170
     0
171
     0
290
     0
174
     0
 93
        1
 44
0.0
173
     0
291
     1
 45
0.0
1001
ACAD
1000
AcDbSavedByObjectVersion
1070
     0
  0
DICTIONARYVAR
  5
3D7
102
{ACAD_REACTORS
330
3D4
102
}
330
3D4
100
DictionaryVariables
280
     0
  1
2
  0
DICTIONARYVAR
  5
3D8
102
{ACAD_REACTORS
330
3D4
102
}
330
3D4
100
DictionaryVariables
280
     0
  1
1
  0
DICTIONARY
  5
3FB
330
3D
100
AcDbDictionary
280
     1
281
     1
  3
ACAD_XREC_ROUNDTRIP
360
3FC
  0
DICTIONARY
  5
3F9
330
3C
100
AcDbDictionary
280
     1
281
     1
  3
ACAD_XREC_ROUNDTRIP
360
3FA
  0
DICTIONARY
  5
3FD
330
3E
100
AcDbDictionary
280
     1
281
     1
  3
ACAD_XREC_ROUNDTRIP
360
3FE
  0
DICTIONARY
  5
3E1
330
2F
100
AcDbDictionary
280
     1
281
     1
  3
ACAD_XREC_ROUNDTRIP
360
3E2
  0
DICTIONARY
  5
3E5
330
31
100
AcDbDictionary
280
     1
281
     1
  3
ACAD_XREC_ROUNDTRIP
360
3E6
  0
DICTIONARY
  5
3E3
330
30
100
AcDbDictionary
280
     1
281
     1
  3
ACAD_XREC_ROUNDTRIP
360
3E4
  0
DICTIONARY
  5
3E7
330
32
100
AcDbDictionary
280
     1
281
     1
  3
ACAD_XREC_ROUNDTRIP
360
3E8
  0
DICTIONARY
  5
3EF
330
36
100
AcDbDictionary
280
     1
281
     1
  3
ACAD_XREC_ROUNDTRIP
360
3F0
  0
DICTIONARY
  5
3F7
330
3A
100
AcDbDictionary
280
     1
281
     1
  3
ACAD_XREC_ROUNDTRIP
360
3F8
  0
DICTIONARY
  5
3EB
330
34
100
AcDbDictionary
280
     1
281
     1
  3
ACAD_XREC_ROUNDTRIP
360
3EC
  0
DICTIONARY
  5
3ED
330
35
100
AcDbDictionary
280
     1
281
     1
  3
ACAD_XREC_ROUNDTRIP
360
3EE
  0
DICTIONARY
  5
3F5
330
39
100
AcDbDictionary
280
     1
281
     1
  3
ACAD_XREC_ROUNDTRIP
360
3F6
  0
DICTIONARY
  5
3D9
330
2B
100
AcDbDictionary
280
     1
281
     1
  3
ACAD_XREC_ROUNDTRIP
360
3DA
  0
DICTIONARY
  5
3DB
330
2C
100
AcDbDictionary
280
     1
281
     1
  3
ACAD_XREC_ROUNDTRIP
360
3DC
  0
DICTIONARY
  5
3DD
330
2D
100
AcDbDictionary
280
     1
281
     1
  3
ACAD_XREC_ROUNDTRIP
360
3DE
  0
DICTIONARY
  5
3DF
330
2E
100
AcDbDictionary
280
     1
281
     1
  3
ACAD_XREC_ROUNDTRIP
360
3E0
  0
DICTIONARY
  5
3F3
330
38
100
AcDbDictionary
280
     1
281
     1
  3
ACAD_XREC_ROUNDTRIP
360
3F4
  0
DICTIONARY
  5
3E9
330
33
100
AcDbDictionary
280
     1
281
     1
  3
ACAD_XREC_ROUNDTRIP
360
3EA
  0
DICTIONARY
  5
3F1
330
37
100
AcDbDictionary
280
     1
281
     1
  3
ACAD_XREC_ROUNDTRIP
360
3F2
  0
XRECORD
  5
3FC
102
{ACAD_REACTORS
330
3FB
102
}
330
3FB
100
AcDbXrecord
280
     1
102
MATERIAL
148
0.0
149
0.0
149
0.0
 93
        0
 94
      127
282
     0
 72
     1
 77
     1
171
     1
175
     1
179
     1
273
     0
  0
XRECORD
  5
3FA
102
{ACAD_REACTORS
330
3F9
102
}
330
3F9
100
AcDbXrecord
280
     1
102
MATERIAL
148
0.0
149
0.0
149
0.0
 93
        0
 94
      127
282
     0
 72
     1
 77
     1
171
     1
175
     1
179
     1
273
     0
  0
XRECORD
  5
3FE
102
{ACAD_REACTORS
330
3FD
102
}
330
3FD
100
AcDbXrecord
280
     1
102
MATERIAL
148
0.0
149
0.0
149
0.0
 93
        0
 94
      127
282
     0
 72
     1
 77
     1
171
     1
175
     1
179
     1
273
     0
  0
XRECORD
  5
3E2
102
{ACAD_REACTORS
330
3E1
102
}
330
3E1
100
AcDbXrecord
280
     1
102
RTVSPropertyOp0
 70
     1
102
RTVSPropertyOp1
 70
     1
102
RTVSPropertyOp2
 70
     1
102
RTVSPropertyOp3
 70
     1
102
RTVSPropertyOp4
 70
     1
102
RTVSPropertyOp5
 70
     1
102
RTVSPropertyOp6
 70
     1
102
RTVSPropertyOp7
 70
     1
102
RTVSPropertyOp8
 70
     1
102
RTVSPropertyOp9
 70
     1
102
RTVSPropertyOp10
 70
     1
102
RTVSPropertyOp11
 70
     1
102
RTVSPropertyOp12
 70
     1
102
RTVSPropertyOp13
 70
     1
102
RTVSPropertyOp14
 70
     1
102
RTVSPropertyOp15
 70
     1
102
RTVSPropertyOp16
 70
     1
102
RTVSPropertyOp17
 70
     1
102
RTVSPropertyOp18
 70
     1
102
RTVSPropertyOp19
 70
     1
102
RTVSPropertyOp20
 70
     1
102
RTVSPropertyOp21
 70
     1
102
RTVSPropertyOp22
 70
     1
102
RTVSPropertyOp23
 70
     1
102
RTVSPropertyOp24
 70
     1
102
RTVSPropertyOp25
 70
     1
102
RTVSPropertyOp26
 70
     1
102
RTVSPropertyOp27
 70
     1
  0
XRECORD
  5
3E6
102
{ACAD_REACTORS
330
3E5
102
}
330
3E5
100
AcDbXrecord
280
     1
102
RTVSPropertyOp0
 70
     1
102
RTVSPropertyOp1
 70
     1
102
RTVSPropertyOp2
 70
     1
102
RTVSPropertyOp3
 70
     1
102
RTVSPropertyOp4
 70
     1
102
RTVSPropertyOp5
 70
     1
102
RTVSPropertyOp6
 70
     1
102
RTVSPropertyOp7
 70
     1
102
RTVSPropertyOp8
 70
     1
102
RTVSPropertyOp9
 70
     1
102
RTVSPropertyOp10
 70
     1
102
RTVSPropertyOp11
 70
     1
102
RTVSPropertyOp12
 70
     1
102
RTVSPropertyOp13
 70
     1
102
RTVSPropertyOp14
 70
     1
102
RTVSPropertyOp15
 70
     1
102
RTVSPropertyOp16
 70
     1
102
RTVSPropertyOp17
 70
     1
102
RTVSPropertyOp18
 70
     1
102
RTVSPropertyOp19
 70
     1
102
RTVSPropertyOp20
 70
     1
102
RTVSPropertyOp21
 70
     1
102
RTVSPropertyOp22
 70
     1
102
RTVSPropertyOp23
 70
     1
102
RTVSPropertyOp24
 70
     1
102
RTVSPropertyOp25
 70
     1
102
RTVSPropertyOp26
 70
     1
102
RTVSPropertyOp27
 70
     1
  0
XRECORD
  5
3E4
102
{ACAD_REACTORS
330
3E3
102
}
330
3E3
100
AcDbXrecord
280
     1
102
RTVSPropertyOp0
 70
     1
102
RTVSPropertyOp1
 70
     1
102
RTVSPropertyOp2
 70
     1
102
RTVSPropertyOp3
 70
     1
102
RTVSPropertyOp4
 70
     1
102
RTVSPropertyOp5
 70
     1
102
RTVSPropertyOp6
 70
     1
102
RTVSPropertyOp7
 70
     1
102
RTVSPropertyOp8
 70
     1
102
RTVSPropertyOp9
 70
     1
102
RTVSPropertyOp10
 70
     1
102
RTVSPropertyOp11
 70
     1
102
RTVSPropertyOp12
 70
     1
102
RTVSPropertyOp13
 70
     1
102
RTVSPropertyOp14
 70
     1
102
RTVSPropertyOp15
 70
     1
102
RTVSPropertyOp16
 70
     1
102
RTVSPropertyOp17
 70
     1
102
RTVSPropertyOp18
 70
     1
102
RTVSPropertyOp19
 70
     1
102
RTVSPropertyOp20
 70
     1
102
RTVSPropertyOp21
 70
     1
102
RTVSPropertyOp22
 70
     1
102
RTVSPropertyOp23
 70
     1
102
RTVSPropertyOp24
 70
     1
102
RTVSPropertyOp25
 70
     1
102
RTVSPropertyOp26
 70
     1
102
RTVSPropertyOp27
 70
     1
  0
XRECORD
  5
3E8
102
{ACAD_REACTORS
330
3E7
102
}
330
3E7
100
AcDbXrecord
280
     1
102
RTVSPropertyOp0
 70
     1
102
RTVSPropertyOp1
 70
     1
102
RTVSPropertyOp2
 70
     1
102
RTVSPropertyOp3
 70
     1
102
RTVSPropertyOp4
 70
     1
102
RTVSPropertyOp5
 70
     1
102
RTVSPropertyOp6
 70
     1
102
RTVSPropertyOp7
 70
     1
102
RTVSPropertyOp8
 70
     1
102
RTVSPropertyOp9
 70
     1
102
RTVSPropertyOp10
 70
     1
102
RTVSPropertyOp11
 70
     1
102
RTVSPropertyOp12
 70
     1
102
RTVSPropertyOp13
 70
     1
102
RTVSPropertyOp14
 70
     1
102
RTVSPropertyOp15
 70
     1
102
RTVSPropertyOp16
 70
     1
102
RTVSPropertyOp17
 70
     1
102
RTVSPropertyOp18
 70
     1
102
RTVSPropertyOp19
 70
     1
102
RTVSPropertyOp20
 70
     1
102
RTVSPropertyOp21
 70
     1
102
RTVSPropertyOp22
 70
     1
102
RTVSPropertyOp23
 70
     1
102
RTVSPropertyOp24
 70
     1
102
RTVSPropertyOp25
 70
     1
102
RTVSPropertyOp26
 70
     1
102
RTVSPropertyOp27
 70
     1
  0
XRECORD
  5
3F0
102
{ACAD_REACTORS
330
3EF
102
}
330
3EF
100
AcDbXrecord
280
     1
102
RTVSPropertyOp0
 70
     1
102
RTVSPropertyOp1
 70
     1
102
RTVSPropertyOp2
 70
     1
102
RTVSPropertyOp3
 70
     1
102
RTVSPropertyOp4
 70
     1
102
RTVSPropertyOp5
 70
     1
102
RTVSPropertyOp6
 70
     1
102
RTVSPropertyOp7
 70
     1
102
RTVSPropertyOp8
 70
     1
102
RTVSPropertyOp9
 70
     1
102
RTVSPropertyOp10
 70
     1
102
RTVSPropertyOp11
 70
     1
102
RTVSPropertyOp12
 70
     1
102
RTVSPropertyOp13
 70
     1
102
RTVSPropertyOp14
 70
     1
102
RTVSPropertyOp15
 70
     1
102
RTVSPropertyOp16
 70
     1
102
RTVSPropertyOp17
 70
     1
102
RTVSPropertyOp18
 70
     1
102
RTVSPropertyOp19
 70
     1
102
RTVSPropertyOp20
 70
     1
102
RTVSPropertyOp21
 70
     1
102
RTVSPropertyOp22
 70
     1
102
RTVSPropertyOp23
 70
     1
102
RTVSPropertyOp24
 70
     1
102
RTVSPropertyOp25
 70
     1
102
RTVSPropertyOp26
 70
     1
102
RTVSPropertyOp27
 70
     1
  0
XRECORD
  5
3F8
102
{ACAD_REACTORS
330
3F7
102
}
330
3F7
100
AcDbXrecord
280
     1
102
RTVSPropertyOp0
 70
     1
102
RTVSPropertyOp1
 70
     1
102
RTVSPropertyOp2
 70
     1
102
RTVSPropertyOp3
 70
     1
102
RTVSPropertyOp4
 70
     1
102
RTVSPropertyOp5
 70
     1
102
RTVSPropertyOp6
 70
     1
102
RTVSPropertyOp7
 70
     1
102
RTVSPropertyOp8
 70
     1
102
RTVSPropertyOp9
 70
     1
102
RTVSPropertyOp10
 70
     1
102
RTVSPropertyOp11
 70
     1
102
RTVSPropertyOp12
 70
     1
102
RTVSPropertyOp13
 70
     1
102
RTVSPropertyOp14
 70
     1
102
RTVSPropertyOp15
 70
     1
102
RTVSPropertyOp16
 70
     1
102
RTVSPropertyOp17
 70
     1
102
RTVSPropertyOp18
 70
     1
102
RTVSPropertyOp19
 70
     1
102
RTVSPropertyOp20
 70
     1
102
RTVSPropertyOp21
 70
     1
102
RTVSPropertyOp22
 70
     1
102
RTVSPropertyOp23
 70
     1
102
RTVSPropertyOp24
 70
     1
102
RTVSPropertyOp25
 70
     1
102
RTVSPropertyOp26
 70
     1
102
RTVSPropertyOp27
 70
     1
  0
XRECORD
  5
3EC
102
{ACAD_REACTORS
330
3EB
102
}
330
3EB
100
AcDbXrecord
280
     1
102
RTVSPropertyOp0
 70
     1
102
RTVSPropertyOp1
 70
     1
102
RTVSPropertyOp2
 70
     1
102
RTVSPropertyOp3
 70
     1
102
RTVSPropertyOp4
 70
     1
102
RTVSPropertyOp5
 70
     1
102
RTVSPropertyOp6
 70
     1
102
RTVSPropertyOp7
 70
     1
102
RTVSPropertyOp8
 70
     1
102
RTVSPropertyOp9
 70
     1
102
RTVSPropertyOp10
 70
     1
102
RTVSPropertyOp11
 70
     1
102
RTVSPropertyOp12
 70
     1
102
RTVSPropertyOp13
 70
     1
102
RTVSPropertyOp14
 70
     1
102
RTVSPropertyOp15
 70
     1
102
RTVSPropertyOp16
 70
     1
102
RTVSPropertyOp17
 70
     1
102
RTVSPropertyOp18
 70
     1
102
RTVSPropertyOp19
 70
     1
102
RTVSPropertyOp20
 70
     1
102
RTVSPropertyOp21
 70
     1
102
RTVSPropertyOp22
 70
     1
102
RTVSPropertyOp23
 70
     1
102
RTVSPropertyOp24
 70
     1
102
RTVSPropertyOp25
 70
     1
102
RTVSPropertyOp26
 70
     1
102
RTVSPropertyOp27
 70
     1
  0
XRECORD
  5
3EE
102
{ACAD_REACTORS
330
3ED
102
}
330
3ED
100
AcDbXrecord
280
     1
102
RTVSPropertyOp0
 70
     1
102
RTVSPropertyOp1
 70
     1
102
RTVSPropertyOp2
 70
     1
102
RTVSPropertyOp3
 70
     1
102
RTVSPropertyOp4
 70
     1
102
RTVSPropertyOp5
 70
     1
102
RTVSPropertyOp6
 70
     1
102
RTVSPropertyOp7
 70
     1
102
RTVSPropertyOp8
 70
     1
102
RTVSPropertyOp9
 70
     1
102
RTVSPropertyOp10
 70
     1
102
RTVSPropertyOp11
 70
     1
102
RTVSPropertyOp12
 70
     1
102
RTVSPropertyOp13
 70
     1
102
RTVSPropertyOp14
 70
     1
102
RTVSPropertyOp15
 70
     1
102
RTVSPropertyOp16
 70
     1
102
RTVSPropertyOp17
 70
     1
102
RTVSPropertyOp18
 70
     1
102
RTVSPropertyOp19
 70
     1
102
RTVSPropertyOp20
 70
     1
102
RTVSPropertyOp21
 70
     1
102
RTVSPropertyOp22
 70
     1
102
RTVSPropertyOp23
 70
     1
102
RTVSPropertyOp24
 70
     1
102
RTVSPropertyOp25
 70
     1
102
RTVSPropertyOp26
 70
     1
102
RTVSPropertyOp27
 70
     1
  0
XRECORD
  5
3F6
102
{ACAD_REACTORS
330
3F5
102
}
330
3F5
100
AcDbXrecord
280
     1
102
RTVSPropertyOp0
 70
     1
102
RTVSPropertyOp1
 70
     1
102
RTVSPropertyOp2
 70
     1
102
RTVSPropertyOp3
 70
     1
102
RTVSPropertyOp4
 70
     1
102
RTVSPropertyOp5
 70
     1
102
RTVSPropertyOp6
 70
     1
102
RTVSPropertyOp7
 70
     1
102
RTVSPropertyOp8
 70
     1
102
RTVSPropertyOp9
 70
     1
102
RTVSPropertyOp10
 70
     1
102
RTVSPropertyOp11
 70
     1
102
RTVSPropertyOp12
 70
     1
102
RTVSPropertyOp13
 70
     1
102
RTVSPropertyOp14
 70
     1
102
RTVSPropertyOp15
 70
     1
102
RTVSPropertyOp16
 70
     1
102
RTVSPropertyOp17
 70
     1
102
RTVSPropertyOp18
 70
     1
102
RTVSPropertyOp19
 70
     1
102
RTVSPropertyOp20
 70
     1
102
RTVSPropertyOp21
 70
     1
102
RTVSPropertyOp22
 70
     1
102
RTVSPropertyOp23
 70
     1
102
RTVSPropertyOp24
 70
     1
102
RTVSPropertyOp25
 70
     1
102
RTVSPropertyOp26
 70
     1
102
RTVSPropertyOp27
 70
     1
  0
XRECORD
  5
3DA
102
{ACAD_REACTORS
330
3D9
102
}
330
3D9
100
AcDbXrecord
280
     1
102
RTVSPropertyOp0
 70
     1
102
RTVSPropertyOp1
 70
     1
102
RTVSPropertyOp2
 70
     1
102
RTVSPropertyOp3
 70
     1
102
RTVSPropertyOp4
 70
     1
102
RTVSPropertyOp5
 70
     1
102
RTVSPropertyOp6
 70
     1
102
RTVSPropertyOp7
 70
     1
102
RTVSPropertyOp8
 70
     1
102
RTVSPropertyOp9
 70
     1
102
RTVSPropertyOp10
 70
     1
102
RTVSPropertyOp11
 70
     1
102
RTVSPropertyOp12
 70
     1
102
RTVSPropertyOp13
 70
     1
102
RTVSPropertyOp14
 70
     1
102
RTVSPropertyOp15
 70
     1
102
RTVSPropertyOp16
 70
     1
102
RTVSPropertyOp17
 70
     1
102
RTVSPropertyOp18
 70
     1
102
RTVSPropertyOp19
 70
     1
102
RTVSPropertyOp20
 70
     1
102
RTVSPropertyOp21
 70
     1
102
RTVSPropertyOp22
 70
     1
102
RTVSPropertyOp23
 70
     1
102
RTVSPropertyOp24
 70
     1
102
RTVSPropertyOp25
 70
     1
102
RTVSPropertyOp26
 70
     1
102
RTVSPropertyOp27
 70
     1
  0
XRECORD
  5
3DC
102
{ACAD_REACTORS
330
3DB
102
}
330
3DB
100
AcDbXrecord
280
     1
102
RTVSPropertyOp0
 70
     1
102
RTVSPropertyOp1
 70
     1
102
RTVSPropertyOp2
 70
     1
102
RTVSPropertyOp3
 70
     1
102
RTVSPropertyOp4
 70
     1
102
RTVSPropertyOp5
 70
     1
102
RTVSPropertyOp6
 70
     1
102
RTVSPropertyOp7
 70
     1
102
RTVSPropertyOp8
 70
     1
102
RTVSPropertyOp9
 70
     1
102
RTVSPropertyOp10
 70
     1
102
RTVSPropertyOp11
 70
     1
102
RTVSPropertyOp12
 70
     1
102
RTVSPropertyOp13
 70
     1
102
RTVSPropertyOp14
 70
     1
102
RTVSPropertyOp15
 70
     1
102
RTVSPropertyOp16
 70
     1
102
RTVSPropertyOp17
 70
     1
102
RTVSPropertyOp18
 70
     1
102
RTVSPropertyOp19
 70
     1
102
RTVSPropertyOp20
 70
     1
102
RTVSPropertyOp21
 70
     1
102
RTVSPropertyOp22
 70
     1
102
RTVSPropertyOp23
 70
     1
102
RTVSPropertyOp24
 70
     1
102
RTVSPropertyOp25
 70
     1
102
RTVSPropertyOp26
 70
     1
102
RTVSPropertyOp27
 70
     1
  0
XRECORD
  5
3DE
102
{ACAD_REACTORS
330
3DD
102
}
330
3DD
100
AcDbXrecord
280
     1
102
RTVSPropertyOp0
 70
     1
102
RTVSPropertyOp1
 70
     1
102
RTVSPropertyOp2
 70
     1
102
RTVSPropertyOp3
 70
     1
102
RTVSPropertyOp4
 70
     1
102
RTVSPropertyOp5
 70
     1
102
RTVSPropertyOp6
 70
     1
102
RTVSPropertyOp7
 70
     1
102
RTVSPropertyOp8
 70
     1
102
RTVSPropertyOp9
 70
     1
102
RTVSPropertyOp10
 70
     1
102
RTVSPropertyOp11
 70
     1
102
RTVSPropertyOp12
 70
     1
102
RTVSPropertyOp13
 70
     1
102
RTVSPropertyOp14
 70
     1
102
RTVSPropertyOp15
 70
     1
102
RTVSPropertyOp16
 70
     1
102
RTVSPropertyOp17
 70
     1
102
RTVSPropertyOp18
 70
     1
102
RTVSPropertyOp19
 70
     1
102
RTVSPropertyOp20
 70
     1
102
RTVSPropertyOp21
 70
     1
102
RTVSPropertyOp22
 70
     1
102
RTVSPropertyOp23
 70
     1
102
RTVSPropertyOp24
 70
     1
102
RTVSPropertyOp25
 70
     1
102
RTVSPropertyOp26
 70
     1
102
RTVSPropertyOp27
 70
     1
  0
XRECORD
  5
3E0
102
{ACAD_REACTORS
330
3DF
102
}
330
3DF
100
AcDbXrecord
280
     1
102
RTVSPropertyOp0
 70
     1
102
RTVSPropertyOp1
 70
     1
102
RTVSPropertyOp2
 70
     1
102
RTVSPropertyOp3
 70
     1
102
RTVSPropertyOp4
 70
     1
102
RTVSPropertyOp5
 70
     1
102
RTVSPropertyOp6
 70
     1
102
RTVSPropertyOp7
 70
     1
102
RTVSPropertyOp8
 70
     1
102
RTVSPropertyOp9
 70
     1
102
RTVSPropertyOp10
 70
     1
102
RTVSPropertyOp11
 70
     1
102
RTVSPropertyOp12
 70
     1
102
RTVSPropertyOp13
 70
     1
102
RTVSPropertyOp14
 70
     1
102
RTVSPropertyOp15
 70
     1
102
RTVSPropertyOp16
 70
     1
102
RTVSPropertyOp17
 70
     1
102
RTVSPropertyOp18
 70
     1
102
RTVSPropertyOp19
 70
     1
102
RTVSPropertyOp20
 70
     1
102
RTVSPropertyOp21
 70
     1
102
RTVSPropertyOp22
 70
     1
102
RTVSPropertyOp23
 70
     1
102
RTVSPropertyOp24
 70
     1
102
RTVSPropertyOp25
 70
     1
102
RTVSPropertyOp26
 70
     1
102
RTVSPropertyOp27
 70
     1
  0
XRECORD
  5
3F4
102
{ACAD_REACTORS
330
3F3
102
}
330
3F3
100
AcDbXrecord
280
     1
102
RTVSPropertyOp0
 70
     1
102
RTVSPropertyOp1
 70
     1
102
RTVSPropertyOp2
 70
     1
102
RTVSPropertyOp3
 70
     1
102
RTVSPropertyOp4
 70
     1
102
RTVSPropertyOp5
 70
     1
102
RTVSPropertyOp6
 70
     1
102
RTVSPropertyOp7
 70
     1
102
RTVSPropertyOp8
 70
     1
102
RTVSPropertyOp9
 70
     1
102
RTVSPropertyOp10
 70
     1
102
RTVSPropertyOp11
 70
     1
102
RTVSPropertyOp12
 70
     1
102
RTVSPropertyOp13
 70
     1
102
RTVSPropertyOp14
 70
     1
102
RTVSPropertyOp15
 70
     1
102
RTVSPropertyOp16
 70
     1
102
RTVSPropertyOp17
 70
     1
102
RTVSPropertyOp18
 70
     1
102
RTVSPropertyOp19
 70
     1
102
RTVSPropertyOp20
 70
     1
102
RTVSPropertyOp21
 70
     1
102
RTVSPropertyOp22
 70
     1
102
RTVSPropertyOp23
 70
     1
102
RTVSPropertyOp24
 70
     1
102
RTVSPropertyOp25
 70
     1
102
RTVSPropertyOp26
 70
     1
102
RTVSPropertyOp27
 70
     1
  0
XRECORD
  5
3EA
102
{ACAD_REACTORS
330
3E9
102
}
330
3E9
100
AcDbXrecord
280
     1
102
RTVSPropertyOp0
 70
     1
102
RTVSPropertyOp1
 70
     1
102
RTVSPropertyOp2
 70
     1
102
RTVSPropertyOp3
 70
     1
102
RTVSPropertyOp4
 70
     1
102
RTVSPropertyOp5
 70
     1
102
RTVSPropertyOp6
 70
     1
102
RTVSPropertyOp7
 70
     1
102
RTVSPropertyOp8
 70
     1
102
RTVSPropertyOp9
 70
     1
102
RTVSPropertyOp10
 70
     1
102
RTVSPropertyOp11
 70
     1
102
RTVSPropertyOp12
 70
     1
102
RTVSPropertyOp13
 70
     1
102
RTVSPropertyOp14
 70
     1
102
RTVSPropertyOp15
 70
     1
102
RTVSPropertyOp16
 70
     1
102
RTVSPropertyOp17
 70
     1
102
RTVSPropertyOp18
 70
     1
102
RTVSPropertyOp19
 70
     1
102
RTVSPropertyOp20
 70
     1
102
RTVSPropertyOp21
 70
     1
102
RTVSPropertyOp22
 70
     1
102
RTVSPropertyOp23
 70
     1
102
RTVSPropertyOp24
 70
     1
102
RTVSPropertyOp25
 70
     1
102
RTVSPropertyOp26
 70
     1
102
RTVSPropertyOp27
 70
     1
  0
XRECORD
  5
3F2
102
{ACAD_REACTORS
330
3F1
102
}
330
3F1
100
AcDbXrecord
280
     1
102
RTVSPropertyOp0
 70
     1
102
RTVSPropertyOp1
 70
     1
102
RTVSPropertyOp2
 70
     1
102
RTVSPropertyOp3
 70
     1
102
RTVSPropertyOp4
 70
     1
102
RTVSPropertyOp5
 70
     1
102
RTVSPropertyOp6
 70
     1
102
RTVSPropertyOp7
 70
     1
102
RTVSPropertyOp8
 70
     1
102
RTVSPropertyOp9
 70
     1
102
RTVSPropertyOp10
 70
     1
102
RTVSPropertyOp11
 70
     1
102
RTVSPropertyOp12
 70
     1
102
RTVSPropertyOp13
 70
     1
102
RTVSPropertyOp14
 70
     1
102
RTVSPropertyOp15
 70
     1
102
RTVSPropertyOp16
 70
     1
102
RTVSPropertyOp17
 70
     1
102
RTVSPropertyOp18
 70
     1
102
RTVSPropertyOp19
 70
     1
102
RTVSPropertyOp20
 70
     1
102
RTVSPropertyOp21
 70
     1
102
RTVSPropertyOp22
 70
     1
102
RTVSPropertyOp23
 70
     1
102
RTVSPropertyOp24
 70
     1
102
RTVSPropertyOp25
 70
     1
102
RTVSPropertyOp26
 70
     1
102
RTVSPropertyOp27
 70
     1
  0
ENDSEC
  0
SECTION
  2
THUMBNAILIMAGE
 90
    45386
310
28000000D2000000D1000000010008000000000014AD000000000000000000000000000000000000000000000000330000006600000099000000CC000000FF00003300000033330000336600003399000033CC000033FF00006600000066330000666600006699000066CC000066FF00009900000099330000996600009999
310
000099CC000099FF0000CC000000CC330000CC660000CC990000CCCC0000CCFF0000FF000000FF330000FF660000FF990000FFCC0000FFFF00330000003300330033006600330099003300CC003300FF00333300003333330033336600333399003333CC003333FF00336600003366330033666600336699003366CC003366
310
FF00339900003399330033996600339999003399CC003399FF0033CC000033CC330033CC660033CC990033CCCC0033CCFF0033FF000033FF330033FF660033FF990033FFCC0033FFFF00660000006600330066006600660099006600CC006600FF00663300006633330066336600663399006633CC006633FF006666000066
310
66330066666600666699006666CC006666FF00669900006699330066996600669999006699CC006699FF0066CC000066CC330066CC660066CC990066CCCC0066CCFF0066FF000066FF330066FF660066FF990066FFCC0066FFFF00990000009900330099006600990099009900CC009900FF00993300009933330099336600
310
993399009933CC009933FF00996600009966330099666600996699009966CC009966FF00999900009999330099996600999999009999CC009999FF0099CC000099CC330099CC660099CC990099CCCC0099CCFF0099FF000099FF330099FF660099FF990099FFCC0099FFFF00CC000000CC003300CC006600CC009900CC00CC
310
00CC00FF00CC330000CC333300CC336600CC339900CC33CC00CC33FF00CC660000CC663300CC666600CC669900CC66CC00CC66FF00CC990000CC993300CC996600CC999900CC99CC00CC99FF00CCCC0000CCCC3300CCCC6600CCCC9900CCCCCC00CCCCFF00CCFF0000CCFF3300CCFF6600CCFF9900CCFFCC00CCFFFF00FF00
310
0000FF003300FF006600FF009900FF00CC00FF00FF00FF330000FF333300FF336600FF339900FF33CC00FF33FF00FF660000FF663300FF666600FF669900FF66CC00FF66FF00FF990000FF993300FF996600FF999900FF99CC00FF99FF00FFCC0000FFCC3300FFCC6600FFCC9900FFCCCC00FFCCFF00FFFF0000FFFF3300FF
310
FF6600FFFF9900FFFFCC00FFFFFF0000000000000000000000000000000000000000000000000000000000000000000000000000000000000000000000000000000000000000000000000000000000000000000000000000000000000000000000000000000000000000000000000000000000000000000000000000000000
310
000000000000000000000000000000000000000000000000000000000000000000000000000000000000000000000000D7D7D7D7D7D7D7D7D7D7D7D7D7D7D7D7D7D7D7D7D7D7D7D7D7D7D7D7D7D7D7D7D7D7D7D7D7D7D7D7D7D7D7D7D7D7D7D7D7D7D7D7D7D7D7D7D7D7D7D7D7D7D7D7D7D7D7D7D7D7D7D7D7D7D7D7D7D7D7
310
D7D7D7D7D7D7D7D7D7D7D7D7D7D7D7D7D7D7D7D7D7D7D7D7D7D7D7D7D7D7D7D7D7D7D7D7D7D7D7D7D7D7D7D7D7D7D7D7D7D7D7D7D7D7D7D7D7D7D7D7D7D7D7D7D7D7D7D7D7D7D7D7D7D7D7D7D7D7D7D7D7D7D7D7D7D7D7D7D7D7D7D7D7D7D7D7D7D7D7D7D7D7D7D7D7D7D7D7D7D7D7D7D7D7D7D7D7D7D7D7D7D7D7D7D7D7D7
310
D7D7D7D70000D7D7D7D7D7D7D7D7D7D7D7D7D7D7D7D7D7D7D7D7D7D7D7D7D7D7D7D7D7D7D7D7D7D7D7D7D7D7D7D7D7D7D7D7D7D7D7D7D7D7D7D7D7D7D7D7D7D7D7D7D7D7D7D7D7D7D7D7D7D7D7D7D7D7D7D7D7D7D7D7D7D7D7D7D7D7D7D7D7D7D7D7D7D7D7D7D7D7D7D7D7D7D7D7D7D7D7D7D7D7D7D7D7D7D7D7D7D7D7D7D7
310
D7D7D7D7D7D7D7D7D7D7D7D7D7D7D7D7D7D7D7D7D7D7D7D7D7D7D7D7D7D7D7D7D7D7D7D7D7D7D7D7D7D7D7D7D7D7D7D7D7D7D7D7D7D7D7D7D7D7D7D7D7D7D7D7D7D7D7D7D7D7D7D7D7D7D7D7D7D7D7D7D7D7D7D7D7D7D7D7D70000D7D700000000000000000000000000000000000000000000000000000000000000000000
310
00000000000000000000000000000000000000000000000000000000000000000000000000000000000000000000000000000000000000000000000000000000000000000000000000000000000000000000000000000000000000000000000000000000000000000000000000000000000000000000000000000000000000
310
000000000000000000000000000000000000000000000000000000000000000000000000000000000000000000D7D70000D7D700D7D7D7D7D7D7D7D7D7D7D7D7D7D7D7D7D7D7D7D7D7D7D7D7D7D7D7D7D7D7D7D7D7D7D7D7D7D7D7D7D7D7D7D7D7D7D7D7D7D7D7D7D700D7D7D7D7D7D7D7D7D7D7D7D7D700D7D7D7D7D7D7D7
310
D7D7D7D7D7D7D7D7D7D7D7D7D7D7D7D7D7D7D7D7D7D7D7D7D7D7D7D7D7D7D7D7D7D7D7D7D7D7D7D7D7D7D7D7D7D7D7D7D7D7D7D7D7D7D7D7D7D7D7D7D7D7D7D7D7D7D7D7D7D7D7D7D7D7D7D7D7D7D7D7D7D7D7D7D7D7D7D7D7D7D7D7D7D7D7D7D7D7D7D7D7D7D7D7D7D7D7D7D7D7D7D7D7D7D7D7D7D7D7D7D7D7D7D7D7D7D7
310
D7D700D7D70000D7D700D7D7D7D7D7D7D7D7D700D7D7D7000000D700D700D7D7D7D7D700D700D70000D700D700D70000D7D70000D7D7D7D7D7D700D70000000000D7D7000000D700D7D7D700D700D7D7D7D700D700D700D70000D7D7D7D7D7D7D7D700D70000D7D7D700D70000D7D7D7000000D70000D700D70000D700D7D7
310
0000D7D7D700D7D7D7D7D7D7D7D7D7D7D7D7D7D7D7D7D7D7D7D7D7D7D7D7D7D7D7D7D7D7D7D7D7D7D7D7D7D7D7D7D7D7D7D7D7D7D7D7D7D7D7D7D7D7D7D7D7D7D7D7D7D7D7D7D7D7D7D7D7D7D7D7D7D7D7D7D7D7D7D7D700D7D70000D7D700D7D7D7D7D7D7D7D700D7D7D700000000D700D700D70000D7D700D700D70000D7
310
00D700D7D7D7D7000000D7D7D7D7D700D7D7D7000000D700D7D7000000D7D7D7D700D7D700D7D700D7D7D70000D7D700D7D7D7D7D7D7D7D700D70000D7D7D700D7D7D7D7D7D7D70000D7D7D7D7D7D7D7D7D700D7000000D7D7D7D7D7D7D7D7D7D7D7D7D7D7D7D7D7D7D7D7D7D7D7D7D7D7D7D7D7D7D7D7D7D7D7D7D7D7D7D7
310
D7D7D7D7D7D7D7D7D7D7D7D7D7D7D7D7D7D7D7D7D7D7D7D7D7D7D7D7D7D7D7D7D7D7D7D7D7D7D7D7D7D7D7D7D700D7D70000D7D700D7D7D7D7D7D7D7D7D7D700D7D700D7000000000000D7D700D70000D7D70000D70000D7D70000D7D700D7D700D7D7D7D700D7D700000000D7D7D70000D700D7D7000000D7D7D7D700D700
310
D7000000000000D7D7D7D7000000D7D70000D7D700D7D7D7D7D70000D70000D700000000D7D7D7D700D7D700D7D700D7D7D7D7D7D7D7D7D7D7D7D7D7D7D7D7D7D7D7D7D7D7D7D7D7D7D7D7D7D7D7D7D7D7D7D7D7D7D7D7D7D7D7D7D7D7D7D7D7D7D7D7D7D7D7D7D7D7D7D7D7D7D7D7D7D7D7D7D7D7D7D7D7D7D7D7D7D7D7D7
310
D7D7D700D7D70000D7D700D7D7D7D7D7D7D7D7D7D700D7D7D7D7D7D7D7D700D7D7D7D7D700D7D7D7D7D7D7D7D7D7D7D7D7D7D7D7D7D7D7D7D7D7D7D7D7D7D7D7D7D7D7D7D7D7D7D7D7D7D7D700D7D7D7D7D7D7D7D7D7D7D7D7D700D7D7D7D7D7D7D7D7D7D7D7D7D7D7D7D7D7D7D7D7D7D7D7D7D7D7D7D7D7D7D7D7D7D7D7D7
310
D7D7D7D7D7D7D7D7D7D7D7D7D7D7D7D7D7D7D7D7D7D7D7D7D7D7D7D7D7D7D7D7D7D7D7D7D7D7D7D7D7D7D7D7D7D7D7D7D7D7D7D7D7D7D7D7D7D7D7D7D7D7D7D7D7D7D7D7D7D7D7D7D7D7D7D7D7D7D7D7D7D7D7D7D7D7D7D700D7D70000D7D700D7D7D7D7D7D7D7D7D7D7D7D7D7D7D7D7D7D7D7D7D7D7D7D7D7D7D7D7D7D7D7
310
D7D7D7D7D7D7D7D7D7D7D7D7D7D7D7D7D7D7D7D7D7D7D7D7D7D7D7D7D7D7D7D7D7D7D7D7D7D7D7D7D7D7D7D7D7D7D7D7D7D7D7D7D7D7D7D7D7D7D7D7D7D7D7D7D7D7D7D7D7D7D7D7D7D7D7D7D7D7D7D7D7D7D7D7D7D7D7D7D7D7D7D7D7D7D7D7D7D7D7D7D7D7D7D7D7D7D7D7D7D7D7D7D7D7D7D7D7D7D7D7D7D7D7D7D7D7D7
310
D7D7D7D7D7D7D7D7D7D7D7D7D7D7D7D7D7D7D7D7D7D7D7D7D7D7D7D7D7D7D7D7D7D7D7D7D7D7D7D7D7D7D7D7D7D700D7D70000D7D700D7D7D7D7D7D7D7D7D7D7D7D7D7D7D7D7D7D7D7D7D7D7D7D7D7D7D7D7D7D7D7D7D7D7D7D7D7D7D7D7D7D7D7D7D7D7D7D7D7D7D7D7D7D7D7D7D7D7D7D7D7D7D7D7D7D7D7D7D7D7D7D7D7
310
D7D7D7D7D7D7D7D7D7D7D7D7D7D7D7D7D7D7D7D7D7D7D7D7D7D7D7D7D7D7D7D7D7D7D7D7D7D7D7D7D7D7D7D7D7D7D7D7D7D7D7D7D7D7D7D7D7D7D7D7D7D7D7D7D7D7D7D7D7D7D7D7D7D7D7D7D7D7D7D7D7D7D7D7D7D7D7D7D7D7D7D7D7D7D7D7D7D7D7D7D7D7D7D7D7D7D7D7D7D7D7D7D7D7D7D7D7D7D7D7D7D7D7D7D7D7D7
310
D7D7D7D700D7D70000D7D700D7D7D7D7D7D7D7D7D7D7D7D7D7D7D7D7D7D7D7D7D7D7D7D7D7D7D7D7D7D7D7D7D7D7D7D7D7D7D7D7D7D7D7D7D7D7D7D7D7D7D7D7D7D7D7D7D7D7D7D7D7D7D7D7D7D7D7D7D7D7D7D7D7D7D7D7D7D7D7D7D7D7D7D7D7D7D7D7D7D7D7D7D7D7D7D7D7D7D7D7D7D7D7D7D7D7D7D7D7D7D7D7D7D7D7
310
D7D7D7D7D7D7D7D7D7D7D7D7D7D7D7D7D7D7D7D7D7D7D7D7D7D7D7D7D7D7D7D7D7D7D7D7D7D7D7D7D7D7D7D7D7D7D7D7D7D7D7D7D7D7D7D7D7D7D7D7D7D7D7D7D7D7D7D7D7D7D7D7D7D7D7D7D7D7D7D7D7D7D7D7D7D7D7D7D700D7D70000D7D700D7D7D7D7D7D7D7D7D7D7D7D7D7D7D7D7D7D7D7D7D7D7D7D7D7D7D7D7D7D7
310
D7D7D7D7D7D7D7D7D7D7D7D7D7D7D7D7D7D7D7D7D7D7D7D7D7D7D7D7D7D7D7D7D7D7D7D7D7D7D7D7D7D7D7D7D7D7D7D7D7D7D7D7D7D7D7D7D7D7D7D7D7D7D7D7D7D7D7D7D7D7D7D7D7D7D7D7D7D7D7D7D7D7D7D7D7D7D7D7D7D7D7D7D7D7D7D7D7D7D7D7D7D7D7D7D7D7D7D7D7D7D7D7D7D7D7D7D7D7D7D7D7D7D7D7D7D7D7
310
D7D7D7D7D7D7D7D7D7D7D7D7D7D7D7D7D7D7D7D7D7D7D7D7D7D7D7D7D7D7D7D7D7D7D7D7D7D7D7D7D7D7D7D7D7D7D700D7D70000D7D700D7D7D7D7D7D7D7D7D7D7D7D7D7D7D7D7D7D7D7D7D7D7D7D7D7D7D7D7D7D7D7D7D7D7D7D7D7D7D7D7D7D7D7D7D7D7D7D7D7D7D7D7D7D7D7D7D7D7D7D7D7D7D7D7D7D7D7D7D7D7D7D7
310
D7D7D7D7D7D7D7D7D7D7D7D7D7D7D7D7D7D7D7D7D7D7D7D7D7D7D7D7D7D7D7D7D7D7D7D7D7D7D7D7D7D7D7D7D7D7D7D7D7D7D7D7D7D7D7D7D7D7D7D7D7D7D7D7D7D7D7D7D7D7D7D7D7D7D7D7D7D7D7D7D7D7D7D7D7D7D7D7D7D7D7D7D7D7D7D7D7D7D7D7D7D7D7D7D7D7D7D7D7D7D7D7D7D7D7D7D7D7D7D7D7D7D7D7D7D7D7
310
D7D7D7D7D700D7D70000D7D700D7D7D7D7D7D7D7D7D7D7D7D7D7D7D7D7D7D7D7D7D7D7D7D7D7D7D7D7D7D7D7D7D7D7D7D7D7D7D7D7D7D7D7D7D7D7D7D7D7D7D7D7D7D7D7D7D7D7D7D7D7D7D7D7D7D7D7D7D7D7D7D7D7D7D7D7D7D7D7D7D7D7D7D7D7D7D7D7D7D7D7D7D7D7D7D7D7D7D7D7D7D7D7D7D7D7D7D7D7D7D7D7D7D7
310
D7D7D7D7D7D7D7D7D7D7D7D7D7D7D7D7D7D7D7D7D7D7D7D7D7D7D7D7D7D7D7D7D7D7D7D7D7D7D7D7D7D7D7D7D7D7D7D7D7D7D7D7D7D7D7D7D7D7D7D7D7D7D7D7D7D7D7D7D7D7D7D7D7D7D7D7D7D7D7D7D7D7D7D7D7D7D7D7D7D700D7D70000D7D700D7D7D7D7D7D7D7D7D7D7D7D7D7D7D7D7D7D7D7D7D7D7D7D7D7D7D7D7D7
310
D7D7D7D7D7D7D7D7D7D7D7D7D7D7D7D7D7D7D7D7D7D7D7D7D7D7D7D7D7D7D7D7D7D7D7D7D7D7D7D7D7D7D7D7D7D7D7D7D7D7D7D7D7D7D7D7D7D7D7D7D7D7D7D7D7D7D7D7D7D7D7D7D7D7D7D7D7D7D7D7D7D7D7D7D7D7D7D7D7D7D7D7D7D7D7D7D7D7D7D7D7D7D7D7D7D7D7D7D7D7D7D7D7D7D7D7D7D7D7D7D7D7D7D7D7D7D7
310
D7D7D7D7D7D7D7D7D7D7D7D7D7D7D7D7D7D7D7D7D7D7D7D7D7D7D7D7D7D7D7D7D7D7D7D7D7D7D7D7D7D7D7D7D7D7D7D700D7D70000D7D700D7D7D7D7D7D7D7D7D7D7D7D7D7D7D7D7D7D7D7D7D7D7D7D7D7D7D7D7D7D7D7D7D7D7D7D7D7D7D7D7D7D7D7D7D7D7D7D7D7D7D7D7D7D7D7D7D7D7D7D7D7D7D7D7D7D7D7D7D7D7D7
310
D7D7D7D7D7D7D7D7D7D7D7D7D7D7D7D7D7D7D7D7D7D7D7D7D7D7D7D7D7D7D7D7D7D7D7D7D7D7D7D7D7D7D7D7D7D7D7D7D7D7D7D7D7D7D7D7D7D7D7D7D7D7D7D7D7D7D7D7D7D7D7D7D7D7D7D7D7D7D7D7D7D7D7D7D7D7D7D7D7D7D7D7D7D7D7D7D7D7D7D7D7D7D7D7D7D7D7D7D7D7D7D7D7D7D7D7D7D7D7D7D7D7D7D7D7D7D7
310
D7D7D7D7D7D700D7D70000D7D700D7D7D7D7D7D7D7D7D7D7D7D7D7D7D7D7D7D7D7D7D7D7D7D7D7D7D7D7D7D7D7D7D7D7D7D7D7D7D7D7D7D7D7D7D7D7D7D7D7D7D7D7D7D7D7D7D7D7D7D7D7D7D7D7D7D7D7D7D7D7D7D7D7D7D7D7D7D7D7D7D7D7D7D7D7D7D7D7D7D7D7D7D7D7D7D7D7D7D7D7D7D7D7D7D7D7D7D7D7D7D7D7D7
310
D7D7D7D7D7D7D7D7D7D7D7D7D7D7D7D7D7D7D7D7D7D7D7D7D7D7D7D7D7D7D7D7D7D7D7D7D7D7D7D7D7D7D7D7D7D7D7D7D7D7D7D7D7D7D7D7D7D7D7D7D7D7D7D7D7D7D7D7D7D7D7D7D7D7D7D7D7D7D7D7D7D7D7D7D7D7D7D7D7D7D700D7D70000D7D700D7D7D7D7D7D7D7D7D7D7D7D7D7D7D7D7D7D7D7D7D7D7D7D7D7D7D7D7
310
D7D7D7D7D7D7D7D7D7D7D7D7D7D7D7D7D7D7D7D7D7D7D7D7D7D7D7D7D7D7D7D7D7D7D7D7D7D7D7D7D7D7D7D7D7D7D7D7D7D7D7D7D7D7D7D7D7D7D7D7D7D7D7D7D7D7D7D7D7D7D7D7D7D7D7D7D7D7D7D7D7D7D7D7D7D7D7D7D7D7D7D7D7D7D7D7D7D7D7D7D7D7D7D7D7D7D7D7D7D7D7D7D7D7D7D7D7D7D7D7D7D7D7D7D7D7D7
310
D7D7D7D7D7D7D7D7D7D7D7D7D7D7D7D7D7D7D7D7D7D7D7D7D7D7D7D7D7D7D7D7D7D7D7D7D7D7D7D7D7D7D7D7D7D7D7D7D700D7D70000D7D700D7D7D7D7D7D7D7D7D7D7D7D7D7D7D7D7D7D7D7D7D7D7D7D7D7D7D7D7D7D7D7D7D7D7D7D7D7D7D7D7D7D7D7D7D7D7D7D7D7D7D7D7D7D7D7D7D7D7D7D7D7D7D7D7D7D7D7D7D7D7
310
D7D7D7D7D7D7D7D7D7D7D7D7D7D7D7D7D7D7D7D7D7D7D7D7D7D7D7D7D7D7D7D7D7D7D7D7D7D7D7D7D7D7D7D7D7D7D7D7D7D7D7D7D7D7D7D7D7D7D7D7D7D7D7D7D7D7D7D7D7D7D7D7D7D7D7D7D7D7D7D7D7D7D7D7D7D7D7D7D7D7D7D7D7D7D7D7D7D7D7D7D7D7D7D7D7D7D7D7D7D7D7D7D7D7D7D7D7D7D7D7D7D7D7D7D7D7D7
310
D7D7D7D7D7D7D700D7D70000D7D700D7D7D7D7D7D7D7D7D7D7D7D7D7D7D7D7D7D7D7D7D7D7D7D7D7D7D7D7D7D7D7D7D7D7D7D7D7D7D7D7D7D7D7D7D7D7D7D7D7D7D7D7D7D7D7D7D7D7D7D7D7D7D7D7D7D7D7D7D7D7D7D7D7D7D7D7D7D7D7D7D7D7D7D7D7D7D7D7D7D7D7D7D7D7D7D7D7D7D7D7D7D7D7D7D7D7D7D7D7D7D7D7
310
D7D7D7D7D7D7D7D7D7D7D7D7D7D7D7D7D7D7D7D7D7D7D7D7D7D7D7D7D7D7D7D7D7D7D7D7D7D7D7D7D7D7D7D7D7D7D7D7D7D7D7D7D7D7D7D7D7D7D7D7D7D7D7D7D7D7D7D7D7D7D7D7D7D7D7D7D7D7D7D7D7D7D7D7D7D7D7D7D7D7D7D700D7D70000D7D700D7D7D7D7D7D7D7D7D7D7D7D7D7D7D7D7D7D7D7D7D7D7D7D7D7D7D7
310
D7D7D7D7D7D7D7D7D7D7D7D7D7D7D7D7D7D7D7D7D7D7D7D7D7D7D7D7D7D7D7D7D7D7D7D7D7D7D7D7D7D7D7D7D7D7D7D7D7D7D7D7D7D7D7D7D7D7D7D7D7D7D7D7D7D7D7D7D7D7D7D7D7D7D7D7D7D7D7D7D7D7D7D7D7D7D7D7D7D7D7D7D7D7D7D7D7D7D7D7D7D7D7D7D7D7D7D7D7D7D7D7D7D7D7D7D7D7D7D7D7D7D7D7D7D7D7
310
D7D7D7D7D7D7D7D7D7D7D7D7D7D7D7D7D7D7D7D7D7D7D7D7D7D7D7D7D7D7D7D7D7D7D7D7D7D7D7D7D7D7D7D7D7D7D7D7D7D700D7D70000D7D700D7D7D7D7D7D7D7D7D7D7D7D7D7D7D7D7D7D7D7D7D7D7D7D7D7D7D7D7D7D7D7D7D7D7D7D7D7D7D7D7D7D7D7D7D7D7D7D7D7D7D7D7D7D7D7D7D7D7D7D7D7D7D7D7D7D7D7D7D7
310
D7D7D7D7D7D7D7D7D7D7D7D7D7D7D7D7D7D7D7D7D7D7D7D7D7D7D7D7D7D7D7D7D7D7D7D7D7D70000D7D7D7D7D7D7D7D7D7D7D7D7D7D7D7D7D7D7D7D7D7D7D7D7D7D7D7D7D7D7D7D7D7D7D7D7D7D7D7D7D7D7D7D7D7D7D7D7D7D7D7D7D7D7D7D7D7D7D7D7D7D7D7D7D7D7D7D7D7D7D7D7D7D7D7D7D7D7D7D7D7D7D7D7D7D7D7
310
D7D7D7D7D7D7D7D700D7D70000D7D700D7D7D7D7D7D7D7D7D7D7D7D7D7D7D7D7D7D7D7D7D7D7D7D7D7D7D7D7D7D7D7D7D7D7D7D7D7D7D7D7D7D7D7D7D7D7D7D7D7D7D7D7D7D7D7D7D7D7D7D7D7D7D7D7D7D7D7D7D7D7D7D7D7D7D7D7D7D7D7D7D7D7D7D7D7D7D7D7D7D7D7D7D7D7D7D7D7D7D7D7D7D7D7D7D70000D7D7D700
310
00D7D7D7D7D7D7D7D7D7D7D7D7D7D7D7D7D7D7D7D7D7D7D7D7D7D7D7D7D7D7D7D7D7D7D7D7D7D7D7D7D7D7D7D7D7D7D7D7D7D7D7D7D7D7D7D7D7D7D7D7D7D7D7D7D7D7D7D7D7D7D7D7D7D7D7D7D7D7D7D7D7D7D7D7D7D7D7D7D7D7D7D700D7D70000D7D700D7D7D7D7D7D7D7D7D7D7D7D7D7D7D7D7D7D7D7D7D7D7D7D7D7D7
310
D7D7D7D7D7D7D7D7D7D7D7D7D7D7D7D7D7D7D7D7D7D7D7D7D7D7D7D7D7D7D7D7D7D7D7D7D7D7D7D7D7D7D7D7D7D7D7D7D7D7D7D7D7D7D7D7D7D7D7D7D7D7D7D7D7D7D7D7D7D7D7D7D7D7D7D7D7D70000D7D7D7D7D70000D7D7D7D7D7D7D7D7D7D7D7D7D7D7D7D7D7D7D7D7D7D7D7D7D7D7D7D7D7D7D7D7D7D7D7D7D7D7D7D7
310
D7D7D7D7D7D7D7D7D7D7D7D7D7D7D7D7D7D7D7D7D7D7D7D7D7D7D7D7D7D7D7D7D7D7D7D7D7D7D7D7D7D7D7D7D7D7D7D7D7D7D700D7D70000D7D700D7D7D7D7D7D7D7D7D7D7D7D7D7D7D7D7D7D7D7D7D7D7D7D7D7D7D7D7D7D7D7D7D7D7D7D7D7D7D7D7D7D7D7D7D7D7D7D7D7D7D7D7D7D7D7D7D7D7D7D7D7D7D7D7D7D7D7D7
310
D7D7D7D7D7D7D7D7D7D7D7D7D7D7D7D7D7D7D7D7D7D7D7D7D7D7D7D7D7D7D7D7D7D7D700D7D7D7D7D7D7D7D7D700D7D7D7D7D7D7D7D7D7D7D7D7D7D7D7D7D7D7D7D7D7D7D7D7D7D7D7D7D7D7D7D7D7D7D7D7D7D7D7D7D7D7D7D7D7D7D7D7D7D7D7D7D7D7D7D7D7D7D7D7D7D7D7D7D7D7D7D7D7D7D7D7D7D7D7D7D7D7D7D7D7
310
D7D7D7D7D7D7D7D7D700D7D70000D7D700D7D7D7D7D7D7D7D7D7D7D7D7D7D7D7D7D7D7D7D7D7D7D7D7D7D7D7D7D7D7D7D7D7D7D7D7D7D7D7D7D7D7D7D7D7D7D7D7D7D7D7D7D7D7D7D7D7D7D7D7D7D7D7D7D7D7D7D7D7D7D7D7D7D7D7D7D7D7D7D7D7D7D7D7D7D7D7D7D7D7D7D7D7D7D7D7D7D7D7D7D7D7D700D7D7D7D7D7D7
310
D7D7D70000D7D7D7D7D7D7D7D7D7D7D7D7D7D7D7D7D7D7D7D7D7D7D7D7D7D7D7D7D7D7D7D7D7D7D7D7D7D7D7D7D7D7D7D7D7D7D7D7D7D7D7D7D7D7D7D7D7D7D7D7D7D7D7D7D7D70000D7D7D7D7D7D7D7D7D7D7D7D7D7D7D7D7D7D7D7D7D700D7D70000D7D700D7D7D7D7D7D7D7D7D7D7D7D7D7D7D7D7D7D7D7D7D7D7D7D7D7
310
D7D7D7D7D7D7D7D7D7D7D7D7D7D7D7D7D7D7D7D7D7D7D7D7D7D7D7D7D7D7D7D7D7D7D7D7D7D7D7D7D7D7D7D7D7D7D7D7D7D7D7D7D7D7D7D7D7D7D7D7D7D7D7D7D7D7D7D7D7D7D7D7D7D7D7D7D70000D7D7D7D7D7D7D7D7D70000D7D7D7D7D7D7D7D7D7D7D7D7D7D7D7D7D7D7D7D7D7D7D7D7D7D7D7D7D7D7D7D7D7D7D7D7D7
310
D7D7D7D7D7D7D7D7D7D7D7D7D7D7D7D7D7D7D7D7D7D7D7D7D7D7D7D7D7D7D7D7D7D7D7D7D7D7D7D7D7D7D7D7D7D7D7D7D7D7D7D700D7D70000D7D700D7D7D7D7D7D7D7D7D7D7D7D7D7D7D7D7D7D7D7D7D7D7D7D7D7D7D7D7D7D7D7D7D7D7D7D7D7D7D7D7D7D7D7D7D7D7D7D7D7D7D7D7D7D7D7D7D7D7D7D7D7D7D7D7D7D7D7
310
D7D7D7D7D7D7D7D7D7D7D7D7D7D7D7D7D7D7D7D7D7D7D7D7D7D7D7D7D7D7D7D7D7D7D70000D7D7D7D7D7D7D7D7D70000D7D7D7D7D7D7D7D7D7D7D7D7D7D7D7D7D7D7D7D7D7D7D7D7D7D7D7D7D7D7D7D7D7D7D7D7D7D7D7D7D7D7D7D7D7D7D7D7D7D7D7D7D7D7D7D7D700D7D7D7D7D7D700D7D7D7D7D7D7D7D7D7D7D7D7D7D7
310
D7D7D7D7D7D7D7D7D7D700D7D70000D7D700D7D7D7D7D7D7D7D7D7D7D7D7D7D7D7D7D7D7D7D7D7D7D7D7D7D7D7D7D7D7D7D7D7D7D7D7D7D7D7D7D7D7D7D7D7D7D7D7D7D7D7D7D7D7D7D7D7D7D7D7D7D7D7D7D7D7D7D7D7D7D7D7D7D7D7D7D7D7D7D7D7D7D7D7D7D7D7D7D7D7D7D7D7D7D7D7D7D7D7D7D7D7D700D7D7D7D7D7
310
D7D7D7D70000D7D7D7D7D7D7D7D7D7D7D7D7D7D7D7D7D7D7D7D7D7D7D7D7D7D7D7D7D7D7D7D7D7D7D7D7D7D7D7D7D7D7D7D7D7D7D7D7D7D7D7D7D7D7D7D7D700D70000D7D7D700D7D7D7D7D70000D7D7D7D7D7D7D7D7D7D7D7D7D7D7D7D7D700D7D70000D7D700D7D7D7D7D7D7D7D7D7D7D7D7D7D7D7D7D7D7D7D7D7D7D7D7
310
D7D7D7D7D7D7D7D7D7D7D7D7D7D7D7D7D7D7D7D7D7D7D7D7D7D7D7D7D7D7D7D7D7D7D7D7D7D7D7D7D7D7D7D7D7D7D7D7D7D7D7D7D7D7D7D7D7D7D7D7D7D7D7D7D7D7D7D7D7D7D7D7D7D7D7D7D7D7D700D7D7D7D7D7D7D7D7D700D7D7D7D7D7D7D7D7D7D7D7D7D7D7D7D7D7D7D7D7D7D7D7D7D7D7D7D7D7D7D7D7D7D7D7D7D7
310
D7D7D7D7D7D7D7D7D7D7D7D7D7D7D7D7D7D7D7000000D70000D7D700D7D70000D7D700D7D7D7D7D7D7D7D7D7D7D7D7D7D7D7D7D7D700D7D70000D7D700D7D7D7D7D7D7D7D7D7D7D7D7D7D7D7D7D7D7D7D7D7D7D7D7D7D7D7D7D7D7D7D7D7D7D7D7D7D7D7D7D7D7D7D7D7D7D7D7D7D7D7D7D7D7D7D7D7D7D7D7D7D7D7D7D7D7
310
D7D7D7D7D7D7D7D7D7D7D7D7D7D7D7D7D7D7D7D7D7D7D7D7D7D7D7D7D7D7D7D7D7D7D7D7D700D7D7D7D7D7D7D7D7D700D7D7D7D7D7D7D7D7D7D7D7D7D7D7D7D7D7D7D7D7D7D7D7D7D7D7D7D7D7D7D7D7D7D7D7D7D7D7D7D7D7D7D7D7D7D7D7D7D7D7D7D7D7D7D7D7D7D700D7D7D7D7D7D7D7D7D7D7D7D7D7D7D7D7D7D7D7D7
310
D7D7D7D7D7D7D7D7D7D7D700D7D70000D7D700D7D7D7D7D7D7D7D7D7D7D7D7D7D7D7D7D7D7D7D7D7D7D7D7D7D7D7D7D7D7D7D7D7D7D7D7D7D7D7D7D7D7D7D7D7D7D7D7D7D7D7D7D7D7D7D7D7D7D7D7D7D7D7D7D7D7D7D7D7D7D7D7D7D7D7D7D7D7D7D7D7D7D7D7D7D7D7D7D7D7D7D7D7D7D7D7D7D7D7D7D7D7D7D700D7D7D7
310
D7D7D7D700D7D7D7D7D7D7D7D7D7D7D7D7D7D7D7D7D7D7D7D7D7D7D7D7D7D7D7D7D7D7D7D7D7D7D7D7D7D7D7D7D7D7D7D7D7D7D7D7D7D7D7D7D7D7D7D7D7D7D7D7D7D7D7D7D7D7D7D7D7D7D7D7D7D7D7D7D7D7D7D7D7D7D7D7D7D7D7D7D7D7D700D7D70000D7D700D7D7D7D7D7D7D7D7D7D7D7D7D7D7D7D7D7D7D7D7D7D7D7
310
D7D7D7D7D7D7D7D7D7D7D7D7D7D7D7D7D7D7D7D7D7D7D7D7D7D7D7D7D7D7D7D7D7D7D7D7D7D7D7D7D7D7D7D7D7D7D7D7D7D7D7D7D7D7D7D7D7D7D7D7D7D7D7D7D7D7D7D7D7D7D7D7D7D7D7D7D7D7D7D7D700D7D7D7D7D7D7D700D7D7D7D7D7D7D7D7D7D7D7D7D7D7D7D7D7D7D7D7D7D7D7D7D7D7D7D7D7D7D7D7D7D7D7D7D7
310
D7D7D7D7D7D7D7D7D7D7D7D7D7D7D7D7D7D7D7D7D7D7D7D7D7D7D7D7D7D7D7D7D7D7D7D7D7D7D7D7D7D7D7D7D7D7D7D7D7D7D7D7D7D700D7D70000D7D700D7D7D7D7D7D7D7D7D7D7D7D7D7D7D7D7D7D7D7D7D7D7D7D7D7D7D7D7D7D7D7D7D7D7D7D7D7D7D7D7D7D7D7D7D7D7D7D7D7D7D7D7D7D7D7D7D7D7D7D7D7D7D7D7D7
310
D7D7D7D7D7D7D7D7D7D7D7D7D7D7D7D7D7D7D7D7D7D7D7D7D7D7D7D7D7D7D7D7D7D7D7D7D7D7D70000D7D7D7D7D7D700D7D7D7D7D7D7D7D7D7D7D7D7D7D7D7D7D7D7D7D7D7D7D7D7D7D7D7D7D7D7D7D7D7D7D7D7D7D7D7D7D7D7D7D7D7D7D7D7D7D7D7D7D7D7D7D7D7D7D7D7D7D7D7D7D7D7D7D7D7D7D7D7D7D7D7D7D7D7D7
310
D7D7D7D7D7D7D7D7D7D7D7D700D7D70000D7D700D7D7D7D7D7D7D7D7D7D7D7D7D7D7D7D7D7D7D7D7D7D7D7D7D7D7D7D7D7D7D7D7D7D7D7D7D7D7D7D7D7D7D7D7D7D7D7D7D7D7D7D7D7D7D7D7D7D7D7D7D7D7D7D7D7D7D7D7D7D7D7D7D7D7D7D7D7D7D7D7D7D7D7D7D7D7D7D7D7D7D7D7D7D7D7D7D7D7D7D7D7D7D7D70000D7
310
D7D7D7D70000D7D7D7D7D7D7D7D7D7D7D7D7D7D7D7D7D7D7D7D7D7D7D7D7D7D7D7D7D7D7D7D7D7D7D7D7D7D7D7D7D7D7D7D7D7D700D700D70000D70000D7000000D7D7D7D7D7D7D700D700D7D7D7D7D7D7D7D7D7D7D7D7D7D7D7D7D7D7D7D7D7D700D7D70000D7D700D7D7D7D7D7D7D7D7D7D7D7D7D7D7D7D7D7D7D7D7D7D7
310
D7D7D7D7D7D7D7D7D7D7D7D7D7D7D7D7D7D7D7D7D7D7D7D7D7D7D7D7D7D7D7D7D7D7D7D7D7D7D7D7D7D7D7D7D7D7D7D7D7D7D7D7D7D7D7D7D7D7D7D7D7D7D7D7D7D7D7D7D7D7D7D7D7D7D7D7D7D7D7D7D7D70000D7D7D7D7D70000D7D7D7D7D7D7D7D7D7D7D7D7D7D7D7D7D7D7D7D7D7D7D7D7D7D7D7D7D7D7D7D7D7D7D7D7
310
D7D7D7D7D7D7D7D7D7D700D700D70000D70000D7D70000D7D7D7D70000D700D700D7D7D7D7D7D7D7D7D7D7D7D7D7D7D7D7D7D7D7D7D7D700D7D70000D7D700D7D7D7D7D7D7D7D7D7D7D7D7D7D7D7D7D7D7D7D7D7D7D7D7D7D7D7D7D7D7D7D7D7D7D7D7D7D7D7D7D7D7D7D7D7D7D7D7D7D7D7D7D7D7D7D7D7D7D7D7D7D7D7D7
310
D7D7D7D7D7D7D7D7D7D7D7D7D7D7D7D7D7D7D7D7D7D7D7D7D7D7D7D7D7D7D7D7D7D7D7D7D7D7D7D7D700D7D7D7D7D700D7D7D7D7D7D7D7D7D7D7D7D7D7D7D7D7D7D7D7D7D7D7D7D7D7D7D7D7D7D7D7D7D7D7D7D7D7D7D7D7D7D7D7D7D7D7D70000D7D700D700D7D700D700D7D7D7D7D70000D70000D7D70000D7D7D7D7D7D7
310
D7D7D7D7D7D7D7D7D7D7D7D7D700D7D70000D7D700D7D7D7D7D7D7D7D7D7D7D7D7D7D7D7D7D7D7D7D7D7D7D7D7D7D7D7D7D7D7D7D7D7D7D7D7D7D7D7D7D7D7D7D7D7D7D7D7D7D7D7D7D7D7D7D7D7D7D7D7D7D7D7D7D7D7D7D7D7D7D7D7D7D7D7D7D7D7D7D7D7D7D7D7D7D7D7D7D7D7D7D7D7D7D7D7D7D7D7D7D7D7D7D7D700
310
D7D7D7D7D700D7D7D7D7D7D7D7D7D7D7D7D7D7D7D7D7D7D7D7D7D7D7D7D7D7D7D7D7D7D7D7D7D7D7D7D7D7D7D7D7D7D7D7D7D7D7D700D7D7D700D7D7D7D7D7D700D7D7D7D7D7D7D7D7D7D7D7D7D7D7D7D7D7D7D7D7D7D7D7D7D7D7D7D7D7D7D7D7D700D7D70000D7D700D7D7D7D7D7D7D7D7D7D7D7D7D7D7D7D7D7D7D7D7D7
310
D7D7D7D7D7D7D7D7D7D7D7D7D7D7D7D7D7D7D7D7D7D7D7D7D7D7D7D7D7D7D7D7D7D7D7D7D7D7D7D7D7D7D7D7D7D7D7D7D7D7D7D7D7D7D7D7D7D7D7D7D7D7D7D7D7D7D7D7D7D7D7D7D7D7D7D7D7D7D7D7D7D7D7D7D7000000000000D7D7D7D7D7D7D7D7D7D7D7D7D7D7D7D7D7D7D7D7D7D7D7D7D7D7D7D7D7D7D7D7D7D7D7D7
310
D7D7D7D7D7D7D7D7D7D7D7D7D7D7D7D7D7D7D7D7D7D7D7D7D7D7D7D7D7D7D7D7D7D7D7D7D7D7D7D7D7D7D7D7D7D7D7D7D7D7D7D7D7D7D7D700D7D70000D7D700D7D7D7D7D7D7D7D7D7D7D7D7D7D7D7D7D7D7D7D7D7D7D7D7D7D7D7D7D7D7D7D7D7D7D7D7D7D7D7D7D7D7D7D7D7D7D7D7D7D7D7D7D7D7D7D7D7D7D7D7D7D7D7
310
D7D7D7D7D7D7D7D7D7D7D7D7D7D7D7D7D7D7D7D7D7D7D7D7D7D7D7D7D7D7D7D7D7D7D7D7D7D7D7D7D7D7D70000000000D7D7D7D7D7D7D7D7D7D7D7D7D7D7D7D7D7D7D7D7D7D7D7D7D7D7D7D7D7D7D7D7D7D7D7D7D7D7D7D7D7D7D7D7D7D7D7D7D7D7D7D7D7D7D7D7D7D7D7D7D7D7D7D7D7D7D7D7D7D7D7D7D7D7D7D7D7D7D7
310
D7D7D7D7D7D7D7D7D7D7D7D7D7D700D7D70000D7D700D7D7D7D7D7D7D7D7D7D7D7D7D7D7D7D7D7D7D7D7D7D7D7D7D7D7D7D7D7D7D7D7D7D7D7D7D7D7D7D7D7D7D7D7D7D7D7D7D7D7D7D7D7D7D7D7D7D7D7D7D7D7D7D7D7D7D7D7D7D7D7D7D7D7D7D7D7D7D7D7D7D7D7D7D7D7D7D7D7D7D7D7D7D7D7D7D7D7D7D7D7D7D7D7D7
310
D7D7D70000D7D7D7D7D7D7D7D7D7D7D7D7D7D7D7D7D7D7D7D7D7D7D7D7D7D7D7D7D7D7D7D7D7D7D7D7D7D7D7D7D700D7D7D7D7D700D7D7D7D7D7D7D7D7D7D7D7D7D7D7D7D7D7D7D7D7D7D7D7D7D7D7D7D7D7D7D7D7D7D7D7D7D7D7D7D7D7D7D7D7D7D700D7D70000D7D700D7D7D7D7D7D7D7D7D7D7D7D7D7D7D7D7D7D7D7D7
310
D7D7D7D7D7D7D7D7D7D7D7D7D7D7D7D7D7D7D7D7D7D7D7D7D7D7D7D7D7D7D7D7D7D7D7D7D7D7D7D7D7D7D7D7D7D7D7D7D7D7D7D7D7D7D7D7D7D7D7D7D7D7D7D7D7D7D7D7D7D7D7D7D7D7D7D7D7D7D7D7D7D7D7D7D7D7D7D7D700D7D7D7D7D7D7D7D7D7D7D7D7D7D7D7D7D7D7D7D7D7D7D7D7D7D7D7D7D7D7D7D7D7D7D7D7D7
310
D7D7D7D70000D70000000000D7D7D70000D7D7D70000000000D7D7D7D70000D7D70000D7D7D7D7D7D7D7D7D7D7D7D7D7D7D7D7D7D7D7D7D7D700D7D70000D7D700D7D7D7D7D7D7D7D7D7D7D7D7D7D7D7D7D7D7D7D7D7D7D7D7D7D7D7D7D7D7D7D7D7D7D7D7D7D7D7D7D7D7D7D7D7D7D7D7D7D7D7D7D7D7D7D7D7D7D7D7D7D7
310
D7D7D7D7D7D7D7D7D7D7D7D7D7D7D7D7D7D7D7D7D7D7D7D7D7D7D7D7D7D7D7D7D7D7D7D7D7D7D7D7D7D7D7D7D7D7D700D7D7D7D7D7D7D7D7D7D7D7D7D7D7D7D7D7D7D7D7D7D7D7D7D7D7D7D7D7D7D7D7D7D7D7D7D7D7D7D700D700D700D70000D700D7D700D700D700D7D700D7D7D70000D7D7D7D700D7D7D7D7D7D7D7D7D7
310
D7D7D7D7D7D7D7D7D7D7D7D7D7D7D700D7D70000D7D700D7D7D7D7D7D7D7D7D7D7D7D7D7D7D7D7D7D7D7D7D7D7D7D7D7D7D7D7D7D7D7D7D7D7D7D7D7D7D7D7D7D7D7D7D7D7D7D7D7D7D7D7D7D7D7D7D7D7D7D7D7D7D7D7D7D7D7D7D7D7D7D7D7D7D7D7D7D7D7D7D7D7D7D7D7D7D7D7D7D7D7D7D7D7D7D7D7D7D7D7D7D7D7D7
310
D7D7D7D7D700D7D7D7D7D7D7D7D7D7D7D7D7D7D7D7D7D7D7D7D7D7D7D7D7D7D7D7D7D7D7D7D7D7D7D7D7D7D7D7D700D700D7D7D70000D700D7D700D700D700D70000D7D7D70000D7D7D7D700D700D7D7D7D7D7D7D7D7D7D7D7D7D7D7D7D7D7D7D7D7D7D700D7D70000D7D700D7D7D7D7D7D7D7D7D7D7D7D7D7D7D7D7D7D7D7
310
D7D7D7D7D7D7D7D7D7D7D7D7D7D7D7D7D7D7D7D7D7D7D7D7D7D7D7D7D7D7D7D7D7D7D7D7D7D7D7D7D7D7D7D7D7D7D7D7D7D7D7D7D7D7D7D7D7D7D7D7D7D7D7D7D7D7D7D7D7D7D7D7D7D7D7D7D7D7D7D7D7D7D7D7D7D7D7D7D7D700D7D7D7D7D7D7D7D7D7D7D7D7D7D7D7D7D7D7D7D7D7D7D7D7D7D7D7D7D7D7D7D7D7D7D7D7
310
D7D7D7D7D7D7D7D7D7D7D7D7D7D7D7D700D7D7D7D7D7D700D7D7D7D7D7D7D7D7D7D7D7D7D7D7D7D7D7D7D7D7D7D7D7D7D7D7D7D7D7D7D7D7D7D700D7D70000D7D700D7D7D7D7D7D7D7D7D7D7D7D7D7D7D7D7D7D7D7D7D7D7D7D7D7D7D7D7D7D7D7D7D7D7D7D7D7D7D7D7D7D7D7D7D7D7D7D7D7D7D7D7D7D7D7D7D7D7D7D7D7
310
D7D7D7D7D7D7D7D7D7D7D7D7D7D7D7D7D7D7D7D7D7D7D7D7D7D7D7D7D7D7D7D7D7D7D7D7D7D7D7D7D7D7D7D7D7D7D7D700D7D7D7D7D7D7D7D7D7D7D7D7D7D7D7D7D7D7D7D7D7D7D7D7D7D7D7D7D7D7D7D7D7D7D7D7D7D7D7D7D7D7D7D7D7D7D7D7D7D7D7D700D7D7D7D7D7D700D7D7D7D7D7D7D7D7D7D7D7D7D7D7D7D7D7D7
310
D7D7D7D7D7D7D7D7D7D7D7D7D7D7D7D700D7D70000D7D700D7D7D7D7D7D7D7D7D7D7D7D7D7D7D7D7D7D7D7D7D7D7D7D7D7D7D7D7D7D7D7D7D7D7D7D7D7D7D7D7D7D7D7D7D7D7D7D7D7D7D7D7D7D7D7D7D7D7D7D7D7D7D7D7D7D7D7D7D7D7D7D7D7D7D7D7D7D7D7D7D7D7D7D7D7D7D7D7D7D7D7D7D7D7D7D7D7D7D7D7D7D7D7
310
D7D7D7D7D7D700D7D7D7D7D7D7D7D7D7D7D7D7D7D7D7D7D7D7D7D7D7D7D7D7D7D7D7D7D7D7D7D7D7D7D7D7D7D7D7D7D7D7D7D7D7D7D7D7D7D7D7D7D7D7D7D7D7D7D7D7D7D7D7D7D7D7D7D7D7D7D7D7D7D7D7D7D7D7D7D7D7D7D7D7D7D7D7D7D7D7D7D7D7D700D7D70000D7D700D7D7D7D7D7D7D7D7D7D7D7D7D7D7D7D7D7D7
310
D7D7D7D7D7D7D7D7D7D7D7D7D7D7D7D7D7D7D7D7D7D7D7D7D7D7D7D7D7D7D7D7D7D7D7D7D7D7D7D7D7D7D7D7D7D7D7D7D7D7D7D7D7D7D7D7D7D7D7D7D7D7D7D7D7D7D7D7D7D7D7D7D7D7D7D7D7D7D7D7D7D7D7D7D7D7D7D7D7D7D700D7D7D7D7D7D7D7D7D7D7D7D7D7D7D7D7D7D7D7D7D7D7D7D7D7D7D7D7D7D7D7D7D7D7D7
310
D7D7D7D7D7D7D7D7D7D7D7D7D7D7D7D7D7D7D7D7D7D7D7D7D7D7D7D7D7D7D7D7D7D7D7D7D7D7D7D7D7D7D7D7D7D7D7D7D7D7D7D7D7D7D7D7D7D7D700D7D70000D7D700D7D7D7D7D7D7D7D7D7D7D7D7D7D7D7D7D7D7D7D7D7D7D7D7D7D7D7D7D7D7D7D7D7D7D7D7D7D7D7D7D7D7D7D7D7D7D7D7D7D7D7D7D7D7D7D7D7D7D7D7
310
D7D7D7D7D7D7D7D7D7D7D7D7D7D7D7D7D7D7D7D7D7D7D7D7D7D7D7D7D7D7D7D7D7D7D7D7D7D7D7D7D7D7D7D7D7D7D7D7D700D7D7D7D7D7D7D7D7D7D7D7D7D7D7D7D7D7D7D7D7D7D7D7D7D7D7D7D7D7D7D7D7D7D7D7D7D7D7D7D7D7D7D7D7D7D7D7D7D7D7D7D7D7D7D7D7D7D7D7D7D7D7D7D7D7D7D7D7D7D7D7D7D7D7D7D7D7
310
D7D7D7D7D7D7D7D7D7D7D7D7D7D7D7D7D700D7D70000D7D700D7D7D7D7D7D7D7D7D7D7D7D7D7D7D7D7D7D7D7D7D7D7D7D7D7D7D7D7D7D7D7D7D7D7D7D7D7D7D7D7D7D7D7D7D7D7D7D7D7D7D7D7D7D7D7D7D7D7D7D7D7D7D7D7D7D7D7D7D7D7D7D7D7D7D7D7D7D7D7D7D7D7D7D7D7D7D7D7D7D7D7D7D7D7D7D7D7D7D7D7D7D7
310
D7D7D7D7D7D7D700D7D7D7D7D7D7D7D7D7D7D7D7D7D7D7D7D7D7D7D7D7D7D7D7D7D7D7D7D7D7D7D7D7D7D7D7D7D7D7D7D7D700D700D70000D7D7D7D7D7D7D700D700D700D7D700D7D700D700D7D7D70000D700D7D7D7D7D7D7D7D7D7D7D7D7D7D7D7D7D7D7D700D7D70000D7D700D7D7D7D7D7D7D7D7D7D7D7D7D7D7D7D7D7
310
D7D7D7D7D7D7D7D7D7D7D7D7D7D7D7D7D7D7D7D7D7D7D7D7D7D7D7D7D7D7D7D7D7D7D7D7D7D7D7D7D7D7D7D7D7D7D7D7D7D7D7D7D7D7D7D7D7D7D7D7D7D7D7D7D7D7D7D7D7D7D7D7D7D7D7D7D7D7D7D7D7D7D7D7D7D7D7D7D7D7D7D700D7D7D7D7D7D7D7D7D7D7D7D7D7D7D7D7D7D7D7D7D7D7D7D7D7D7D7D7D7D7D7D7D7D7
310
D7D7D7D7D7D7D7D700D7D700D7D7D7D7D7D7D7D7D700D700D700D7D700D7D700D700D7D7D70000D700D7D7D7D7D7D7D7D7D7D7D7D7D7D7D7D7D7D7D700D7D70000D7D700D7D7D7D7D7D7D7D7D7D7D7D7D7D7D7D7D7D7D7D7D7D7D7D7D7D7D7D7D7D7D7D7D7D7D7D7D7D7D7D7D7D7D7D7D7D7D7D7D7D7D7D7D7D7D7D7D7D7D7
310
D7D7D7D7D7D7D7D7D7D7D7D7D7D7D7D7D7D7D7D7D7D7D7D7D7D7D7D7D7D7D7D7D7D7D7D7D7D7D7D7D7D7D7D7D7D7D7D7D7D700D7D7D7D7D7D7D7D7D7D7D7D7D7D7D7D7D7D7D7D7D7D7D7D7D7D7D7D7D7D7D7D7D7D7D7D7D7D7D7D7D7D700D7D700D7D7D70000D7D7D7000000D70000D700D7D7D700000000D7D70000D700D7
310
D7D7D7D7D7D7D7D7D7D7D7D7D7D7D7D7D7D700D7D70000D7D700D7D7D7D7D7D7D7D7D7D7D7D7D7D7D7D7D7D7D7D7D7D7D7D7D7D7D7D7D7D7D7D7D7D7D7D7D7D7D7D7D7D7D7D7D7D7D7D7D7D7D7D7D7D7D7D7D7D7D7D7D7D7D7D7D7D7D7D7D7D7D7D7D7D7D7D7D7D7D7D7D7D7D7D7D7D7D7D7D7D7D7D7D7D7D7D7D7D7D7D7D7
310
D7D7D7D7D7D7D7D700D7D7D7D7D7D7D7D7D7D7D7D7D7D7D7D7D7D7D7D7D7D7D7D7D7D7D7D7D7D7D7D7D7D7D7D7D7D7D7D7D70000D7D700D7D7D70000D7D7D7D7D7D700D7D7D7D7D7D7D7D7D7D7D7D7D7D7D7D700D7D7D7D7D7D7D7D7D7D7D7D7D7D7D7D7D7D7D700D7D70000D7D700D7D7D7D7D7D7D7D7D7D7D7D7D7D7D7D7
310
D7D7D7D7D7D7D7D7D7D7D7D7D7D7D7D7D7D7D7D7D7D7D7D7D7D7D7D7D7D7D7D7D7D7D7D7D7D7D7D7D7D7D7D7D7D7D7D7D7D7D7D7D7D7D7D7D7D7D7D7D7D7D7D7D7D7D7D7D7D7D7D7D7D7D7D7D7D7D7D7D7D7D7D7D7D7D7D7D7D7D7D7D700D7D7D7D7D7D7D7D7D7D7D7D7D7D7D7D7D7D7D7D7D7D7D7D7D7D7D7D7D7D7D7D7D7
310
D7D7D7D7D7D7D7D7D7D7D7D7D7D7D7D7D7D7D7D7D7D700D7D7D7D7D7D7D7D7D7D7D7D7D7D7D7D7D7D7D7D7D7D7D7D7D7D7D7D7D7D7D7D7D7D7D7D7D7D700D7D70000D7D700D7D7D7D7D7D7D7D7D7D7D7D7D7D7D7D7D7D7D7D7D7D7D7D7D7D7D7D7D7D7D7D7D7D7D7D7D7D7D7D7D7D7D7D7D7D7D7D7D7D7D7D7D7D7D7D7D7D7
310
D7D7D7D7D7D7D7D7D7D7D7D7D7D7D7D7D7D7D7D7D7D7D7D7D7D7D7D7D7D7D7D7D7D7D7D7D7D7D7D7D7D7D7D7D7D7D7D7D7D7D700D7D7D7D7D7D7D7D7D7D7D7D7D7D7D7D7D7D7D7D7D7D7D7D7D7D7D7D7D7D7D7D7D7D7D7D7D7D7D7D7D7D7D7D7D7D7D7D7D7D7D7D7D7D700D7D7D7D7D7D7D7D7D7D7D7D7D7D7D7D7D7D7D7D7
310
D7D7D7D7D7D7D7D7D7D7D7D7D7D7D7D7D7D7D700D7D70000D7D700D7D7D7D7D7D7D7D7D7D7D7D7D7D7D7D7D7D7D7D7D7D7D7D7D7D7D7D7D7D7D7D7D7D7D7D7D7D7D7D7D7D7D7D7D7D7D7D7D7D7D7D7D7D7D7D7D7D7D7D7D7D7D7D7D7D7D7D7D7D7D7D7D7D7D7D7D7D7D7D7D7D7D7D7D7D7D7D7D7D7D7D7D7D7D7D7D7D7D7D7
310
D7D7D7D7D7D7D7D7D700D7D7D7D7D7D7D7D7D7D7D7D7D7D7D7D7D7D7D7D7D7D7D7D7D7D7D7D7D7D7D7D7D7D7D7D7D7D7D7D7D70000D7D7D7D7D7D7D7D7D70000D7D7D7D7D7D7D7D7D7D7D7D7D7D7D7D7D7D7D7D7D7D7D7D7D7D7D7D7D7D7D7D7D7D7D7D7D7D7D7D700D7D70000D7D700D7D7D7D7D7D7D7D7D7D7D7D7D7D7D7
310
D7D7D7D7D7D7D7D7D7D7D7D7D7D7D7D7D7D7D7D7D7D7D7D7D7D7D7D7D7D7D7D7D7D7D7D7D7D7D7D7D7D7D7D7D7D7D7D7D7D7D7D7D7D7D7D7D7D7D7D7D7D7D7D7D7D7D7D7D7D7D7D7D7D7D7D7D7D7D7D7D7D7D7D7D7D7D7D7D7D7D7D7D7D700D7D7D7D7D7D7D7D7D7D7D7D7D7D7D7D7D7D7D7D7D7D7D7D7D7D7D7D7D7D7D7D7
310
D7D7D7D7D7D7D7D700D7D70000D7D7D7D7D7D7D7D7D7D7D7D7D7D7D7D7D7D7D7D7D7D7D7D7D7D7D7D7D7D7D7D7D7D7D7D7D7D7D7D7D7D7D7D7D7D7D7D7D700D7D70000D7D700D7D7D7D7D7D7D7D7D7D7D7D7D7D7D7D7D7D7D7D7D7D7D7D7D7D7D7D7D7D7D7D7D7D7D7D7D7D7D7D7D7D7D7D7D7D7D7D7D7D7D7D7D7D7D7D7D7
310
D7D7D7D7D7D7D7D7D7D7D7D7D7D7D7D7D7D7D7D7D7D7D7D7D7D7D7D7D7D7D7D7D7D7D7D7D7D7D7D7D7D7D7D7D7D7D7D7D7D7D7D700D7D7D7D7D7D7D7D7D7D7D7D7D7D7D7D7D7D7D7D7D7D7D7D7D7D7D7D7D7D7D7D7D7D7D7D7D700D7D7D7D7D7D7D7D700D7D7D7D7D7D7D7D7D7D7D7D7D7D7D7D7D7D7D7D7D7D7D7D7D7D7D7
310
D7D7D7D7D7D7D7D7D7D7D7D7D7D7D7D7D7D7D7D700D7D70000D7D700D7D7D7D7D7D7D7D7D7D7D7D7D7D7D7D7D7D7D7D7D7D7D7D7D7D7D7D7D7D7D7D7D7D7D7D7D7D7D7D7D7D7D7D7D7D7D7D7D7D7D7D7D7D7D7D7D7D7D7D7D7D7D7D7D7D7D7D7D7D7D7D7D7D7D7D7D7D7D7D7D7D7D7D7D7D7D7D7D7D7D7D7D7D7D7D7D7D7D7
310
D7D7D7D7D7D7D7D7D7D700D7D7D7D7D7D7D7D7D7D7D7D7D7D7D7D7D7D7D7D7D7D7D7D7D7D7D7D7D7D7D7D7D7D70000D7D7D7D7D7D7D7D7D7000000D7D7D7D7D7D7D7D7D7D7D7D7D7D7D7D7D7D7D7D7D7D7D7D7D7D7D7D7D7D7D7D7D7D7D7D7D7D7D7D7D7D7D7D7D7D700D7D70000D7D700D7D7D7D7D7D7D7D7D7D7D7D7D7D7
310
D7D7D7D7D7D7D7D7D7D7D7D7D7D7D7D7D7D7D7D7D7D7D7D7D7D7D7D7D7D7D7D7D7D7D7D7D7D7D7D7D7D7D7D7D7D7D7D7D7D7D7D7D7D7D7D7D7D7D7D7D7D7D7D7D7D7D7D7D7D7D7D7D7D7D7D7D7D7D7D7D7D7D7D7D7D7D7D7D7D7D7D7D7D7D700D7D7D7D7D7D7D7D7D7D7D7D7D7D7D7D7D7D7D7D7D7D7D7D7D7D7D7D7D7D7D7
310
D7D700D7D7D7D7D7D7D7D7D7D700D7D700D7D7D7D7D7D7D7D7D7D7D7D7D7D7D7D7D7D7D7D7D7D7D7D7D7D7D7D7D7D7D7D7D7D7D7D7D7D7D7D7D7D7D7D7D7D700D7D70000D7D700D7D7D7D7D7D7D7D7D7D7D7D7D7D7D7D7D7D7D7D7D7D7D7D7D7D7D7D7D7D7D7D7D7D7D7D7D7D7D7D7D7D7D7D7D7D7D7D7D7D7D7D7D7D7D7D7
310
D7D7D7D7D7D7D7D7D7D7D7D7D7D7D7D7D7D7D7D7D7D7D7D7D7D7D7D7D7D7D7D7D7D7D7D7D7D7D7D7D7D7D7D7D7D7D7D7D7D7D7D7D700D7D7D7D7D7D7D7D7D7D7D7D7D7D7D7D7D7D7D7D7D7D7D7D7D7D7D7D7D7D7D700D7D7D7D7D7D7D7D7D70000D7D7D7D700D7D7D7D7D7D7D7D7D7D7D7D7D7D7D7D7D7D7D7D7D7D7D7D7D7
310
D7D7D7D7D7D7D7D7D7D7D7D7D7D7D7D7D7D7D7D7D700D7D70000D7D700D7D7D7D7D7D7D7D7D7D7D7D7D7D7D7D7D7D7D7D7D7D7D7D7D7D7D7D7D7D7D7D7D7D7D7D7D7D7D7D7D7D7D7D7D7D7D7D7D7D7D7D7D7D7D7D7D7D7D7D7D7D7D7D7D7D7D7D7D7D7D7D7D7D7D7D7D7D7D7D7D7D7D7D7D7D7D7D7D7D7D7D7D7D7D7D7D7D7
310
D7D7D7D7D7D7D7D7D7D7D700D7D7D7D7D7D7D7D7D7D7D7D7D7D7D7D7D7D7D7D7D7D7D7D7D7D7D7D7D70000D7D7D7D7D7D7D7D7D700D7D70000D7D700D7D7D7D7D7D7D7D7D7D7D7D7D7D7D7D7D7D7D7D7D7D7D7D7D7D7D7D7D7D7D7D7D7D7D7D7D7D7D7D7D7D7D7D7D7D700D7D70000D7D700D7D7D7D7D7D7D7D7D7D7D7D7D7
310
D7D7D7D7D7D7D7D7D7D7D7D7D7D7D7D7D7D7D7D7D7D7D7D7D7D7D7D7D7D7D7D7D7D7D7D7D7D7D7D7D7D7D7D7D7D7D7D7D7D7D7D7D7D7D7D7D7D7D7D7D7D7D7D7D7D7D7D7D7D7D7D7D7D7D7D7D7D7D7D7D7D7D7D7D7D7D7D7D7D7D7D7D7D7D7D700D7D7D7D7D7D7D7D7D7D7D7D7D7D7D7D7D7D7D7D7D7D7D7D7D7D700D7D7D7
310
D7D7D7D7D7D7D700D7D7D70000D7D7D7D700D7D7D7D7D7D7D7D7D7D7D7D7D7D7D7D7D7D7D7D7D7D7D7D7D7D7D7D7D7D7D7D7D7D7D7D7D7D7D7D7D7D7D7D7D7D700D7D70000D7D700D7D7D7D7D7D7D7D7D7D7D7D7D7D7D7D7D7D7D7D7D7D7D7D7D7D7D7D7D7D7D7D7D7D7D7D7D7D7D7D7D7D7D7D7D7D7D7D7D7D7D7D7D7D7D7
310
D7D7D7D7D7D7D7D7D7D7D7D7D7D7D7D7D7D7D7D7D7D7D7D7D7D7D7D7D7D7D7D7D7D7D7D7D7D7D7D7D7D7D7D7D7D7D7D7D7D7D7D7D7D700D7D7D7D7D7D7D7D7D7D7D7D7D7D7D7D7D7D7D7D7D7D7D7D700D7D7D7D7D7D7D7D7D70000D7D7D7D700D7D7D7D70000D7D7D7D7D7D7D7D7D7D7D7D7D7D7D7D7D7D7D7D7D7D7D7D7D7
310
D7D7D7D7D7D7D7D7D7D7D7D7D7D7D7D7D7D7D7D7D7D700D7D70000D7D700D7D7D7D7D7D7D7D7D7D7D7D7D7D7D7D7D7D7D7D7D7D7D7D7D7D7D7D7D7D7D7D7D7D7D7D7D7D7D7D7D7D7D7D7D7D7D7D7D7D7D7D7D7D7D7D7D7D7D7D7D7D7D7D7D7D7D7D7D7D7D7D7D7D7D7D7D7D7D7D7D7D7D7D7D7D7D7D7D7D7D7D7D7D7D7D7D7
310
D7D7D7D7D7D7D7D7D7D7D7D700D7D7D7D7D7D7D7D7D7D7D7D7D7D7D7D7D7D7D7D7D7D70000D7D7D7D7D7D7D7D7D700D7D7D7D7D700D7D7D7D70000D7D7D7D7D7D7D7D7D7D7D7D7D7D7D7D7D7D7D7D7D7D7D7D7D7D7D7D7D7D7D7D7D7D7D7D7D7D7D7D7D7D7D7D7D7D7D7D700D7D70000D7D700D7D7D7D7D7D7D7D7D7D7D7D7
310
D7D7D7D7D7D7D7D7D7D7D7D7D7D7D7D7D7D7D7D7D7D7D7D7D7D7D7D7D7D7D7D7D7D7D7D7D7D7D7D7D7D7D7D7D7D7D7D7D7D7D7D7D7D7D7D7D7D7D7D7D7D7D7D7D7D7D7D7D7D7D7D7D7D7D7D7D7D7D7D7D7D7D7D7D7D7D7D7D7D7D7D7D7D7D7D7D700D7D7D7D7D7D7D7D7D7D7D7D7D7D7D7D7D7D7D700D7D7D7D7D7D7D7D7D7
310
D700D7D7D7D7D7D700D7D7D70000D7D700D7D7D7D7D7D7D7D7D7D7D7D7D7D7D7D7D7D7D7D7D7D7D7D7D7D7D7D7D7D7D7D7D7D7D7D7D7D7D7D7D7D7D7D7D7D7D7D700D7D70000D7D700D7D7D7D7D7D7D7D7D7D7D7D7D7D7D7D7D7D7D7D7D7D7D7D7D7D7D7D7D7D7D7D7D7D7D7D7D7D7D7D7D7D7D7D7D7D7D7D7D7D7D7D7D7D7
310
D7D7D7D7D7D7D7D7D7D7D7D7D7D7D7D7D7D7D7D7D7D7D7D7D7D7D7D7D7D7D7D7D7D7D7D7D7D7D7D7D7D7D7D7D7D7D7D7D7D7D7D7D7D7D700D7D7D7D7D7D7D7D7D7D7D7D7D7D7D7D7D7D700D7D7D7D7D7D7D7D7D7D700D7D7D7D7D7D700D7D7D700D7D7D7D700D7D7D7D7D7D7D7D7D7D7D7D7D7D7D7D7D7D7D7D7D7D7D7D7D7
310
D7D7D7D7D7D7D7D7D7D7D7D7D7D7D7D7D7D7D7D7D7D7D700D7D70000D7D700D7D7D7D7D7D7D7D7D7D7D7D7D7D7D7D7D7D7D7D7D7D7D7D7D7D7D7D7D7D7D7D7D7D7D7D7D7D7D7D7D7D7D7D7D7D7D7D7D7D7D7D7D7D7D7D7D7D7D7D7D7D7D7D7D7D7D7D7D7D7D7D7D7D7D7D7D7D7D7D7D7D7D7D7D7D7D7D7D7D7D7D7D7D7D7D7
310
D7D7D7D7D7D7D7D7D7D7D7D7D700D7D7D7D7D7D7D7D7D7D7D7D7D7D7D70000D7D7D7D7D7D7D7D7D700D7D7D7D7D7D7D700D7D700D7D7D7D7D7D7D700D7D7D7D7D7D7D7D7D7D7D7D7D7D7D7D7D7D7D7D7D7D7D7D7D7D7D7D7D7D7D7D7D7D7D7D7D7D7D7D7D7D7D7D7D7D7D7D700D7D70000D7D700D7D7D7D7D7D7D7D7D7D7D7
310
D7D7D7D7D7D7D7D7D7D7D7D7D7D7D7D7D7D7D7D7D7D7D7D7D7D7D7D7D7D7D7D7D7D7D7D7D7D7D7D7D7D7D7D7D7D7D7D7D7D7D7D7D7D7D7D7D7D7D7D7D7D7D7D7D7D7D7D7D7D7D7D7D7D7D7D7D7D7D7D7D7D7D7D7D7D7D7D7D7D7D7D7D7D7D7D7D7D700D7D7D7D7D7D7D7D7D7D7D7D7D7D700D7D7D7D7D7D7D7D7D70000D7D7
310
D7D7D7D7D700D7D700D7D7D7D7D7D7D7D700D7D7D7D7D7D7D7D7D7D7D7D7D7D7D7D7D7D7D7D7D7D7D7D7D7D7D7D7D7D7D7D7D7D7D7D7D7D7D7D7D7D7D7D7D7D7D7D700D7D70000D7D700D7D7D7D7D7D7D7D7D7D7D7D7D7D7D7D7D7D7D7D7D7D7D7D7D7D7D7D7D7D7D7D7D7D7D7D7D7D7D7D7D7D7D7D7D7D7D7D7D7D7D7D7D7
310
D7D7D7D7D7D7D7D7D7D7D7D7D7D7D7D7D7D7D7D7D7D7D7D7D7D7D7D7D7D7D7D7D7D7D7D7D7D7D7D7D7D7D7D7D7D7D7D7D7D7D7D7D7D7D7D7D7D7D7D7D7D7D7D7D7D7D7D70000D7D7D7D7D7D7D7D70000D7D7D7D7D7D7D7D700D700D7D7D7D7D7D7D7D7D7D7D700D7D7D7D7D7D7D7D7D7D7D7D7D7D7D7D7D7D7D7D7D7D7D7D7
310
D7D7D7D7D7D7D7D7D7D7D7D7D7D7D7D7D7D7D7D7D7D7D7D700D7D70000D7D700D7D7D7D7D7D7D7D7D7D7D7D7D7D7D7D7D7D7D7D7D7D7D7D7D7D7D7D7D7D7D7D7D7D7D7D7D7D7D7D7D7D7D7D7D7D7D7D7D7D7D7D7D7D7D7D7D7D7D7D7D7D7D7D7D7D7D7D7D7D7D7D7D7D7D7D7D7D7D7D7D7D7D7D7D7D7D7D7D7D7D7D7D7D7D7
310
D7D7D7D7D7D7D7D7D7D7D7D7D7D7D7D7D7D7D7D7D7D7D70000D7D7D7D7D7D7D7D7D700D7D7D7D7D7D7D7D7D70000D7D7D7D7D7D7D7D7D7D7D7D7D7D700D7D7D7D7D7D7D7D7D7D7D7D7D7D7D7D7D7D7D7D7D7D7D7D7D7D7D7D7D7D7D7D7D7D7D7D7D7D7D7D7D7D7D7D7D7D7D7D700D7D70000D7D700D7D7D7D7D7D7D7D7D7D7
310
D7D7D7D7D7D7D7D7D7D7D7D7D7D7D7D7D7D7D7D7D7D7D7D7D7D7D7D7D7D7D7D7D7D7D7D7D7D7D7D7D7D7D7D7D7D7D7D7D7D7D7D7D7D7D7D7D7D7D7D7D7D7D7D7D7D7D7D7D7D7D7D7D7D7D7D7D7D7D7D7D7D7D7D7D7D7D7D7D7D7D7D7D7D7D7D7D7D7D7D7D7D7D7D7D7D7D700D7D7D7D7D7D7D7D7D70000D7D7D7D7D7D7D7D7
310
D70000D7D7D7D7D7D7D7D7D7D7D7D7D7D7D700D7D7D7D7D7D7D7D7D7D7D7D7D7D7D7D7D7D7D7D7D7D7D7D7D7D7D7D7D7D7D7D7D7D7D7D7D7D7D7D7D7D7D7D7D7D7D7D700D7D70000D7D700D7D7D7D7D7D7D7D7D7D7D7D7D7D7D7D7D7D7D7D7D7D7D7D70000D7D700D70000D70000D7D7D70000D7D70000D700000000D700D7
310
00D7D70000D7D700D7000000D7D70000D700D7D700000000D7D7D7D7D7D7D7D7D7D7D7D7D7D7D7D7D7D7D7D7D7D7D7D7D7D7D7D7D7D7D7D7D7D7D7D7D7D7D700D7D7D7D7D7D7D7D70000D7D7D7D7D7D7D7D7D7D70000D7D7D7D7D7D7D7D7D7D7D7D7D7D7D7D7D700D7D7D7D7D7D7D7D7D7D7D7D7D7D7D7D7D7D7D7D7D7D7D7
310
D7D7D7D7D7D7D7D7D7D7D7D7D7D7D7D7D7D7D7D7D7D7D7D7D700D7D70000D7D700D7D7D7D7D7D7D7D7D7D7D7D7D7D7D7D7D7D7D7D7D7D7D7D7D7D700D70000D70000D7D7D7D7D700D70000D7D7D700D70000D700D700D7D700D700D700D700D700D700D700D7D7D700D7D700D7D7D7D7D7D7D7D7D7D7D7D7D7D7D7D7D7D7D7
310
D7D7D7D7D7D7D7D7D7D7D7D7D7D7D7D7D7D7D70000D7D7D7D7D7D7D7D700D7D7D7D7D7D7D7D7D7D70000D7D700D7D7D7D7D7D7D7D7D7D7D7D7D7D7D7D700D7D7D7D7D7D7D7D7D7D7D7D7D7D7D7D7D7D7D7D7D7D7D7D7D7D7D7D7D7D7D7D7D7D7D7D7D7D7D7D7D7D7D7D7D7D7D7D700D7D70000D7D700D7D7D7D7D7D7D7D7D7
310
D7D7D7D7D7D7D7D7D7D7D7D7D7D7D70000D7D70000D70000D700D7D7D700D70000D700D7D7D70000D700D700D7D700D700D700D7D7D700D700D700D7D7D700D70000D7D7D7D7D7D7D7D7D7D7D7D7D7D7D7D7D7D7D7D7D7D7D7D7D7D7D7D7D7D7D7D7D7D7D700D7D7D7D7D7D7D7D7D70000D7D7D7D7D7D7D7D7D7D70000D7D7
310
D7D700D700D7D7D7D7D7D7D7D7D7D7D7D7D7D700D7D7D7D7D7D7D7D7D7D7D7D7D7D7D7D7D7D7D7D7D7D7D7D7D7D7D7D7D7D7D7D7D7D7D7D7D7D7D7D7D7D7D7D7D7D7D7D700D7D70000D7D700D7D7D7D7D7D7D7D7D7D7D7D7D7D7D7D7D7D7D7D7D7D7D7D7D7D7D7D700D70000D700D7D7D7D70000D7D700D7D7D70000000000
310
00D7D7D70000D7D700D7D70000D7D70000D700D7D700D70000D7D7D7D7D7D7D7D7D7D7D7D7D7D7D7D7D7D7D7D7D7D7D7D7D7D7D7D7D7D7D7D7D700D7D7D7D7D7D7D7D70000D7D7D7D7D7D7D7D7D7D7000000D7D7D7D700D7D700D7D7D7D7D7D7D7D7D7D7D7D7D7D700D7D7D7D7D7D7D7D7D7D7D7D7D7D7D7D7D7D7D7D7D7D7
310
D7D7D7D7D7D7D7D7D7D7D7D7D7D7D7D7D7D7D7D7D7D7D7D7D7D700D7D70000D7D700D7D7D7D7D7D7D7D7D7D7D7D7D7D7D7D7D7D7D7D7D7D7D7D70000D7D700D7D700D7D7D7D7D7D700D7D7D7D7D7D7D7D7D7D7D7D7D7D7D7D700D7D7D7D7D7D7D7D7D7D7D700D7D7D7D7D7D700D7D7D7D7D7D7D7D7D7D7D7D7D7D7D7D7D7D7
310
D7D7D7D7D7D7D7D7D7D7D7D7D700D7D7D7D7D7D7D7D7D700D7D7D7D7D7D7D7D7D7D70000D700D7D7D70000D7D7D7D700D7D7D7D7D7D7D7D7D7D7D7D7D7D700D7D7D7D7D7D7D7D7D7D7D7D7D7D7D7D7D7D7D7D7D7D7D7D7D7D7D7D7D7D7D7D7D7D7D7D7D7D7D7D7D7D7D7D7D7D7D7D700D7D70000D7D700D7D7D7D7D7D7D7D7
310
D7D7D7D7D7D7D7D7D7D7D7D7D7D7D7D7D7D7D7D7D7D7D7D7D7D7D7D7D7D7D7D7D7D7D7D7D7D7D7D7D7D7D7D7D7D7D7D7D7D7D7D7D7D7D7D7D7D7D7D7D7D7D7D7D7D7D7D7D7D7D7D7D7D7D7D7D7D7D7D7D7D7D7D7D7D7D7D7D7D7D7D7D7D7D700D7D7D7D7D7D7D7D7D70000D7D7D7D7D7D7D7D7D7D700D7D7D7D7D700D7D7D7
310
D7D7D7D7D700D7D7D7D7D7D7D7D7D7D7D7D7D7D700D7D7D7D7D7D7D7D7D700D7D7D700D700D7D7D7D7D7D7D7D70000D700D70000D7000000D7D7D7D7D7D7D7D7D7D7D7D7D700D7D70000D7D700D7D7D7D7D7D7D7D7D7D7D7D7D7D7D7D7D7D7D7D7D7D7D7D7D7D7D7D7D7D7D7D7D7D7D7D7D7D7D7D7D7D7D7D7D7D7D7D7D7D7
310
D7D7D7D7D7D7D7D7D7D7D7D7D7D7D7D7D7D7D7D7D7D7D7D7D7D7D7D7D7D7D7D7D7D7D7D7D7D7D7D7D7D7D7D7D7D7D7D7D7D7D7D700D7D7D7D7D7D7D7D70000D7D7D7D7D7D7D7D7D7D70000D7D70000D700D7D7D7D7D7D7D7D7D700D7D7D7D7D7D7D7D7D7D7D7D7D7D700D7D7D7D7D7D7D7D7D7D700D7D7D70000D7D7D7D7D7
310
D7D7D70000D700D70000D7D70000D7D7D7D7D7D7D7D7D7D7D7D7D700D7D70000D7D700D7D7D7D7D7D7D7D7D7D7D7D7D7D7D7D7D7D7D7D7D7D7D7D7D7D7D7D7D7D7D7D7D7D7D7D7D7D7D7D7D7D7D7D7D7D7D7D7D7D7D7D7D7D7D7D7D7D7D7D7D7D7D7D7D7D7D7D7D7D7D7D7D7D7D7D7D7D7D700D7D7D7D7D7D7D7D7D7D7D7D7
310
D7D7D7D7D7D7D700D7D7D7D7D7D7D7D7D700D7D7D7D7D7D7D7D7D7D70000D7D7D7D7D70000D7D7D7D7D7D7D7D7D7D7D700D7D7D7D7D7D7D7D7D7D7D7D7D7D700D7D7000000D7D7D7D7D7D700D7D7D7000000D7D7D7D7D7D70000D7D700D7D700D700D700D7D7D7D7D7D7D7D7D7D7D7D700D7D70000D7D700D7D7D7D7D7D7D7
310
D7D7D7D7D7D7D7D7D7D7D7D7D7D7D7D7D7D7D7D7D7D7D7D7D7D7D7D7D7D7D7D7D7D7D7D7D7D7D7D7D7D7D7D7D7D7D7D7D7D7D7D7D7D7D7D7D7D7D7D7D7D7D7D7D7D7D7D7D7D7D7D7D7D7D7D7D7D7D7D7D7D7D7D7D7D7D7D7D7D70000D7D7D7D7D7D7D7D700D7D7D7D7D7D7D7D7D7D7D700D7D7D7D7D70000D7D7D7D7D7D7D7
310
D7D7D7D7D7D700D7D7D7D7D7D7D7D7D7D7D7D7D7D7000000D7D7D7D7D7D7D7D7D700D7D7D700D7D7D7D7D7D7D7D70000D7D7D7D7D7D7D700D7D7D7D7D7D7D7D7D7D7D7D7D7D700D7D70000D7D700D7D7D7D7D7D7D7D7D7D7D7D7D7D7D7D7D7D7D7D7D7D7D7D7D7D7D7D7D7D7D7D7D7D7D7D7D7D7D7D7D7D7D7D7D7D7D7D7D7
310
D7D7D7D7D7D7D7D7D7D7D7D7D7D7D7D7D7D7D7D7D7D7D7D7D7D7D7D7D7D7D7D700D7D7D7D7D7D7D7D7D7D7D7D7D700D7D7D7D7D7D7D7D70000D7D7D7D7D7D7D7D7D7D70000D7D7D7D7D700D7D7D7D7D7D7D7D7D7D7D7D7D7D7D7D700D7D7D7D7D7D7D7D7D7D70000D7D700D7D7D7D7D7D7D7D7D7D7D7D7D7D7D7D7D7D7D7D7
310
D7D7D7D7D7D7D7D7D7D7D7D7D7D7D7D7D7D7D7D7D7D7D7D7D7D7D7D700D7D70000D7D700D7D7D7D7D7D7D7D7D7D7D7D7D7D7D7D7D7D7D7D7D7D7D7D7D7D7D7D7D7D7D7D7D7D7D7D7D7D7D7D7D7D7D7D7D7D7D7D7D7D7D7D7D7D7D7D7D7D7D7D7D7D7D7D7D7D7D7D7D7D7D7D7D7D7D7D7D7D7D7D7D7D7D7D7D7D7D7D7D7D7D7
310
D700D7D7D7D7D7D7D7D7D700D7D7D7D7D7D7D7D7D7D70000D7D7D7D7D700D7D7D7D7D7D7D7D7D7D7D7D7D7D7D7D7D7D7D700D7D7D7D7D70000D7D7D7D7D7D7D700D7D7D7D7D7D7D7D7D7D7D7D7D7D7D7D7D7D7D7D7D7D7D7D7D7D7D7D7D7D7D7D7D7D7D7D7D7D7D7D7D7D7D7D7D7D7D7D700D7D70000D7D700D7D7D7D7D7D7
310
D7D7D7D7D7D7D7D7D7D7D7D7D7D7D7D7D7D7D7D7D7D7D7D7D7D7D7D7D7D7D7D7D7D7D7D7D7D7D7D7D7D7D7D7D7D7D7D7D7D7D7D7D7D7D7D7D7D7D7D7D7D7D7D7D7D7D7D7D7D7D7D7D7D7D7D7D700D7D7D7D7D7D70000D7D7D7D7D7D7D7D7D700D7D7D7D7D7D7D7D7D7D700D7D7D7D7D70000D7D7D7D7D7D7D7D7D7D7D7D7D7
310
D7D7D7D7D7D7D700D7D7000000D7D7D7D7D7D7D7D7D700D7D7D7D7D7D7D7D7D7D7D7D7D7D7D7D7D7D7D7D7D7D7D7D7D7D7D7D7D7D7D7D7D7D7D7D7D7D7D7D7D7D7D7D7D7D7D7D700D7D70000D7D700D7D7D7D7D7D7D7D7D7D7D7D7D7D7D7D7D7D7D7D7D7D7D7D7D7D7D7D7D7D7D7D7D7D7D7D7D7D7D7D7D7D7D7D7D7D7D7D7
310
D7D7D7D7D7D7D7D7D7D7D7D7D7D7D7D7D7D7D7D7D7D7D7D7D7D7D7D7D7D7D7D7D7D7D7D7D7D7D70000D7D7D7D7D7D7D7D70000D7D7D7D7D7D7D7D7D7D70000D7D7D7D7D700D7D7D7D7D7D7D7D7D7D7D7D7D7D7D7D7D7D7D7D7D7000000D7D7D7D7D7D7D7D7D7D7D7D7D7D700D7D7D7D7D7D7D7D7D7D7D7D7D7D7D7D7D7D7D7
310
D7D7D7D7D7D7D7D7D7D7D7D7D7D7D7D7D7D7D7D7D7D7D7D7D7D7D7D7D700D7D70000D7D700D7D7D7D7D7D7D7D7D7D7D7D7D7D7D7D7D7D7D7D7D7D7D7D7D7D7D7D7D7D7D7D7D7D7D7D7D7D7D7D7D7D7D7D7D7D7D7D7D7D7D7D7D7D7D7D7D7D7D7D7D7D7D7D7D7D7D7D7D7D7D7D7D7D7D7D7D7D7D7D7D7D7D7D7D70000D7D7D7
310
D7D7D7D7D7D700D7D7D7D7D7D7D7D7D7D7D7D7D7D7D7D7D70000D7D7D7D7D7D7D7D7D7D7D7D7D7D7D7D7D7D7D7D70000D7D700D7D7D7D7D7D7D7D7D7D7D7D7D7D700D7D7D7D7D7D7D7D7D7D7D7D7D7D7D7D7D7D7D7D7D7D7D7D7D7D7D7D7D7D7D7D7D7D7D7D7D7D7D7D7D7D7D7D7D7D7D7D700D7D70000D7D700D7D7D7D7D7
310
D7D7D7D7D7D7D7D7D7D7D7D7D7D7D7D7D7D7D7D7D7D7D7D7D7D7D7D7D7D7D7D7D7D7D7D7D7D7D7D7D7D7D7D7D7D7D7D7D7D7D7D7D7D7D7D7D7D7D7D7D7D7D7D7D7D7D7D7D7D7D7D7D7D7D7D7D7D70000D7D700D7D7D7D7D7D700D7D7D7D7D7D7D7D7D7D7D700D7D7D7D70000D7D7D7D7D7D7D7D7D7D7D7D7D7D7D7D7D7D7D7
310
D7D7D7D7D7D7D7D700D7D7D7D7D7D7D7D7D7D7D7D7D7D700D7D7D7D7D7D7D7D7D7D7D7D7D7D7D7D7D7D7D7D7D7D7D7D7D7D7D7D7D7D7D7D7D7D7D7D7D7D7D7D7D7D7D7D7D7D7D7D700D7D70000D7D700D7D7D7D7D7D7D7D7D7D7D7D7D7D7D7D7D7D7D7D7D7D7D7D7D7D7D7D7D7D7D7D7D7D7D7D7D7D7D7D7D7D7D7D7D7D7D7
310
D7D7D7D7D7D7D7D7D7D7D7D7D7D7D7D7D7D7D7D7D7D7D7D7D7D7D7D7D7D7D7D7D7D7D700D7D7D7D7D7D7D7D7D70000D7D7D7D7D7D7D7D7D7D70000D7D7D7D700D7D7D7D7D7D7D7D7D7D7D7D7D7D7D7D7D7D7D7D7D7D7D7D7D7D7D7D7D700D7D7D7D7D7D7D7D7D7D7D7D7D7D700D7D7D7D7D7D7D7D7D7D7D7D7D7D7D7D7D7D7
310
D7D7D7D7D7D7D7D7D7D7D7D7D7D7D7D7D7D7D7D7D7D7D7D7D7D7D7D7D7D700D7D70000D7D700D7D7D7D7D7D7D7D7D7D7D7D7D7D7D7D7D7D7D7D7D7D7D7D7D7D7D7D7D7D7D7D7D7D7D7D7D7D7D7D7D7D7D7D7D7D7D7D7D7D7D7D7D7D7D7D7D7D7D7D7D7D7D7D7D7D7D7D7D7D7D7D7D7D7D7D7D7D7D700D7D7D7D7D7D7D7D7D7
310
00D7D7D7D7D7D7D7D7D7D7D70000D7D7D7D700D7D7D7D7D7D7D7D7D7D7D7D7D7D7D7D7D7D7D7D7D7D7D7D7D7D7D7D7D7D7D7D700D7D7D7D7D7D7D7D7D7D7D7D7D7D700D7D7D7D7D7D7D7D7D7D7D7D7D7D7D7D7D7D7D7D7D7D7D7D7D7D7D7D7D7D7D7D7D7D7D7D7D7D7D7D7D7D7D7D7D7D7D7D700D7D70000D7D700D7D7D7D7
310
D7D7D7D7D7D7D7D7D7D7D7D7D7D7D7D7D7D7D7D7D7D7D7D7D7D7D7D7D7D7D7D7D7D7D7D7D7D7D7D7D7D7D7D7D7D7D7D7D7D7D7D7D7D7D7D7D7D7D7D7D7D7D7D7D7D7D7D7D7D7D7D70000D7D7D7D7D7D7D7D7D700D7D7D700D7D7D7D7D7D7D700D7D7D7D70000D7D7D7D7D7D7D7D7D7D7D7D7D7D7D7D7D7D7D7D7D7D7D7D7D7
310
D7D7D7D7D7D7D7D70000D7D7D7D7D7D7D7D7D7D7D7D7D7D700D7D7D7D7D7D7D7D7D7D7D7D7D7D7D7D7D7D7D7D7D7D7D7D7D7D7D7D7D7D7D7D7D7D7D7D7D7D7D7D7D7D7D7D7D7D7D7D700D7D70000D7D700D7D7D7D7D7D7D7D7D7D7D7D7D7D7D7D7D7D7D7D7D7D7D7D7D7D7D7D7D7D7D7D7D7D7D7D7D7D7D7D7D7D7D7D7D7D7
310
D7D7D7D7D7D7D7D7D7D7D7D7D7D7D7D7D7D7D7D7D7D7D7D7D7D7D7D7D700D7D7D7D7D7D7D7D7D70000D7D7D7D7D7D7D7D7D7D70000D7D7D7D700D7D7D7D7D7D7D7D7D7D7D7D7D7D7D7D7D7D7D7D7D7D7D7D7D7D7D7D7D7D7D7D7D7D700D7D7D7D7D7D7D7D7D7D7D7D7D7D7D7D700D7D7D7D7D7D7D7D7D7D7D7D7D7D7D7D7D7
310
D7D7D7D7D7D7D7D7D7D7D7D7D7D7D7D7D7D7D7D7D7D7D7D7D7D7D7D7D7D7D700D7D70000D7D700D7D7D7D7D7D7D7D7D7D7D7D7D7D7D7D7D7D7D7D7D7D7D7D7D7D7D7D7D7D7D7D7D7D7D7D7D7D7D7D7D7D7D7D7D7D7D7D7D7D7D7D7D7D7D7D7D7D7D7D7D7D7D7D7D7D7D7D7D7D7D7D700D7D7D7D7D7D7D7D7D700D7D7D7D7D7
310
D7D7D7D7D7000000D7D7D7D7D700D7D7D7D7D7D7D7D7D7D7D70000D7D7D7D7D7D7D7D7D7D7D7D7D7D7D7D7D7D7D7D7D700D7D7D7D7D7D7D7D7D7D7D7D7D7D7D7D7D7D700D7D7D7D7D7D7D7D7D7D7D7D7D7D7D7D7D7D7D7D7D7D7D7D7D7D7D7D7D7D7D7D7D7D7D7D7D7D7D7D7D7D7D7D7D7D7D7D700D7D70000D7D700D7D7D7
310
D7D7D7D7D7D7D7D7D7D7D7D7D7D7D7D7D7D7D7D7D7D7D7D7D7D7D7D7D7D7D7D7D7D7D7D7D7D7D7D7D7D7D7D7D7D7D7D7D7D7D7D7D7D7D7D7D7D7D7D7D7D7D7D7D7D7D7D700D7D7D7D7D7D7D7D7D700D7D7D7D7D7D7D7D7D7D7D700D7D7D7D7D70000D7D7D7D7D7D7D7D7D7D70000D7D700D7D7D7D7D7D7D7D7D7D7D7D7D7D7
310
D7D7D7D70000D7D7D7D7D7D7D7D7D7D7D7D7D7D7D7D7D7D7D700D7D7D7D7D7D7D7D7D7D7D7D7D7D7D7D7D7D7D7D7D7D7D7D7D7D7D7D7D7D7D7D7D7D7D7D7D7D7D7D7D7D7D7D7D7D7D7D700D7D70000D7D700D7D7D7D7D7D7D7D7D7D7D7D7D7D7D7D7D7D7D7D7D7D7D7D7D7D7D7D7D7D7D7D7D7D7D7D7D7D7D7D7D7D7D7D7D7
310
D7D7D7D7D7D7D7D7D7D7D7D7D7D7D7D7D7D7D7D7D7D7D700D7D7D7D7D7D7D7D7D70000D7D7D7D7D7D7D7D7D7D70000D7D7D70000D7D7D7D7D7D7D7D7D7D7D7D700D7D7D7D7D7D7D700D7D7D7D7D7D7D7D7D7D7D7D7D7D700D7D7D7D7D7D7D7D7D7D7D7D7D7D7D7D7D7D7D7D7D7D700D7D7D7D7D7D7D7D7D7D7D7D7D7D7D7D7
310
D7D7D7D7D7D7D7D7D7D7D7D7D7D7D7D7D7D7D7D7D7D7D7D7D7D7D7D7D7D7D7D700D7D70000D7D700D7D7D7D7D7D7D7D7D7D7D7D7D7D7D7D7D7D7D7D7D7D7D7D7D7D7D7D7D7D7D7D7D7D7D7D7D7D7D7D7D7D7D7D7D7D7D7D7D7D7D7D7D7D7D7D7D7D7D7D7D7D7D7D7D7D70000D7D7D7D7D7D7D7D70000D7D7D7D7D7D7D7D7D7
310
D70000D7D7D7D7D70000D7D7D7D7D7D7D7D7D7D700D7D7D7D7D7D7D7D7D7D700D7D7D7D7D7D7D7D7D7D7D70000D7D7D7D7D7D7D7D7D7D7D7D7D7D7D7D7D7D7D7D7D7D7D700D7D7D7D7D7D7D7D7D7D7D7D7D7D7D7D7D7D7D7D7D7D7D7D7D7D7D7D7D7D7D7D7D7D7D7D7D7D7D7D7D7D7D7D7D7D7D7D700D7D70000D7D700D7D7
310
D7D7D7D7D7D7D7D7D7D7D7D7D7D7D7D7D7D7D7D7D7D7D7D7D7D7D7D7D7D7D7D7D7D7D7D7D7D7D7D7D7D7D7D7D7D7D7D7D7D7D7D7D7D7D7D7D7D7D7D7D7D700D7D7D7D7D7D7D7D7D700D7D7D7D7D7D7D7D7D7D7D700D7D7D7D7D70000D7D7D700D7D7D7D7D7D70000D70000D7D7D7D7D7D700D7D7D7D7D7D7D7D7D7D7D70000
310
D7D7D7D7D7D7D7D7D7D7D7D7D7D7D7D7D7D7D7D7D7D7D7D7D7D700D7D7D7D7D7D7D7D7D7D7D7D7D7D7D7D7D7D7D7D7D7D7D7D7D7D7D7D7D7D7D7D7D7D7D7D7D7D7D7D7D7D7D7D7D7D7D7D700D7D70000D7D700D7D7D7D7D7D7D7D7D7D7D7D7D7D7D7D7D7D7D7D7D7D7D7D7D7D7D7D7D7D7D7D7D7D7D7D7D7D7D7D7D7D7D7D7
310
D7D7D7D7D7D7D7D7D7D7D7D7D7D7D7D7D700D7D7D7D7D7D7D7D7D70000D7D7D7D7D7D7D7D7D7D70000D7D7D7D70000D7D7D7D7D7D7D7D7D7D700D7D7D7D7D7D700D7D7D70000D7D7D7D7D7D7D7D7D7D7D700D7D7D7D7D7D7D7D7D7D7D7D7D7D7D7D7D7D7D7D7D7D7D7D7D7D7D7D7D700D7D7D7D7D7D7D7D7D7D7D7D7D7D7D7
310
D7D7D7D7D7D7D7D7D7D7D7D7D7D7D7D7D7D7D7D7D7D7D7D7D7D7D7D7D7D7D7D7D700D7D70000D7D700D7D7D7D7D7D7D7D7D7D7D7D7D7D7D7D7D7D7D7D7D7D7D7D7D7D7D7D7D7D7D7D7D7D7D7D7D7D7D7D7D7D7D7D7D7D7D7D7D7D7D7D7D7D7D7D7D7D7D70000D7D7D7D7D7D7D7D7D700D7D7D7D7D7D7D7D7D7D70000D7D7D7
310
D7D700D7D7D7D7D7D7D7D7D7D70000D7D7D7D7D7D7D7D7D7D7000000D7D7D7D7D7D7D7D7D70000D7D7D7D7D7D7D7D7D7D7D7D7D7D7D7D7D7D7D7D7D7D7D7D7D7D7D7D7D7D700D7D7D7D7D7D7D7D7D7D7D7D7D7D7D7D7D7D7D7D7D7D7D7D7D7D7D7D7D7D7D7D7D7D7D7D7D7D7D7D7D7D7D7D7D7D7D7D700D7D70000D7D700D7
310
D7D7D7D7D7D7D7D7D7D7D7D7D7D7D7D7D7D7D7D7D7D7D7D7D7D7D7D7D7D7D7D7D7D7D7D7D7D7D7D7D7D7D7D7D7D7D7D7D7D7D7D7D7D7D7D700D7D7D7D7D7D7D7D7D700D7D7D7D7D7D7D7D7D7D7D700D7D7D7D7D70000D7D7D7D7D7D7D7D7D7D70000D7D700D7D7D7D7D7D70000D7D7D700D7D7D7D7D7D7D700D7D7D7D7D7D7
310
D7D7D7D7D7D7D7D7D7D7D7D7D7D7D7D7D7D7D7D7D7D7D7D7D7D7D700D7D7D7D7D7D7D7D7D7D7D7D7D7D7D7D7D7D7D7D7D7D7D7D7D7D7D7D7D7D7D7D7D7D7D7D7D7D7D7D7D7D7D7D7D7D7D7D700D7D70000D7D700D7D7D7D7D7D7D7D7D7D7D7D7D7D7D7D7D7D7D7D7D7D7D7D7D7D7D7D7D7D7D7D7D7D7D7D7D7D7D7D7D7D7D7
310
D7D7D7D7D7D7D7D7D7D7D7D70000D7D7D7D7D7D7D7D7D700D7D7D7D7D7D7D7D7D7D7D700D7D7D7D7D700D7D7D7D7D7D7D7D7D7D7D7D7000000D7D7D7D7D7D7000000D7D7D7D700D7D7D7D7D70000D7D7D7D7D7D7D7D7D7D7D7D7D7D7D7D7D7D7D7D7D7D7D7D7D7D7D7D7D7D7D7D7D7D700D7D7D7D7D7D7D7D7D7D7D7D7D7D7
310
D7D7D7D7D7D7D7D7D7D7D7D7D7D7D7D7D7D7D7D7D7D7D7D7D7D7D7D7D7D7D7D7D7D700D7D70000D7D700D7D7D7D7D7D7D7D7D7D7D7D7D7D7D7D7D7D7D7D7D7D7D7D7D7D7D7D7D7D7D7D7D7D7D7D7D7D7D7D7D7D7D7D7D7D7D7D7D7D7D7D700D7D7D7D7D7D7D7D7D7D700D7D7D7D7D7D7D7D7D7D70000D7D7D7D7D70000D7D7
310
D7D7D7D7D7D7D7D7D7D7D7D700D7D70000D7D70000000000D7D7D7D700D7D70000D7D7D7D7D7D7D7D7D7D7D7D7D7D7D7D7D7D7D7D7D7D7D7D7D7D7D7D7D7D7D7D7D7D7D7D7D700D7D7D7D7D7D7D7D7D7D7D7D7D7D7D7D7D7D7D7D7D7D7D7D7D7D7D7D7D7D7D7D7D7D7D7D7D7D7D7D7D7D7D7D7D7D7D7D700D7D70000D7D700
310
D7D7D7D7D7D7D7D7D7D7D7D7D7D7D7D7D7D7D7D7D7D7D7D7D7D7D7D7D7D7D7D7D7D7D7D7D7D7D7D7D7D7D7D7D7D7D7D7D7D700D7D7D7D7D7D7D7D7D70000D7D7D7D7D7D7D7D7D7D700D7D7D7D7D70000D7D7D7D7D7D7D7D7D7D7D7D7D7D7D7D7D700D7D7D7D70000D7D70000D7D700D7D7D700D7D7D7D7D7D7D7D7D7D7D7D7
310
D7D7D7D7D7D7D7D7D7D7D7D7D7D7D7D7D7D7D7D7D7D7D7D7D7D7D7D700D7D7D7D7D7D7D7D7D7D7D7D7D7D7D7D7D7D7D7D7D7D7D7D7D7D7D7D7D7D7D7D7D7D7D7D7D7D7D7D7D7D7D7D7D7D7D7D700D7D70000D7D700D7D7D7D7D7D7D7D7D7D7D7D7D7D7D7D7D7D7D7D7D7D7D7D7D7D7D7D7D7D7D7D7D7D7D7D7D7D7D7D7D7D7
310
D7D7D7D7D7D70000D7D7D7D7D7D7D7D7D700D7D7D7D7D7D7D7D7D7D70000D7D7D7D7D700D7D7D7D7D7D7D7D7D7D7D7D7D7D7D7D7D7D7D700D7D7D7D7D7D7D7D7D7D7D700D7D7D700D7D7D7D7D7D7D7D7D7D7D7D7D7D7D7D7D7D7D7D7D7D7D7D7D7D7D7D7D7D7D7D7D7D7D7D7D7D7D7D7D700D7D7D7D7D7D7D7D7D7D7D7D7D7
310
D7D7D7D7D7D7D7D7D7D7D7D7D7D7D7D7D7D7D7D7D7D7D7D7D7D7D7D7D7D7D7D7D7D7D700D7D70000D7D700D7D7D7D7D7D7D7D7D7D7D7D7D7D7D7D7D7D7D7D7D7D7D7D7D7D7D7D7D7D7D7D7D7D7D7D7D7D7D7D7D7D7D7D7D700D7D7D7D7D7D7D7D7D7D700D7D7D7D7D7D7D7D7D7D70000D7D7D7D7D70000D7D7D7D7D7D7D7D7
310
D7D7D7D7D7D7D7D7D7D7D7D7D700D7D7D7D7D7D7D7D700D7D7D700D7D7D7D7D7D7D7D7D7D7D7D7D7D7D7D7D7D7D7D7D7D7D7D7D7D7D7D7D7D7D7D7D7D7D7D7D7D7D7D7D7D7D7D700D7D7D7D7D7D7D7D7D7D7D7D7D7D7D7D7D7D7D7D7D7D7D7D7D7D7D7D7D7D7D7D7D7D7D7D7D7D7D7D7D7D7D7D7D7D7D7D700D7D70000D7D7
310
00D7D7D7D7D7D7D7D7D7D7D7D7D7D7D7D7D7D7D7D7D7D7D7D7D7D7D7D7D7D7D7D7D7D7D7D7D7D7D7D7D7D7D7D700D7D7D7D7D7D7D7D7D7D700D7D7D7D7D7D7D7D7D7D7000000D7D7D7D700D7D7D7D7D7D7D7D7D7D7D7D7D7D7D7D7D7D7D7D7D7D7D700D7D7D7D7D7D70000D7D70000D7D7D7D7D7D7D7D7D7D7D7D7D7D7D7D7
310
D7D7D7D7D7D7D7D7D7D7D7D7D7D7D7D7D7D7D7D7D7D7D7D7D7D7D7D7D700D7D7D7D7D7D7D7D7D7D7D7D7D7D7D7D7D7D7D7D7D7D7D7D7D7D7D7D7D7D7D7D7D7D7D7D7D7D7D7D7D7D7D7D7D7D7D7D700D7D70000D7D700D7D7D7D7D7D7D7D7D7D7D7D7D7D7D7D7D7D7D7D7D7D7D7D7D7D7D7D7D7D7D7D7D7D7D7D7D7D7D7D7D7
310
0000D7D7D7D7D7D7D7D7D700D7D7D7D7D7D7D7D7D7D70000D700D7D7D70000D7D7D7D7D7D7D7D7D7D7D7D7D7D7D7D7D7D7D7D7D7D7D7D7D700D7D7D700D7D7D7D700D7D7D7D7D700D7D7D7D7D7D7D7D7D7D7D7D7D7D7D7D7D7D7D7D7D7D7D7D7D7D7D7D7D7D7D7D7D7D7D7D7D7D7D700D7D7D7D700D7D7D7D7D7D7D7D7D7D7
310
D7D7D7D7D7D7D7D7D7D7D7D7D7D7D7D7D7D7D7D7D7D7D7D7D7D7D7D7D7D7D7D7D7D7D7D700D7D70000D7D700D7D7D7D7D7D7D7D7D7D7D7D7D7D7D7D7D7D7D7D7D7D7D7D7D7D7D7D7D7D7D7D7D7D7D7D7D7D7D7D700D7D7D7D7D7D7D7D7D70000D7D7D7D7D7D7D7D7D7D700D7D7D7D7D7D7D7D7D7D7D7D7D7D7D7D7D7D7D7D7
310
D7D7D7D7D7D7D7D7D7D7D7D7D7D700D7D700D7D7D70000D7D7D7D7D7D7D7D7D7D7D7D7D7D7D7D7D7D7D7D7D7D7D7D7D7D7D7D7D7D7D7D7D7D7D7D7D7D7D7D7D7D7D7D7D700D7D7D7000000D7D7D7D7D7D7D7D7D7D7D7D7D7D7D7D7D7D7D7D7D7D7D7D7D7D7D7D7D7D7D7D7D7D7D7D7D7D7D7D7D7D7D7D7D7D700D7D70000D7
310
D700D7D7D7D7D7D7D7D7D7D7D7D7D7D7D7D7D7D7D7D7D7D7D7D7D7D7D7D7D7D7D7D7D7D7D7D7D7D7D7D700D7D700D7D7D7D700D7D7D7D7D7D7D7D7D7D700D7D7D7D7D7D7D7D7D7D700D7D7D7D7D7D7D7D7D7D7D7D7D7D7D7D7D7D7D7D7D7D7D7D7D7D70000D7D7D700D7D7D7D7D7D7D7D7D7D7D700D7D7D7D7D7D7D7D7D7D7
310
D7D7D7D7D7D7D7D7D7D7D7D7D7D7D7D7D7D7D7D7D7D7D700D7D7D7D700D7D7D700D7D7D7D7D7D7D7D7D7D7D7D7D7D7D7D7D7D7D7D7D7D7D7D7D7D7D7D7D7D7D7D7D7D7D7D7D7D7D7D7D7D7D7D7D7D700D7D70000D7D700D7D7D7D7D7D7D7D7D7D7D7D7D7D7D7D7D7D7D7D7D7D7D7D7D7D7D7D7D7D7D7D7D7D7D7D7D7D7D7D7
310
00D7D7D7D700D7D7D7D7D7D7D7D7D7D700D7D7D7D7D7D7D7D7D7D700D700D7D7D7D7D7D7D7D7D7D7D7D7D7D7D7D7D7D7D7D7D7D7D7D7D7D7D7D7D70000D7D7D7D7D7D7D7D7D7D7D7D7D7D700D7D7D7D7D7D7D7D7D7D7D7D7D7D7D7D7D7D7D7D7D7D7D7D7D7D7D7D7D700D7D7D7D700D7D7D7D7D7D700D7D7D7D7D7D7D7D7D7
310
D7D7D7D7D7D7D7D7D7D7D7D7D7D7D7D7D7D7D7D7D7D7D7D7D7D7D7D7D7D7D7D7D7D7D7D7D700D7D70000D7D700D7D7D7D7D7D7D7D7D7D7D7D7D7D7D7D7D7D7D7D7D7D7D7D7D7D7D7D7D7D7D7D7D7D7D7D7D7D7D7D700D7D7D7D700D7D7D7D7D7D7D7D7D700D7D7D7D7D7D7D7D7D7D7D700D700D7D7D7D7D7D7D7D7D7D7D7D7
310
D7D7D7D7D7D7D7D7D7D7D7D7D7D7D70000D7D7D7D7D7D7D7D7D7D7D7D7D7D7D7D7D7D7D7D7D7D7D7D7D7D7D7D7D7D7D7D7D7D7D7D7D7D7D7D7D7D7D7D70000D7D7D70000D7D7D7D7D7D7D700D7D7D7D7D7D7D7D7D7D7D7D7D7D7D7D7D7D7D7D7D7D7D7D7D7D7D7D7D7D7D7D7D7D7D7D7D7D7D7D7D7D7D7D7D7D700D7D70000
310
D7D700D7D7D7D7D7D7D7D7D7D7D7D7D7D7D7D7D7D7D7D7D7D7D7D7D7D7D7D7D7D7D7D7D7D7D7D7D7D7D7D700D70000D700D7D7D7D7D7D700D7D7D7D7D7D7D7D7D7D7D7D7D7D700D7D7D7D7D7D7D7D7D7D7D7D7D7D7D7D7D7D7D7D7D7D7D7D7D7D7D700D7D7D7D7D7D7D7D7D7D7D7D7D7D7D7D7D7D7D7D700D7D7D7D7D7D7D7
310
D7D7D7D7D7D7D7D7D7D7D7D7D7D7D7D7D700D7D7D7D700D7D7D7D7D7D7D7D7D7D700D7D7D7D7D7D7D7D7D7D7D7D7D7D7D7D7D7D7D7D7D7D7D7D7D7D7D7D7D7D7D7D7D7D7D7D7D7D7D7D7D7D7D7D7D7D700D7D70000D7D700D7D7D7D7D7D7D7D7D7D7D7D7D7D7D7D7D7D7D7D7D7D7D7D7D7D7D7D7D7D7D7D7D7D7D7D7D7D7D7
310
D700D70000D700D7D7D7D70000D7D7D7D7D7D7D7D7D7D7D7D7D7D7D7D700D7D7D7D7D7D7D7D7D7D7D7D7D7D7D7D7D7D7D7D7D7D7D7D7D700D7D7D7D7D7D7D7D7D7D7D7D7D7D7D7D7D7D7D7D7D7D700D7D7D7D7D7D7D7D7D7D7D7D7D7D7D7D7D7D7D7D7D70000D7D7D70000D7D7D7D7D7D7D7D7D7D7D700D7D7D7D7D7D7D7D7
310
D7D7D7D7D7D7D7D7D7D7D7D7D7D7D7D7D7D7D7D7D7D7D7D7D7D7D7D7D7D7D7D7D7D7D7D7D7D700D7D70000D7D700D7D7D7D7D7D7D7D7D7D7D7D7D7D7D7D7D7D7D7D7D7D7D7D7D7D7D7D7D7D7D7D7D7D7D7D7D7D7D7D7D7D70000D700D7D700D7D7D7D7D7D7D7D7D7D7D7D7D7D7D7D7D7D7D700D7D7D7D7D7D7D7D7D7D7D7D7
310
D7D7D7D7D7D7D7D7D70000D7D7D7D7D7D7D7D7D7D7D7D7D7D7D7D7D7D7D7D7D7D7D7D7D7D700D7D7D7D7D7D7D7D7D7D7D7D7D7D7D7D7D70000D7D7D70000D7D7D7D7D7D7D7D7D7D7D700D7D7D7D7D7D7D7D7D7D7D7D7D7D7D7D7D7D7D7D7D7D7D7D7D7D7D7D7D7D7D7D7D7D7D7D7D7D7D7D7D7D7D7D7D7D7D7D7D700D7D700
310
00D7D700D7D7D7D7D7D7D7D7D7D7D7D7D7D7D7D7D7D7D7D7D7D7D7D7D7D7D7D7D7D7D7D7D7D7D7D7D7D7D7D7D7D7000000000000D7D7D7D7D7D7D7D7D7D7D7D7D7D7D7D7D7D7D700D7D7D7D7D7D7D7D7D7D7D7D7D7D7D7D7D7D7D7D7D700D7D7D7D7D7D7D7D7D7D7D7D7D7D7D7D7D7D7D7D7D7D7D7D7D7D7D7D7D700D7D7D7
310
D7D7D7D7D7D7D7D7D7D7D7D700D7D7D7D700D7D7D7D7D7D7D7D7D7D7D70000D7D7D7D7D7D7D7D7D7D7D7D7D7D7D7D7D7D7D7D7D7D7D7D7D7D7D7D7D7D7D7D7D7D7D7D7D7D7D7D7D7D7D7D7D7D7D7D7D7D700D7D70000D7D700D7D7D7D7D7D7D7D7D7D7D7D7D7D7D7D7D7D7D7D7D7D7D7D7D7D7D7D7D7D7D7D7D7D7D7D7D7D7
310
D7D7D7D70000D7D7D7D7D7D7D7D7D7D7D7D7D7D7D7D7D7D7D7D7D7D7D700D7D7D7D7D7D7D7D7D7D7D7D7D7D7D7D7D7D70000D7D7D7D7D7D7D7D7D7D7D7D7D7D7D7D7D7D7D7D7D7D7D7D7D7D7D7D7D7D7D7D700D7D7D7D7D7D7D7D7D7D7D70000D7D7D70000D7D7D7D7D7D7D7D7D7D7D700D7D7D7D7D7D7D7D7D7D7D7D7D7D7
310
D7D7D7D7D7D7D7D7D7D7D7D7D7D7D7D7D7D7D7D7D7D7D7D7D7D7D7D7D7D7D7D7D7D7D7D7D7D7D700D7D70000D7D700D7D7D7D7D7D7D7D7D7D7D7D7D7D7D7D7D7D7D7D7D7D7D7D7D7D7D7D7D7D7D7D7D7D7D7D7D7D7D7D7D7D70000D7D7D7D7D7D7D7D7D7D7D7D7D7D7D7D7D7D7D7D7D7D7D7D7D700D7D7D7D7D7D7D7D7D7D7
310
D7D7D70000D7D7D7D7D7D7D7D7D7D7D7D7D7D7D7D7D7D7D7D7D7D7D7D7D7D7D7D7D7D7D7D7D7D7D7D7D7D7D7D7D7D7D7D700D7D7D7D7D700D7D7D7D7D7D7D7D7D7D70000D7D7D7D7D7D7D7D7D7D7D7D7D7D7D7D7D7D7D7D7D7D7D7D7D7D7D7D7D7D7D7D7D7D7D7D7D7D7D7D7D7D7D7D7D7D7D7D7D7D7D7D7D7D7D7D700D7D7
310
0000D7D700D7D7D7D7D7D7D7D7D7D7D7D7D7D7D7D7D7D7D7D7D7D7D7D7D7D7D7D7D7D7D7D7D7D7D7D7D7D7D7D7D7D70000D7D7D7D7D7D7D7D7D7D7D7D7D7D7D7D7D7D7D7D7D7D7D7D7D700D7D7D7D7D7D7D7D7D7D7D70000D7D7D7D7D7D7D7D7D7D7D7D7D7D7D7D7D7D7D7D7D7D7D7D7D7D7D7D7D7D7D7D7D7D7D7D7D7D7D7
310
D7D7D7D7D7D700D7D7D7D70000D7D7D7D7D7D7D7D7D7D700D7D7D7D7D7D7D7D7D7D7D7D7D7D7D7D7D7D7D7D7D7D7D7D7D7D7D7D7D7D7D7D7D7D7D7D7D7D7D7D7D7D7D7D7D7D7D7D7D7D7D7D7D7D7D7D7D7D700D7D70000D7D700D7D7D7D7D7D7D7D7D7D7D7D7D7D7D7D7D7D7D7D7D7D7D7D7D7D7D7D7D7D7D7D7D7D7D7D7D7
310
D7D7D7D7D70000D7D7D7D7D7D7D7D7D7D7D7D7D7D7D7D7D7D7D7D7D7D700D7D700D7D7D7D7D7D7D7D7D700D7D7D7D7D7D7D7D7D7D7D7D7D7D7D7D7D7D7D7D7D7D7D7D7D7D7D7D7D7D7D7D7D7D7D7D7D7D7D7D7D7D7D7D7D70000D7D7D70000D7D7D7D7D7D7D7D7D7D700D7D7D7D7D7D7D7D7D7D7D7D7D7D7D7D7D7D7D7D7D7
310
D7D7D7D7D7D7D7D7D7D7D7D7D7D7D7D7D7D7D7D7D7D7D7D7D7D7D7D7D7D7D7D7D7D7D7D7D7D7D7D700D7D70000D7D700D7D7D7D7D7D7D7D7D7D7D7D7D7D7D7D7D7D7D7D7D7D7D7D7D7D7D7D7D7D7D7D7D7D7D7D7D7D7D7D7D7D70000D7D7D7D7D7D7D7D7D7D7D7D7D7D7D7D7D7D7D7D7D7D7D7D7D7D700D7D7D7D7D7D7D700
310
D7D7D7D7D7D7D7D7D7D7D7D7D7D7D7D7D7D7D7D7D7D7D7D7D7D7D7D7D7D7D7D7D7D7D7D7D7D7D7D7D7D7D7D70000D7D7D7D700D7D7D7D7D7D7D7D7D7D7D700D7D7D7D7D7D7D7D7D7D7D7D7D7D7D7D7D7D7D7D7D7D7D7D7D7D7D7D7D7D7D7D7D7D7D7D7D7D7D7D7D7D7D7D7D7D7D7D7D7D7D7D7D7D7D7D7D7D7D7D7D7D700D7
310
D70000D7D700D7D7D7D7D7D7D7D7D7D7D7D7D7D7D7D7D7D7D7D7D7D7D7D7D7D7D7D7D7D7D7D7D7D7D7D7D7D7D7D7D7D70000D7D7D7D7D7D7D7D7D7D7D7D7D7D7D7D7D7D7D7D7D7D7D700D7D700D7D7D70000D7D7D7D7D7D7D7D7D7D7D7D7D7D7D7D7D7D7D7D7D7D7D7D7D7D7D7D7D7D7D7D7D7D7D7D7D7D7D7D7D7D7D7D7D7
310
00D7D7D7D70000D7D7D7D7D7D7D7D7D70000D7D7D7D7D7D7D7D7D7D7D7D7D7D7D7D7D7D7D7D7D7D7D7D7D7D7D7D7D7D7D7D7D7D7D7D7D7D7D7D7D7D7D7D7D7D7D7D7D7D7D7D7D7D7D7D7D7D7D7D7D7D7D7D7D700D7D70000D7D700D7D7D7D7D7D7D7D7D7D7D7D7D7D7D7D7D7D7D7D7D7D7D7D7D7D7D7D7D7D7D7D7D7D7D7D7
310
D7D7D7D7D7D70000D7D7D7D7D7D7D7D7D7D7D7D7D7D7D7D7D7D7D7D7D7D7D7D7D70000D700D7D7D7D7D7D7D7D7D7D7D7D7D7D7D7D7D7D7D7D7D7D7D7D7D7D7D7D7D7D7D7D7D7D7D7D7D7D7D7D7D7D7D7D7D70000D7D7D70000D700D7D7D7D7D7D7D7D700D7D7D7D7D7D7D7D7D7D7D7D7D7D7D7D7D7D7D7D7D7D7D7D7D7D7D7
310
D7D7D7D7D7D7D7D7D7D7D7D7D7D7D7D7D7D7D7D7D7D7D7D7D7D7D7D7D7D7D7D7D7D7D7D7D7D7D7D7D700D7D70000D7D700D7D7D7D7D7D7D7D7D7D7D7D7D7D7D7D7D7D7D7D7D7D7D7D7D7D7D7D7D7D7D7D7D7D7D7D7D7D7D7D7D7D70000D7D7D7D7D7D7D7D7D7D7D7D7D7D7D7D7D7D7D7D7D7D7D7D7D7D7D700D7D7D7D7D7D7
310
D7D7D7D7D7D7D7D7D7D7D7D7D7D7D7D7D7D7D7D7D7D7D7D7D7D7D7D7D7D7D7D7D7D7D7D7D7D70000D7D7D7D700D7D7D7D7D7D7D7D7D7D7D700D7D7D7D7D7D7D7D7D7D7D7D7D7D7D7D7D7D7D7D7D7D7D7D7D7D7D7D7D7D7D7D7D7D7D7D7D7D7D7D7D7D7D7D7D7D7D7D7D7D7D7D7D7D7D7D7D7D7D7D7D7D7D7D7D7D7D7D7D700
310
D7D70000D7D700D7D7D7D7D7D7D7D7D7D7D7D7D7D7D7D7D7D7D7D7D7D7D7D7D7D7D7D7D7D7D7D7D7D7D7D7D7D7D7D7D7D70000D7D7D7D7D7D7D7D7D7D7D7D7D7D7D7D7D7D7D7D7D7D7D7D7D7D7D7D7D7D7D7D7D7D7D7D7D7D7D7D7D7D7D7D7D7D7D7D7D7D7D7D7D7D7D7D7D7D7D7D7D7D7D7D7D7D7D7D7D7D700D7D7D7D700
310
00D7D7D7D7D7D700D7D70000D7D7D7D7D7D7D7D7D7D7D7D7D7D7D7D7D7D7D7D7D7D7D7D7D7D7D7D7D7D7D7D7D7D7D7D7D7D7D7D7D7D7D7D7D7D7D7D7D7D7D7D7D7D7D7D7D7D7D7D7D7D7D7D7D7D7D7D7D7D7D7D700D7D70000D7D700D7D7D7D7D7D7D7D7D7D7D7D7D7D7D7D7D7D7D7D7D7D7D7D7D7D7D7D7D7D7D7D7D7D7D7
310
D7D7D7D7D7D7D70000D7D7D7D7D7D7D7D7D7D7D7D7D7D7D7D7D7D7D7D7D7D7D7D7D7D7D7D7D7D7D7D7D7D7D7D7D7D7D7D7D7D7D7D7D7D7D7D7D7D7D7D7D7D7D7D7D7D7D7D7D7D7D7D7D7D7D7D7D700D7D7D7D700D7D7D7D7D7D7D7D7D70000D7D7D7D7D7D7D7D7D7D7D7D7D7D7D7D7D7D7D7D7D7D7D7D7D7D7D7D7D7D7D7D7
310
D7D7D7D7D7D7D7D7D7D7D7D7D7D7D7D7D7D7D7D7D7D7D7D7D7D7D7D7D7D7D7D7D7D7D7D7D7D7D7D7D7D700D7D70000D7D700D7D7D7D7D7D7D7D7D7D7D7D7D7D7D7D7D7D7D7D7D7D7D7D7D7D7D7D7D7D7D7D7D7D7D7D7D7D7D7D7D7D70000D7D7D7D7D7D7D7D7D7D7D7D7D7D7D7D7D7D7D7D7D7D7D7D7D7D7D7D7D7D7D7D7D7
310
D7D7D7D7D7D7D7D7D7D7D7D7D7D7D7D7D7D7D7D7D7D7D7D7D7D7D7D7D7D7D7D7D700D7D7D7D700D7D7D7D7D7D7D7D7D7D7D700D700D7D7D7D7D7D7D7D7D7D7D7D7D7D7D7D7D7D7D7D7D7D7D7D7D7D7D7D7D7D7D7D7D7D7D7D7D7D7D7D7D7D7D7D7D7D7D7D7D7D7D7D7D7D7D7D7D7D7D7D7D7D7D7D7D7D7D7D7D7D7D7D7D7D7
310
00D7D70000D7D700D7D7D7D7D7D7D7D7D7D7D7D7D7D7D7D7D7D7D7D7D7D7D7D7D7D7D7D7D7D7D7D7D7D7D7D7D7D7D7D7D7D70000D7D7D7D7D7D7D7D7D7D7D7D7D7D7D7D7D7D7D7D7D7D7D7D7D7D7D7D7D7D7D7D7D7D7D7D7D7D7D7D7D7D7D7D7D7D7D7D7D7D7D7D7D7D7D7D7D7D7D7D7D7D7D7D70000D7D7D7D700D7D7D7D7
310
D7D7D7D7D7D70000D7D7D7D7D7D7D7D7D7D7D7D7D7D7D7D7D7D7D7D7D7D7D7D7D7D7D7D7D7D7D7D7D7D7D7D7D7D7D7D7D7D7D7D7D7D7D7D7D7D7D7D7D7D7D7D7D7D7D7D7D7D7D7D7D7D7D7D7D7D7D7D7D7D7D7D7D700D7D70000D7D700D7D7D7D7D7D7D7D7D7D7D7D7D7D7D7D7D7D7D7D7D7D7D7D7D7D7D7D7D7D7D7D7D7D7
310
D7D7D7D7D7D7D7D70000D7D7D7D7D7D7D7D7D7D7D7D7D7D7D7D7D7D7D7D7D7D7D7D7D7D7D7D7D7D7D7D7D7D7D7D7D7D7D7D7D7D7D7D7D7D7D7D7D7D7D7D7D7D7D7D7D7D7D7D7D7D700D7D7D7D700D7D7D7D7D7D7D7D7D7D700D7D7D7D7D7D7D7D700D7D7D7D7D7D7D7D7D7D7D7D7D7D7D7D7D7D7D7D7D7D7D7D7D7D7D7D7D7
310
D7D7D7D7D7D7D7D7D7D7D7D7D7D7D7D7D7D7D7D7D7D7D7D7D7D7D7D7D7D7D7D7D7D7D7D7D7D7D7D7D7D7D700D7D70000D7D700D7D7D7D7D7D7D7D7D7D7D7D7D7D7D7D7D7D7D7D7D7D7D7D7D7D7D7D7D7D7D7D7D7D7D7D7D7D7D7D7D7D70000D7D7D7D7D7D7D7D7D7D7D7D7D7D7D7D7D7D7D7D7D7D7D7D7D7D7D7D7D7D7D7D7
310
D7D7D7D7D7D7D7D7D7D7D7D7D7D7D7D7D7D7D7D7D7D7D7D7D7D7D700D7D7D7D700D7D7D7D7D7D7D7D7D7D70000D7D7D7D7D7D7D7D7D7D7D700D7D7D7D7D7D7D7D7D7D7D7D7D7D7D7D7D7D7D7D7D7D7D7D7D7D7D7D7D7D7D7D7D7D7D7D7D7D7D7D7D7D7D7D7D7D7D7D7D7D7D7D7D7D7D7D7D7D7D7D7D7D7D7D7D7D7D7D7D7D7
310
D700D7D70000D7D700D7D7D7D7D7D7D7D7D7D7D7D7D7D7D7D7D7D7D7D7D7D7D7D7D7D7D7D7D7D7D7D7D7D7D7D7D7D7D7D7D7D70000D7D7D7D7D7D7D7D7D7D7D7D7D7D7D7D7D7D7D7D7D7D7D7D7D7D7D7D7D7D7D7D7D7D7D7D7D7D7D7D7D7D7D7D7D7D7D7D7D7D7D7D7D7D7D7D7D70000D7D7D70000D7D7D7D7D7D7D7D7D7D7
310
00D7D7D7D7D7D7D7D7D7D7D7D7D700D7D7D7D7D7D7D7D7D7D7D7D7D7D7D7D7D7D7D7D7D7D7D7D7D7D7D7D7D7D7D7D7D7D7D7D7D7D7D7D7D7D7D7D7D7D7D7D7D7D7D7D7D7D7D7D7D7D7D7D7D7D7D7D7D7D7D7D7D7D7D700D7D70000D7D700D7D7D7D7D7D7D7D7D7D7D7D7D7D7D7D7D7D7D7D7D7D7D7D7D7D7D7D7D7D7D7D7D7
310
D7D7D7D7D7D7D7D7D70000D7D7D7D7D7D7D7D7D7D7D7D7D7D7D7D7D7D7D7D7D7D7D7D7D7D7D7D7D7D7D7D7D7D7D7D7D7D7D7D7D7D7D7D7D7D7D7D7D7D7D7D7D7D7D700D7D7D7D700D7D7D7D7D7D7D7D7D7D700D7D7D7D7D7D7D7D7D7D7D7D7D7D7D7D7D7D7D7D7D7D7D7D7D7D7D7D7D7D7D7D7D7D7D7D7D7D7D7D7D7D7D7D7
310
D7D7D7D7D7D7D7D7D7D7D7D7D7D7D7D7D7D7D7D7D7D7D7D7D7D7D7D7D7D7D7D7D7D7D7D7D7D7D7D7D7D7D7D700D7D70000D7D700D7D7D7D7D7D7D7D7D7D7D7D7D7D7D7D7D7D7D7D7D7D7D7D7D7D7D7D7D7D7D7D7D7D7D7D7D7D7D7D7D7D70000D7D7D7D7D7D7D7D7D7D7D7D7D7D7D7D7D7D7D7D7D7D7D7D7D7D7D7D7D7D7D7
310
D7D7D7D7D7D7D7D7D7D7D7D7D7D7D7D7D7D7D7D7D7D70000D7D7D70000D7D7D7D7D7D7D7D7D7D700D7D7D7D7D7D7D7D7D7D7D7D7D7D7D7D7D7D7D700D7D7D7D7D7D7D7D7D7D7D7D7D7D7D7D700D7D7D7D7D7D7D7D7D7D7D7D7D7D7D7D7D7D7D7D7D7D7D7D7D7D7D7D7D7D7D7D7D7D7D7D7D7D7D7D7D7D7D7D7D7D7D7D7D7D7
310
D7D700D7D70000D7D700D7D7D7D7D7D7D7D7D7D7D7D7D7D7D7D7D7D7D7D7D7D7D7D7D7D7D7D7D7D7D7D7D7D7D7D7D7D7D7D7D7D70000D7D7D7D7D7D7D7D7D7D7D7D7D7D7D7D7D7D7D7D7D7D7D7D7D7D7D7D7D7D7D7D7D7D7D7D7D7D7D7D7D7D7D7D7D7D7D7D7D7D70000D7D7D70000D7D7D7D7D7D7D7D7D7D700D7D7D7D7D7
310
D7D7D7D7D7D7D7D7D7D7D7D7D7D7D7D7D7D7D70000D700D7D7D7D700D7D70000D7D7000000D700D7D700D7D700D7D700D7D70000D7D7D7D7D7D7D7D7D7D7D7D7D7D7D7D7D7D7D7D7D7D7D7D7D7D7D7D7D7D7D7D7D7D7D700D7D70000D7D700D7D7D7D7D7D7D7D7D7D7D7D7D7D7D7D7D7D7D7D7D7D7D7D7D7D7D7D7D7D7D7D7
310
D7D7D7D7D7D7D7D7D7D70000D7D7D7D7D7D7D7D7D7D7D7D7D7D7D7D7D7D7D7D7D7D7D7D7D7D7D7D7D7D7D7D7D7D7D7D7D7D7D7D7D7D7D7D7D7D7D7D7D700D7D7D7D700D7D7D7D7D7D7D7D7D7D70000D7D7D7D7D7D7D7D7D7D7D7D7D7D7D7D7D7D7D7D7D7D7D7D7D7D700D700D7D7D700D70000D700D700D70000D700D7D7D7
310
0000D7D700D7D7D7D7D7D7D7D7D7D7D7D7D7D7D7D7D7D7D7D7D7D7D7D7D7D7D7D7D7D7D7D7D7D7D7D7D7D7D7D700D7D70000D7D700D7D7D7D7D7D7D7D7D7D7D7D7D7D7D7D7D7D7D7D7D7D7D7D7D7D7D7D7D7D7D7D7D7D7D7D7D7D7D7D7D7D70000D7D7D7D7D7D7D7D7D7D7D7D7D7D7D7D7D7D7D7D7D7D7D7D7D7D7D7D7D7D7
310
D7D7D7D7D7D7D7D7D7D7D7D7D7D7D7D70000D7D7D70000D7D7D7D7D7D7D7D7D7D700D7D7D7D7D7D7D7D7D7D7D7D7D7D7D7D7D7D7D7D7D7D7D7D7D7D7D7D7D700D700D7D7D700D70000D700D700D70000D700D7D7D70000D7D700D7D7D7D7D7D7D7D7D7D7D7D7D7D7D7D7D7D7D7D7D7D7D7D7D7D7D7D7D7D7D7D7D7D7D7D7D7
310
D7D7D700D7D70000D7D700D7D7D7D7D7D7D7D7D7D7D7D7D7D7D7D7D7D7D7D7D7D7D7D7D7D7D7D7D7D7D7D7D7D7D7D7D7D7D7D7D7D70000D7D7D7D7D7D7D7D7D7D7D7D7D7D7D7D7D7D7D7D7D7D7D7D7D7D7D7D7D7D7D7D7D7D7D7D7D7D7D7D7D7D7D70000D7D7D70000D7D7D7D7D7D7D7D7D7D700D7D7D7D7D7D7D7D7D7D7D7
310
D7D7D7D7D7D7D7D7D7D7D7D7D7D7D7D7D7D7D7D7D700D7D7D7D7D7D7D7D7D7D7D7D7D7D7D700D7D7D7D7D7D7D7D7D7D7D7D7D7D7D7D7D7D7D7D7D7D7D7D7D7D7D7D7D7D7D7D7D7D7D7D7D7D7D7D7D7D7D7D7D7D7D7D7D7D700D7D70000D7D700D7D7D7D7D7D7D7D7D7D7D7D7D7D7D7D7D7D7D7D7D7D7D7D7D7D7D7D7D7D7D7
310
D7D7D7D7D7D7D7D7D7D7D70000D7D7D7D7D7D7D7D7D7D7D7D7D7D7D7D7D7D7D7D7D7D7D7D7D7D7D7D7D7D7D7D7D7D7D7D7D7D7D7D7D7D700D7D7D7D700D7D7D7D7D7D7D7D7D7D70000D7D7D7D7D7D7D7D7D7D7D7D7D7D7D7D7D7D7D7D7D7D7D7D7D7D7D7D7D7D7D7D7D700D7D7D7D7D7D7D7D7D7D7D7D7D7D7D700D7D7D7D7
310
D7D7D7D7D7D7D7D7D7D7D7D7D7D7D7D7D7D7D7D7D7D7D7D7D7D7D7D7D7D7D7D7D7D7D7D7D7D7D7D7D7D7D7D7D7D700D7D70000D7D700D7D7D7D7D7D7D7D7D7D7D7D7D7D7D7D7D7D7D7D7D7D7D7D7D7D7D7D7D7D7D7D7D7D7D7D7D7D7D7D7D7D70000D7D7D7D7D7D7D7D7D7D7D7D7D7D7D7D7D7D7D7D7D7D7D7D7D7D7D7D7D7
310
D7D7D7D7D7D7D7D7D7D70000D7D7D70000D7D7D7D7D7D7D7D7D7D700D7D7D7D7D7D7D7D7D7D7D7D7D7D7D7D7D7D7D7D7D7D7D7D7D7D7D7D7D7D7D7D7D7D7D7D7D7D7D7D7D7D7D7D7D7D7D7D7D7D7D7D7D7D7D7D7D7D7D7D7D7D7D7D7D7D7D7D7D7D7D7D7D7D7D7D7D7D7D7D7D7D7D7D7D7D7D7D7D7D7D7D7D7D7D7D7D7D7D7
310
D7D7D7D700D7D70000D7D700D7D7D7D7D7D7D7D7D7D7D7D7D7D7D7D7D7D7D7D7D7D7D7D7D7D7D7D7D7D7D7D7D7D7D7D7D7D7D7D7D7D70000D7D7D7D7D7D7D7D7D7D7D7D7D7D7D7D7D7D7D7D7D7D7D7D7D7D7D7D7D7D7D7D7D7D7D7D7D7D700D7D7D7D700D7D7D7D7D7D7D7D7D7D70000D7D7D7D7D7D7D7D7D7D7D7D7D7D7D7
310
D7D7D7D7D7D7D7D7D7D7D7D7D7D7D7D7D7D7D7D7D7D7D7D7D7D7D7D7D7D7D7D7D7D7D7D7D7D7D7D7D7D7D7D7D7D7D7D7D7D7D7D7D7D7D7D7D7D7D7D7D7D7D7D7D7D7D7D7D7D7D7D7D7D7D7D7D7D7D7D7D7D7D7D7D7D7D7D7D700D7D70000D7D700D7D7D7D7D7D7D7D7D7D7D7D7D7D7D7D7D7D7D7D7D7D7D7D7D7D7D7D7D7D7
310
D7D7D7D7D7D7D7D7D7D7D7D70000D7D7D7D7D7D7D7D7D7D7D7D7D7D7D7D7D7D7D7D7D7D7D7D7D7D7D7D7D7D7D7D7D7D7D70000D7D7D700D7D7D7D7D7D7D7D7D7D70000D7D7D7D7D7D7D7D7D7D7D7D7D7D7D7D7D7D7D7D7D7D7D7D7D7D7D7D7D7D7D7D7D7D7D7D7D7D7D7D700D700D70000D7D700D7D7D7D7D700D7D7D7D7D7
310
00D7D7D70000D7D70000D700D700D7D7D7D7D7D7D7D7D7D7D7D7D7D7D7D7D7D7D7D7D7D7D7D7D7D7D7D7D7D7D7D7D700D7D70000D7D700D7D7D7D7D7D7D7D7D7D7D7D7D7D7D7D7D7D7D7D7D7D7D7D7D7D7D7D7D7D7D7D7D7D7D7D7D7D7D7D7D7D70000D7D7D7D7D7D7D7D7D7D7D7D7D7D7D7D7D7D7D7D7D7D7D7D7D7D7D7D7
310
D7D7D7D70000D7D7D70000D7D7D7D7D7D7D7D7D70000D7D7D7D7D7D7D7D7D7D7D7D7D7D7D7D7D7D7D7D7D7D7D7D7D7D7D7D7D7D7D7D7D7D7D7D7D7D7D7D7D7D7D700D700D70000D700D7D7D7D7D7D700D7D7D7D70000D7D7D700D700D7D7D7D700D700D7D7D7D7D7D7D7D7D7D7D7D7D7D7D7D7D7D7D7D7D7D7D7D7D7D7D7D7
310
D7D7D7D7D700D7D70000D7D700D7D7D7D7D7D7D7D7D7D7D7D7D7D7D7D7D7D7D7D7D7D7D7D7D7D7D7D7D7D7D7D7D7D7D7D7D7D7D7D7D7D70000D7D7D7D7D7D7D7D7D7D7D7D7D7D7D7D7D7D7D7D7D7D7D7D7D7D7D7D7D7D7D700D7D7D7D700D7D7D7D7D7D7D7D7D7D700D7D7D7D7D7D7D7D7D7D7D7D7D7D7D7D7D7D7D7D7D7D7
310
D7D7D7D7D7D7D7D7D7D7D7D7D7D7D7D7D7D7D7D7D7D7D700D700D7D7D7D700D700D7D7D7D700D7D7D7D700D7D7D7D700D700D7D7D7D700D700D7D7D7D7D7D7D7D7D7D7D7D7D7D7D7D7D7D7D7D7D7D7D7D7D7D7D7D7D7D7D7D7D700D7D70000D7D700D7D7D7D7D7D7D7D7D7D7D7D7D7D7D7D7D7D7D7D7D7D7D7D7D7D7D7D7D7
310
D7D7D7D7D7D7D7D7D7D7D7D7D70000D7D7D7D7D7D7D7D7D7D7D7D7D7D7D7D7D7D7D7D7D7D7D7D7D7D7D7D70000D7D7D700D7D7D7D7D7D7D7D7D7D70000D7D7D7D7D7D7D7D7D7D7D7D7D7D7D7D7D7D7D7D7D7D7D7D7D7D7D7D7D7D7D7D7D7D7D7D7D7D7D7D7D7D7D7D7D7D7D7D7D7D7D7D7D7D7D7D7D7D7D7D7D7D7D7D7D7D7
310
D7D7D7D7D700D7D7D7D7D7D700D700D7D7D7D7D7D7D7D7D7D7D7D7D7D7D7D7D7D7D7D7D7D7D7D7D7D7D7D7D7D7D7D7D700D7D70000D7D700D7D7D7D7D7D7D7D7D7D7D7D7D7D7D7D7D7D7D7D7D7D7D7D7D7D7D7D7D7D7D7D7D7D7D7D7D7D7D7D7D7D70000D7D7D7D7D7D7D7D7D7D7D7D7D7D7D7D7D7D7D7D7D7D7D7D7D7D7D7
310
00D7D7D7D700D7D7D7D7D7D7D7D7D7D700D7D7D7D7D7D7D7D7D7D7D7D7D7D7D7D7D7D7D7D7D7D7D7D7D7D7D7D7D7D7D7D7D7D7D7D7D7D7D7D7D7D7D7D7D7D7D7D7D7D7D7D7D7D7D7D7D7D7D7D7D7D7D700D7D7D7D7D7D7D7D7D700D7D7D7D7D7D700D700D7D7D7D7D7D7D7D7D7D7D7D7D7D7D7D7D7D7D7D7D7D7D7D7D7D7D7
310
D7D7D7D7D7D700D7D70000D7D700D7D7D7D7D7D7D7D7D7D7D7D7D7D7D7D7D7D7D7D7D7D7D7D7D7D7D7D7D7D7D7D7D7D7D7D7D7D7D7D7D7D70000D7D7D7D7D7D7D7D7D7D7D7D7D7D7D7D7D7D7D7D7D7D7D7D700D7D7D7D700D7D7D7D7D7D7D7D7D7D700D7D7D7D7D7D7D7D7D7D7D7D7D7D7D7D7D7D7D7D7D7D7D7D7D7D7D7D7
310
D7D7D7D7D7D7D7D7D7D7D7D7D7D7D7D7D7D7D7D7D7D7D7D7D7D7D7D7D7D7D7D7D7D7D7D7D7D7D7D7D7D7D7D7D7D7D7D7D7D7D7D7D7D7D7D7D7D7D7D7D7D7D7D7D7D7D7D7D7D7D7D7D7D7D7D7D7D7D7D7D7D7D7D7D7D7D7D7D7D7D700D7D70000D7D700D7D7D7D7D7D7D7D7D7D7D7D7D7D7D7D7D7D7D7D7D7D7D7D7D7D7D7D7
310
D7D7D7D7D7D7D7D7D7D7D7D7D7D70000D7D7D7D7D7D7D7D7D7D7D7D7D7D7D7D7D7D7D7D7D7D7D700D7D7D70000D7D7D7D7D7D7D7D7D7D700D7D7D7D7D7D7D7D7D7D7D7D7D7D7D7D7D7D7D7D7D7D7D7D7D7D7D7D7D7D7D7D7D7D7D7D7D7D7D7D7D7D7D7D7D7D7D7D7D7D7D7D7D7D7D7D7D7D7D7D7D7D7D7D7D7D7D7D7D7D7D7
310
D7D7D7D7D7D7D7D7D7D7D7D7D7D7D7D7D7D7D7D7D7D7D7D7D7D7D7D7D7D7D7D7D7D7D7D7D7D7D7D7D7D7D7D7D7D7D7D7D700D7D70000D7D700D7D7D7D7D7D7D7D7D7D7D7D7D7D7D7D7D7D7D7D7D7D7D7D7D7D7D7D7D7D7D7D7D7D7D7D7D7D7D7D7D7D70000D7D7D7D7D7D7D7D7D7D7D7D7D7D7D7D7D7D7D7D700D7D7D7D700
310
D7D7D7D7D7D7D7D7D7D700D7D7D7D7D7D7D7D7D7D7D7D7D7D7D7D7D7D7D7D7D7D7D7D7D7D7D7D7D7D7D7D7D7D7D7D7D7D7D7D7D7D7D7D7D7D7D7D7D7D7D7D7D7D7D7D7D7D7D7D7D7D7D7D7D7D7D7D7D7D7D7D7D7D7D7D7D7D7D7D7D7D7D7D7D7D7D7D7D7D7D7D7D7D7D7D7D7D7D7D7D7D7D7D7D7D7D7D7D7D7D7D7D7D7D7D7
310
D7D7D7D7D7D7D700D7D70000D7D700D7D7D7D7D7D7D7D7D7D7D7D7D7D7D7D7D7D7D7D7D7D7D7D7D7D7D7D7D7D7D7D7D7D7D7D7D7D7D7D7D7D70000D7D7D7D7D7D7D7D7D7D7D7D7D7D7D7D7D700D7D7D7D700D7D7D7D7D7D7D7D7D7D700D7D7D7D7D7D7D7D7D7D7D7D7D7D7D7D7D7D7D7D7D7D7D7D7D7D7D7D7D7D7D7D7D7D7
310
D7D7D7D7D7D7D7D7D7D7D7D7D7D7D7D7D7D7D7D7D7D7D700D700D7D700D7D7D7D7D7D7D700D700D700D70000D70000D7D7D7D7D7D700D700D7D7D7D7D7D7D7D7D7D7D7D7D7D7D7D7D7D7D7D7D7D7D7D7D7D7D7D7D7D7D7D7D7D7D7D700D7D70000D7D700D7D7D7D7D7D7D7D7D7D7D7D7D7D7D7D7D7D7D7D7D7D7D7D7D7D7D7
310
D7D7D7D7D7D7D7D7D7D7D7D7D7D7D70000D7D7D7D7D7D7D7D7D7D7D7D7D7D7D7D700D7D7D70000D7D7D7D7D7D7D7D7D7D700D7D7D7D7D7D7D7D7D7D7D7D7D7D7D7D7D7D7D7D7D7D7D7D7D7D7D7D7D7D7D7D7D7D7D7D7D7D7D7D7D7D7D7D7D7D7D7D7D7D7D7D7D7D7D7D7D7D7D7D700D70000D7D7D7D7D7D7D700D700D700D7
310
0000D70000D7D7D7D7D7D7D70000D7D7D7D7D7D7D7D7D7D7D7D7D7D7D7D7D7D7D7D7D7D7D7D7D7D7D7D7D7D7D7D7D7D7D7D700D7D70000D7D700D7D7D7D7D7D7D7D7D7D7D7D7D7D7D7D7D7D7D7D7D7D7D7D7D7D7D7D7D7D7D7D7D7D7D7D7D7D7D7D7D7D70000D7D7D7D7D7D7D7D7D7D7D7D7D700D7D7D7D700D7D7D7D7D7D7
310
D7D7D7D700D7D7D7D7D7D7D7D7D7D7D7D7D7D7D7D7D7D7D7D7D7D7D7D7D7D7D7D7D7D7D7D7D7D7D7D7D7D7D7D7D7D7D7D7D7D7D7D7D7D7D7D7D7D7D7D7D7D7D7D7D7D7D700D70000D7D7D7D700D7D700000000D7D7000000D700D700000000D7D70000D7D7D7D7D7D7D7D7D7D7D7D7D7D7D7D7D7D7D7D7D7D7D7D7D7D7D7D7
310
D7D7D7D7D7D7D7D700D7D70000D7D700D7D7D7D7D7D7D7D7D7D7D7D7D7D7D7D7D7D7D7D7D7D7D7D7D7D7D7D7D7D7D7D7D7D7D7D7D7D7D7D7D7D70000D7D7D7D7D7D7D7D7D7D7D70000D7D7D70000D7D7D7D7D7D7D7D7D70000D7D7D7D7D7D7D7D7D7D7D7D7D7D7D7D7D7D7D7D7D7D7D7D7D7D7D7D7D7D7D7D7D7D7D7D7D7D7
310
D7D7D7D7D7D7D7D7D7D7D7D7D7D7D7D7D7D7D7D7D7D7D7D700D700D7D700D7D7D7D700D7D7D7D7D7D7D7D7D7D7D7D7D7D7D7D7D7D7D7D7D7D7D7D7D7D7D7D7D7D7D7D7D7D7D7D7D7D7D7D7D7D7D7D7D7D7D7D7D7D7D7D7D7D7D7D7D7D700D7D70000D7D700D7D7D7D7D7D7D7D7D7D7D7D7D7D7D7D7D7D7D7D7D7D7D7D7D7D7
310
D7D7D7D7D7D7D7D7D7D7D7D7D7D7D7D70000D7D7D7D7D7D7D7D7D700D7D7D70000D7D7D7D7D7D7D7D7D7D700D7D7D7D7D7D7D7D7D7D7D7D7D7D7D7D7D7D7D7D7D7D7D7D7D7D7D7D7D7D7D7D7D7D7D7D7D7D7D7D7D7D7D7D7D7D7D7D7D7D7D7D7D7D7D7D7D7D7D7D7D7D7D7D7D7D7D7D7D7D7D7D7D7D7D7D7D7D7D7D7D7D7D7
310
D7D7D7D7D7D7D7D7D7D7D7D7D7D7D7D7D7D7D7D7D7D7D7D7D7D7D7D7D7D7D7D7D7D7D7D7D7D7D7D7D7D7D7D7D7D7D7D7D7D7D700D7D70000D7D700D7D7D7D7D7D7D7D7D7D7D7D7D7D7D7D7D7D7D7D7D7D7D7D7D7D7D7D7D7D7D7D7D7D7D7D7D7D7D7D7D7D70000D7D7D7D7D7D7D7D700D7D7D700D7D7D7D7D7D7D7D7D7D700
310
00D7D7D7D7D7D7D7D7D7D7D7D7D7D7D7D7D7D7D7D7D7D7D7D7D7D7D7D7D7D7D7D7D7D7D7D7D7D7D7D7D7D7D7D7D7D7D7D7D7D7D7D7D7D7D7D7D7D7D7D7D7D7D7D7D7D7D7D7D7D7D7D7D7D7D7D7D7D7D7D7D7D7D7D7D7D7D7D7D7D7D7D7D7D7D7D7D7D7D7D7D7D7D7D7D7D7D7D7D7D7D7D7D7D7D7D7D7D7D7D7D7D7D7D7D7D7
310
D7D7D7D7D7D7D7D7D700D7D70000D7D700D7D7D7D7D7D7D7D7D7D7D7D7D7D7D7D7D7D7D7D7D7D7D7D7D7D7D7D7D7D7D7D7D7D7D7D7D7D7D7D7D7D70000D7D7D7D70000D7D7D70000D7D7D7D7D7D7D7D7D70000D7D7D7D7D7D7D7D7D7D7D7D7D7D7D7D7D7D7D7D7D7D7D7D7D7D7D7D7D7D7D7D7D7D7D7D7D7D7D7D7D7D7D7D7
310
D7D7D7D7D7D7D7D7D7D7D7D7D7D7D7D7D7D7D7D7D7D7D7D7D7D7D7D7D7D7D7D7D7D7D7D7D7D7D7D7D7D7D7D7D7D7D7D7D7D7D7D7D7D7D7D7D7D7D7D7D7D7D7D7D7D7D7D7D7D7D7D7D7D7D7D7D7D7D7D7D7D7D7D7D7D7D7D7D7D7D7D7D7D700D7D70000D7D700D7D7D7D7D7D7D7D7D7D7D7D7D7D7D7D7D7D7D7D7D7D7D7D7D7
310
D7D7D7D7D7D7D7D7D7D7D7D7D7D7D700D70000D7D700D7D7D70000D7D7D7D7D7D7D7D7D7D700D7D7D7D7D7D7D7D7D7D7D7D7D7D7D7D7D7D7D7D7D7D7D7D7D7D7D7D7D7D7D7D7D7D7D7D7D7D7D7D7D7D7D7D7D7D7D7D7D7D7D7D7D7D7D7D7D7D7D7D7D7D7D7D7D7D7D7D7D7D7D7D7D7D7D7D7D7D7D7D7D7D7D7D7D7D7D7D7D7
310
D7D7D7D7D7D7D7D7D7D7D7D7D7D7D7D7D7D7D7D7D7D7D7D7D7D7D7D7D7D7D7D7D7D7D7D7D7D7D7D7D7D7D7D7D7D7D7D7D7D7D7D700D7D70000D7D700D7D7D7D7D7D7D7D7D7D7D7D7D7D7D7D7D7D7D7D7D7D7D7D7D7D7D7D7D7D7D7D7D7D7D7D7D7D7D7D700000000D700D7D7D700D7D7D7D7D7D7D7D7D7D70000D7D7D7D7D7
310
D7D7D7D7D7D7D7D7D7D7D7D7D7D7D7D7D7D7D7D7D7D7D7D7D7D7D7D7D7D7D7D7D7D7D7D7D7D7D7D7D7D7D7D7D7D7D7D7D7D7D7D7D7D7D7D7D7D7D7D7D7D7D7D7D7D7D7D7D7D7D7D7D7D7D7D7D7D7D7D7D7D7D7D7D7D7D7D7D7D7D7D7D7D7D7D7D7D7D7D7D7D7D7D7D7D7D7D7D7D7D7D7D7D7D7D7D7D7D7D7D7D7D7D7D7D7D7
310
D7D7D7D7D7D7D7D7D7D700D7D70000D7D700D7D7D7D7D7D7D7D7D7D7D7D7D7D7D7D7D7D7D7D7D7D7D7D7D7D7D7D7D7D7D7D7D7D7D7D7D7D7D7D700D7000000D70000D7D7D7D7D7D7D7D7D70000D7D7D7D7D7D7D7D7D7D7D7D7D7D7D7D7D7D7D7D7D7D7D7D7D7D7D7D7D7D7D7D7D7D7D7D7D7D7D7D7D7D7D7D7D7D7D7D7D7D7
310
D7D7D7D7D7D7D7D7D7D7D7D7D7D7D7D7D7D7D7D7D7D7D7D7D7D7D7D7D7D7D7D7D7D7D7D7D7D7D7D7D7D7D7D7D7D7D7D7D7D7D7D7D7D7D7D7D7D7D7D7D7D7D7D7D7D7D7D7D7D7D7D7D7D7D7D7D7D7D7D7D7D7D7D7D7D7D7D7D7D7D7D7D7D7D700D7D70000D7D700D7D7D7D7D7D7D7D7D7D7D7D7D7D7D7D7D7D7D7D7D7D7D7D7
310
D7D7D7D7D7D7D7D7D7D7D7D7D7D7D7D700D70000D700D7D7D7D7D7D7D7D7D7D700D7D7D7D7D7D7D7D7D7D7D7D7D7D7D7D7D7D7D7D7D7D7D7D7D7D7D7D7D7D7D7D7D7D7D7D7D7D7D7D7D7D7D7D7D7D7D7D7D7D7D7D7D7D7D7D7D7D7D7D7D7D7D7D7D7D7D7D7D7D7D7D7D7D7D7D7D7D7D7D7D7D7D7D7D7D7D7D7D7D7D7D7D7D7
310
D7D7D7D7D7D7D7D7D7D7D7D7D7D7D7D7D7D7D7D7D7D7D7D7D7D7D7D7D7D7D7D7D7D7D7D7D7D7D7D7D7D7D7D7D7D7D7D7D7D7D7D7D700D7D70000D7D700D7D7D7D7D7D7D7D7D7D7D7D7D7D7D7D7D7D7D7D7D7D7D7D7D7D7D7D7D7D7D7D7D7D7D7D7D7D7D7D700D70000D700D7D7D7D7D7D7D70000D7D7D7D7D7D7D7D7D7D7D7
310
D7D7D7D7D7D7D7D7D7D7D7D7D7D7D7D7D7D7D7D7D7D7D7D7D7D7D7D7D7D7D7D7D7D7D7D7D7D7D7D7D7D7D7D7D7D7D7D7D7D7D7D7D7D7D7D7D7D7D7D7D7D7D7D7D7D7D7D7D7D7D7D7D7D7D7D7D7D7D7D7D7D7D7D7D7D7D7D7D7D7D7D7D7D7D7D7D7D7D7D7D7D7D7D7D7D7D7D7D7D7D7D7D7D7D7D7D7D7D7D7D7D7D7D7D7D7D7
310
D7D7D7D7D7D7D7D7D7D7D700D7D70000D7D700D7D7D7D7D7D7D7D7D7D7D7D7D7D7D7D7D7D7D7D7D7D7D7D7D7D7D7D7D7D7D7D7D7D7D7D7D7D7D7D700D7D7D7D700D7D7D7D70000D7D7D7D7D7D7D7D7D7D7D7D7D7D7D7D7D7D7D7D7D7D7D7D7D7D7D7D7D7D7D7D7D7D7D7D7D7D7D7D7D7D7D7D7D7D7D7D7D7D7D7D7D7D7D7D7
310
D7D7D7D7D7D7D7D7D7D7D7D7D7D7D7D7D7D7D7D7D7D7D7D7D7D7D7D7D7D7D7D7D7D7D7D7D7D7D7D7D7D7D7D7D7D7D7D7D7D7D7D7D7D7D7D7D7D7D7D7D7D7D7D7D7D7D7D7D7D7D7D7D7D7D7D7D7D7D7D7D7D7D7D7D7D7D7D7D7D7D7D7D7D7D7D700D7D70000D7D700D7D7D7D7D7D7D7D7D7D7D7D7D7D7D7D7D7D7D7D7D7D7D7
310
D7D7D7D7D7D7D7D7D7D7D7D7D7D7D7D7D700D7D7D7D700D7D7D700D7D7D7D7D7D7D7D7D7D7D7D7D7D7D7D7D7D7D7D7D7D7D7D7D7D7D7D7D7D7D7D7D7D7D7D7D7D7D7D7D7D7D7D7D7D7D7D7D7D7D7D7D7D7D7D7D7D7D7D7D7D7D7D7D7D7D7D7D7D7D7D7D7D7D7D7D7D7D7D7D7D7D7D7D7D7D7D7D7D7D7D7D7D7D7D7D7D7D7D7
310
D7D7D7D7D7D7D7D7D7D7D7D7D7D7D7D7D7D7D7D7D7D7D7D7D7D7D7D7D7D7D7D7D7D7D7D7D7D7D7D7D7D7D7D7D7D7D7D7D7D7D7D7D7D700D7D70000D7D700D7D7D7D7D7D7D7D7D7D7D7D7D7D7D7D7D7D7D7D7D7D7D7D7D7D7D7D7D7D7D7D7D7D7D7D7D7D7D7D7D7D7D70000000000D7D7D7D7D7D7D7D7D7D7D7D7D7D7D7D7D7
310
D7D7D7D7D7D7D7D7D7D7D7D7D7D7D7D7D7D7D7D7D7D7D7D7D7D7D7D7D7D7D7D7D7D7D7D7D7D7D7D7D7D7D7D7D7D7D7D7D7D7D7D7D7D7D7D7D7D7D7D7D7D7D7D7D7D7D7D7D7D7D7D7D7D7D7D7D7D7D7D7D7D7D7D7D7D7D7D7D7D7D7D7D7D7D7D7D7D7D7D7D7D7D7D7D7D7D7D7D7D7D7D7D7D7D7D7D7D7D7D7D7D7D7D7D7D7D7
310
D7D7D7D7D7D7D7D7D7D7D7D700D7D70000D7D700D7D7D7D7D7D7D7D7D7D7D7D7D7D7D7D7D7D7D7D7D7D7D7D7D7D7D7D7D7D7D7D7D7D7D7D7D7D7D7D7D7D7D7D7D700D7D7D7D7D7D7D7D7D7D7D7D7D7D7D7D7D7D7D7D7D7D7D7D7D7D7D7D7D7D7D7D7D7D7D7D7D7D7D7D7D7D7D7D7D7D7D7D7D7D7D7D7D7D7D7D7D7D7D7D7D7
310
D7D7D7D7D7D7D7D7D7D7D7D7D7D7D7D7D7D7D7D7D7D7D7D7D7D7D7D7D7D7D7D7D7D7D7D7D7D7D7D7D7D7D7D7D7D7D7D7D7D7D7D7D7D7D7D7D7D7D7D7D7D7D7D7D7D7D7D7D7D7D7D7D7D7D7D7D7D7D7D7D7D7D7D7D7D7D7D7D7D7D7D7D7D7D7D7D700D7D70000D7D700D7D7D7D7D7D7D7D7D7D7D7D7D7D7D7D7D7D7D7D7D7D7
310
D7D7D7D7D7D7D7D7D7D7D7D7D7D7D7D7D7D7D7D7D7D7D7D7D7D7D7D7D7D7D7D7D7D7D7D7D7D7D7D7D7D7D7D7D7D7D7D7D7D7D7D7D7D7D7D7D7D7D7D7D7D7D7D7D7D7D7D7D7D7D7D7D7D7D7D7D7D7D7D7D7D7D7D7D7D7D7D7D7D7D7D7D7D7D7D7D7D7D7D7D7D7D7D7D7D7D7D7D7D7D7D7D7D7D7D7D7D7D7D7D7D7D7D7D7D7D7
310
D7D7D7D7D7D7D7D7D7D7D7D7D7D7D7D7D7D7D7D7D7D7D7D7D7D7D7D7D7D7D7D7D7D7D7D7D7D7D7D7D7D7D7D7D7D7D7D7D7D7D7D7D7D7D700D7D70000D7D700D7D7D7D7D7D7D7D7D7D7D7D7D7D7D7D7D7D7D7D7D7D7D7D7D7D7D7D7D7D7D7D7D7D7D7D7D7D7D7D7D7D7D7D7D7D7D7D7D7D7D7D7D7D7D7D7D7D7D7D7D7D7D7D7
310
D7D7D7D7D7D7D7D7D7D7D7D7D7D7D7D7D7D7D7D7D7D7D7D7D7D7D7D7D7D7D7D7D7D7D7D7D7D7D7D7D7D7D7D7D7D7D7D7D7D7D7D7D7D7D7D7D7D7D7D7D7D7D7D7D7D7D7D7D7D7D7D7D7D7D7D7D7D7D7D7D7D7D7D7D7D7D7D7D7D7D7D7D7D7D7D7D7D7D7D7D7D7D7D7D7D7D7D7D7D7D7D7D7D7D7D7D7D7D7D7D7D7D7D7D7D7D7
310
D7D7D7D7D7D7D7D7D7D7D7D7D700D7D70000D7D700D7D7D7D7D7D7D7D7D7D7D7D7D7D7D7D7D7D7D7D7D7D7D7D7D7D7D7D7D7D7D7D7D7D7D7D7D7D7D7D7D7D7D7D7D7D7D7D7D7D7D7D7D7D7D7D7D7D7D7D7D7D7D7D7D7D7D7D7D7D7D7D7D7D7D7D7D7D7D7D7D7D7D7D7D7D7D7D7D7D7D7D7D7D7D7D7D7D7D7D7D7D7D7D7D7D7
310
D7D7D7D7D7D7D7D7D7D7D7D7D7D7D7D7D7D7D7D7D7D7D7D7D7D7D7D7D7D7D7D7D7D7D7D7D7D7D7D7D7D7D7D7D7D7D7D7D7D7D7D7D7D7D7D7D7D7D7D7D7D7D7D7D7D7D7D7D7D7D7D7D7D7D7D7D7D7D7D7D7D7D7D7D7D7D7D7D7D7D7D7D7D7D7D7D7D700D7D70000D7D700D7D7D7D7D7D7D7D7D7D7D7D7D7D7D7D7D7D7D7D7D7
310
D7D7D7D7D7D7D7D7D7D7D7D7D7D7D7D7D7D7D7D7D7D7D7D7D7D7D7D7D7D7D7D7D7D7D7D7D7D7D7D7D7D7D7D7D7D7D7D7D7D7D7D7D7D7D7D7D7D7D7D7D7D7D7D7D7D7D7D7D7D7D7D7D7D7D7D7D7D7D7D7D7D7D7D7D7D7D7D7D7D7D7D7D7D7D7D7D7D7D7D7D7D7D7D7D7D7D7D7D7D7D7D7D7D7D7D7D7D7D7D7D7D7D7D7D7D7D7
310
D7D7D7D7D7D7D7D7D7D7D7D7D7D7D7D7D7D7D7D7D7D7D7D7D7D7D7D7D7D7D7D7D7D7D7D7D7D7D7D7D7D7D7D7D7D7D7D7D7D7D7D7D7D7D7D700D7D70000D7D700D7D7D7D7D7D7D7D7D7D7D7D7D7D7D7D7D7D7D7D7D7D7D7D7D7D7D7D7D7D7D7D7D7D7D7D7D7D7D7D7D7D7D7D7D7D7D7D7D7D7D7D7D7D7D7D7D7D7D7D7D7D7D7
310
D7D7D7D7D7D7D7D7D7D7D7D7D7D7D7D7D7D7D7D7D7D7D7D7D7D7D7D7D7D7D7D7D7D7D7D7D7D7D7D7D7D7D7D7D7D7D7D7D7D7D7D7D7D7D7D7D7D7D7D7D7D7D7D7D7D7D7D7D7D7D7D7D7D7D7D7D7D7D7D7D7D7D7D7D7D7D7D7D7D7D7D7D7D7D7D7D7D7D7D7D7D7D7D7D7D7D7D7D7D7D7D7D7D7D7D7D7D7D7D7D7D7D7D7D7D7D7
310
D7D7D7D7D7D7D7D7D7D7D7D7D7D700D7D70000D7D700D7D7D7D7D7D7D7D7D7D7D7D7D7D7D7D7D7D7D7D7D7D7D7D7D7D7D7D7D7D7D7D7D7D7D7D7D7D7D7D7D7D7D7D7D7D7D7D7D7D7D7D7D7D7D7D7D7D7D7D7D7D7D7D7D7D7D7D7D7D7D7D7D7D7D7D7D7D7D7D7D7D7D7D7D7D7D7D7D7D7D7D7D7D7D7D7D7D7D7D7D7D7D7D7D7
310
D7D7D7D7D7D7D7D7D7D7D7D7D7D7D7D7D7D7D7D7D7D7D7D7D7D7D7D7D7D7D7D7D7D7D7D7D7D7D7D7D7D7D7D7D7D7D7D7D7D7D7D7D7D7D7D7D7D7D7D7D7D7D7D7D7D7D7D7D7D7D7D7D7D7D7D7D7D7D7D7D7D7D7D7D7D7D7D7D7D7D7D7D7D7D7D7D7D7D700D7D70000D7D700D7D7D7D7D7D7D7D7D7D7D7D7D7D7D7D7D7D7D7D7
310
D7D7D7D7D7D7D7D7D7D7D7D7D7D7D7D7D7D7D7D7D7D7D7D7D7D7D7D7D7D7D7D7D7D7D7D7D7D7D7D7D7D7D7D7D7D7D7D7D7D7D7D7D7D7D7D7D7D7D7D7D7D7D7D7D7D7D7D7D7D7D7D7D7D7D7D7D7D7D7D7D7D7D7D7D7D7D7D7D7D7D7D7D7D7D7D7D7D7D7D7D7D7D7D7D7D7D7D7D7D7D7D7D7D7D7D7D7D7D7D7D7D7D7D7D7D7D7
310
D7D7D7D7D7D7D7D7D7D7D7D7D7D7D7D7D7D7D7D7D7D7D7D7D7D7D7D7D7D7D7D7D7D7D7D7D7D7D7D7D7D7D7D7D7D7D7D7D7D7D7D7D7D7D7D7D700D7D70000D7D700D7D7D7D7D7D7D7D7D7D7D7D7D7D7D7D7D7D7D7D7D7D7D7D7D7D7D7D7D7D7D7D7D7D7D7D7D7D7D7D7D7D7D7D7D7D7D7D7D7D7D7D7D7D7D7D7D7D7D7D7D7D7
310
D7D7D7D7D7D7D7D7D7D7D7D7D7D7D7D7D7D7D7D7D7D7D7D7D7D7D7D7D7D7D7D7D7D7D7D7D7D7D7D7D7D7D7D7D7D7D7D7D7D7D7D7D7D7D7D7D7D7D7D7D7D7D7D7D7D7D7D7D7D7D7D7D7D7D7D7D7D7D7D7D7D7D7D7D7D7D7D7D7D7D7D7D7D7D7D7D7D7D7D7D7D7D7D7D7D7D7D7D7D7D7D7D7D7D7D7D7D7D7D7D7D7D7D7D7D7D7
310
D7D7D7D7D7D7D7D7D7D7D7D7D7D7D700D7D70000D7D700D7D7D7D7D7D7D7D7D7D7D7D7D7D7D7D7D7D7D7D7D7D7D7D7D7D7D7D7D7D7D7D7D7D7D7D7D7D7D7D7D7D7D7D7D7D7D7D7D7D7D7D7D7D7D7D7D7D7D7D7D7D7D7D7D7D7D7D7D7D7D7D7D7D7D7D7D7D7D7D7D7D7D7D7D7D7D7D7D7D7D7D7D7D7D7D7D7D7D7D7D7D7D7D7
310
D7D7D7D7D7D7D7D7D7D7D7D7D7D7D7D7D7D7D7D7D7D7D7D7D7D7D7D7D7D7D7D7D7D7D7D7D7D7D7D7D7D7D7D7D7D7D7D7D7D7D7D7D7D7D7D7D7D7D7D7D7D7D7D7D7D7D7D7D7D7D7D7D7D7D7D7D7D7D7D7D7D7D7D7D7D7D7D7D7D7D7D7D7D7D7D7D7D7D7D700D7D70000D7D700D7D7D7D7D7D7D7D7D7D7D7D7D7D7D7D7D7D7D7
310
D7D7D7D7D7D7D7D7D7D7D7D7D7D7D7D7D7D7D7D7D7D7D7D7D7D7D7D7D7D7D7D7D7D7D7D7D7D7D7D7D7D7D7D7D7D7D7D7D7D7D7D7D7D7D7D7D7D7D7D7D7D7D7D7D7D7D7D7D7D7D7D7D7D7D7D7D7D7D7D7D7D7D7D7D7D7D7D7D7D7D7D7D7D7D7D7D7D7D7D7D7D7D7D7D7D7D7D7D7D7D7D7D7D7D7D7D7D7D7D7D7D7D7D7D7D7D7
310
D7D7D7D7D7D7D7D7D7D7D7D7D7D7D7D7D7D7D7D7D7D7D7D7D7D7D7D7D7D7D7D7D7D7D7D7D7D7D7D7D7D7D7D7D7D7D7D7D7D7D7D7D7D7D7D7D7D700D7D70000D7D700D7D7D7D7D7D7D7D7D7D7D7D7D7D7D7D7D7D7D7D7D7D7D7D7D7D7D7D7D7D7D7D7D7D7D7D7D7D7D7D7D7D7D7D7D7D7D7D7D7D7D7D7D7D7D7D7D7D7D7D7D7
310
D7D7D7D7D7D7D7D7D7D7D7D7D7D7D7D7D7D7D7D7D7D7D7D7D7D7D7D7D7D7D7D7D7D7D7D7D7D7D7D7D7D7D7D7D7D7D7D7D7D7D7D7D7D7D7D7D7D7D7D7D7D7D7D7D7D7D7D7D7D7D7D7D7D7D7D7D7D7D7D7D7D7D7D7D7D7D7D7D7D7D7D7D7D7D7D7D7D7D7D7D7D7D7D7D7D7D7D7D7D7D7D7D7D7D7D7D7D7D7D7D7D7D7D7D7D7D7
310
D7D7D7D7D7D7D7D7D7D7D7D7D7D7D7D700D7D70000D7D700D7D7D7D7D7D7D7D7D7D7D7D7D7D7D7D7D7D7D7D7D7D7D7D7D7D7D7D7D7D7D7D7D7D7D7D7D7D7D7D7D7D7D7D7D7D7D7D7D7D7D7D7D7D7D7D7D7D7D7D7D7D7D7D7D7D7D7D7D7D7D7D7D7D7D7D7D7D7D7D7D7D7D7D7D7D7D7D7D7D7D7D7D7D7D7D7D7D7D7D7D7D7D7
310
D7D7D7D7D7D7D7D7D7D7D7D7D7D7D7D7D7D7D7D7D7D7D7D7D7D7D7D7D7D7D7D7D7D7D7D7D7D7D7D7D7D7D7D7D7D7D7D7D7D7D7D7D7D7D7D7D7D7D7D7D7D7D7D7D7D7D7D7D7D7D7D7D7D7D7D7D7D7D7D7D7D7D7D7D7D7D7D7D7D7D7D7D7D7D7D7D7D7D7D7D700D7D70000D7D700D7D7D7D7D7D7D7D7D7D7D7D7D7D7D7D7D7D7
310
D7D7D7D7D7D7D7D7D7D7D7D7D7D7D7D7D7D7D7D7D7D7D7D7D7D7D7D7D7D7D7D7D7D7D7D7D7D7D7D7D7D7D7D7D7D7D7D7D7D7D7D7D7D7D7D7D7D7D7D7D7D7D7D7D7D7D7D7D7D7D7D7D7D7D7D7D7D7D7D7D7D7D7D7D7D7D7D7D7D7D7D7D7D7D7D7D7D7D7D7D7D7D7D7D7D7D7D7D7D7D7D7D7D7D7D7D7D7D7D7D7D7D7D7D7D7D7
310
D7D7D7D7D7D7D7D7D7D7D7D7D7D7D7D7D7D7D7D7D7D7D7D7D7D7D7D7D7D7D7D7D7D7D7D7D7D7D7D7D7D7D7D7D7D7D7D7D7D7D7D7D7D7D7D7D7D7D700D7D70000D7D700D7D7D7D7D7D7D7D7D7D7D7D7D7D7D7D7D7D7D7D7D7D7D7D7D7D7D7D7D7D7D7D7D7D7D7D7D7D7D7D7D7D7D7D7D7D7D7D7D7D7D7D7D7D7D7D7D7D7D7D7
310
D7D7D7D7D7D7D7D7D7D7D7D7D7D7D7D7D7D7D7D7D7D7D7D7D7D7D7D7D7D7D7D7D7D7D7D7D7D7D7D7D7D7D7D7D7D7D7D7D7D7D7D7D7D7D7D7D7D7D7D7D7D7D7D7D7D7D7D7D7D7D7D7D7D7D7D7D7D7D7D7D7D7D7D7D7D7D7D7D7D7D7D7D7D7D7D7D7D7D7D7D7D7D7D7D7D7D7D7D7D7D7D7D7D7D7D7D7D7D7D7D7D7D7D7D7D7D7
310
D7D7D7D7D7D7D7D7D7D7D7D7D7D7D7D7D700D7D70000D7D700D7D7D7D7D7D7D7D7D7D7D7D7D7D7D7D7D7D7D7D7D7D7D7D7D7D7D7D7D7D7D7D7D7D7D7D7D7D7D7D7D7D7D7D7D7D7D7D7D7D7D7D7D7D7D7D7D7D7D7D7D7D7D7D7D7D7D7D7D7D7D7D7D7D7D7D7D7D7D7D7D7D7D7D7D7D7D7D7D7D7D7D7D7D7D7D7D7D7D7D7D7D7
310
D7D7D7D7D7D7D7D7D7D7D7D7D7D7D7D7D7D7D7D7D7D7D7D7D7D7D7D7D7D7D7D7D7D7D7D7D7D7D7D7D7D7D7D7D7D7D7D7D7D7D7D7D7D7D7D7D7D7D7D7D7D7D7D7D7D7D7D7D7D7D7D7D7D7D7D7D7D7D7D7D7D7D7D7D7D7D7D7D7D7D7D7D7D7D7D7D7D7D7D7D7D700D7D70000D7D700D7D7D7D7D7D7D7D7D7D7D7D7D7D7D7D7D7
310
D7D7D7D7D7D7D7D7D7D7D7D7D7D7D7D7D7D7D7D7D7D7D7D7D7D7D7D7D7D7D7D7D7D7D7D7D7D7D7D7D7D7D7D7D7D7D7D7D7D7D7D7D7D7D7D7D7D7D7D7D7D7D7D7D7D7D7D7D7D7D7D7D7D7D7D7D7D7D7D7D7D7D7D7D7D7D7D7D7D7D7D7D7D7D7D7D7D7D7D7D7D7D7D7D7D7D7D7D7D7D7D7D7D7D7D7D7D7D7D7D7D7D7D7D7D7D7
310
D7D7D7D7D7D7D7D7D7D7D7D7D7D7D7D7D7D7D7D7D7D7D7D7D7D7D7D7D7D7D7D7D7D7D7D7D7D7D7D7D7D7D7D7D7D7D7D7D7D7D7D7D7D7D7D7D7D7D7D700D7D70000D7D700D7D7D7D7D7D7D7D7D7D7D7D7D7D7D7D7D7D7D7D7D7D7D7D7D7D7D7D7D7D7D7D7D7D7D7D7D7D7D7D7D7D7D7D7D7D7D7D7D7D7D7D7D7D7D7D7D7D7D7
310
D7D7D7D7D7D7D7D7D7D7D7D7D7D7D7D7D7D7D7D7D7D7D7D7D7D7D7D7D7D7D7D7D7D7D7D7D7D7D7D7D7D7D7D7D7D7D7D7D7D7D7D7D7D7D7D7D7D7D7D7D7D7D7D7D7D7D7D7D7D7D7D7D7D7D7D7D7D7D7D7D7D7D7D7D7D7D7D7D7D7D7D7D7D7D7D7D7D7D7D7D7D7D7D7D7D7D7D7D7D7D7D7D7D7D7D7D7D7D7D7D7D7D7D7D7D7D7
310
D7D7D7D7D7D7D7D7D7D7D7D7D7D7D7D7D7D700D7D70000D7D700D7D7D7D7D7D7D7D7D7D7D7D7D7D7D7D7D7D7D7D7D7D7D7D7D7D7D7D7D7D7D7D7D7D7D7D7D7D7D7D7D7D7D7D7D7D7D7D7D7D7D7D7D7D7D7D7D7D7D7D7D7D7D7D7D7D7D7D7D7D7D7D7D7D7D7D7D7D7D7D7D7D7D7D7D7D7D7D7D7D7D7D7D7D7D7D7D7D7D7D7D7
310
D7D7D7D7D7D7D7D7D7D7D7D7D7D7D7D7D7D7D7D7D7D7D7D7D7D7D7D7D7D7D7D7D7D7D7D7D7D7D7D7D7D7D7D7D7D7D7D7D7D7D7D7D7D7D7D7D7D7D7D7D7D7D7D7D7D7D7D7D7D7D7D7D7D7D7D7D7D7D7D7D7D7D7D7D7D7D7D7D7D7D7D7D7D7D7D7D7D7D7D7D7D7D700D7D70000D7D700D7D7D7D7D7D7D7D7D7D7D7D7D7D7D7D7
310
D7D7D7D7D7D7D7D7D7D7D7D7D7D7D7D7D7D7D7D7D7D7D7D7D7D7D7D7D7D7D7D7D7D7D7D7D7D7D7D7D7D7D7D7D7D7D7D7D7D7D7D7D7D7D7D7D7D7D7D7D7D7D7D7D7D7D7D7D7D7D7D7D7D7D7D7D7D7D7D7D7D7D7D7D7D7D7D7D7D7D7D7D7D7D7D7D7D7D7D7D7D7D7D7D7D7D7D7D7D7D7D7D7D7D7D7D7D7D7D7D7D7D7D7D7D7D7
310
D7D7D7D7D7D7D7D7D7D7D7D7D7D7D7D7D7D7D7D7D7D7D7D7D7D7D7D7D7D7D7D7D7D7D7D7D7D7D7D7D7D7D7D7D7D7D7D7D7D7D7D7D7D7D7D7D7D7D7D7D700D7D70000D7D700D7D7D7D7D7D7D7D7D7D7D7D7D7D7D7D7D7D7D7D7D7D7D7D7D7D7D7D7D7D7D7D7D7D7D7D7D7D7D7D7D7D7D7D7D7D7D700D7D7D7D7D7D7D7D7D7D7
310
D7D7D7D7D7D7D7D7D7D7D7D7D7D7D700D7D7D7D7D7D7D7D7D7D7D7D7D7D7D7D7D7D7D7D7D7D7D7D7D7D7D7D7D7D7D7D7D7D7D7D7D7D7D7D7D7D7D7D7D7D7D7D7D7D7D7D7D7D7D7D7D7D7D7D7D7D7D7D7D7D7D7D7D7D7D7D7D7D7D7D7D7D7D7D7D7D7D7D7D7D7D7D7D7D7D7D7D7D7D7D7D7D7D7D7D7D7D7D7D7D7D7D7D7D7D7
310
D7D7D7D7D7D7D7D7D7D7D7D7D7D7D7D7D7D7D700D7D70000D7D700D7D7D7D7D7D7D7D7D7D7D7D7D7D7D7D7D7D7D7D7D7D7D7D7D7D7D7D7D7D7D7D7D7D7D7D7D7D7D7D7D7D7D7D7D7D7D7D7D7D7D7D7D7D7D7D7D7D7D7D7D7D7D7D7D7D7D7D7D7D7D7D7D7D7D7D7D7D7D7D7D7D7D7D7D7D7D7D7D7D7D7D7D7D7D7D7D7D7D7D7
310
D7D7D7D7D7D7D7D7D7D7D7D7D7D7D7D7D7D7D7D7D7D7D7D7D7D7D7D7D7D7D7D7D7D7D7D7D7D7D7D7D7D7D7D7D7D7D7D7D7D7D7D7D7D7D7D7D7D7D7D7D7D7D7D7D7D7D7D7D7D7D7D7D7D7D7D7D7D7D7D7D7D7D7D7D7D7D7D7D7D7D7D7D7D7D7D7D7D7D7D7D7D7D7D700D7D70000D7D700D7D7D7D7D7D7D7D7D7D7D7D7D7D7D7
310
D7D7D7D7D7D7D7D700D700D7D7D7D7D7D7D7D7D7D7D700D7D7D7D700D700D7D70000D7D7D7D7D700D7D7D7D7D7D7D7D7D7D7D7D7D7D7D70000D70000D7D700D7D7D7D7D700D7D7D7D7D7D7D7D7D700D7D7D7D7D7D7D7D7D7D7D7D7D7D7D7D7D7D7D7D7D7D7D7D7D7D7D7D7D7D7D7D7D7D7D7D7D7D7D7D7D7D7D7D7D7D7D7D7
310
D7D7D7D7D7D7D7D7D7D7D7D7D7D7D7D7D7D7D7D7D7D7D7D7D7D7D7D7D7D7D7D7D7D7D7D7D7D7D7D7D7D7D7D7D7D7D7D7D7D7D7D7D7D7D7D7D7D7D7D7D7D700D7D70000D7D700D7D7D7D7D7D7D7D7D7D7D7D7D7D7D7D7D7D7D7D7D7D7D700D700D7D7D7D700D7D7D7D7D7D700D7D7D7D700D700D7D70000D7D7D7D7D7D7D7D7
310
D7D7D7D7D7D7D7D7D7D7D7D7D70000D70000D7D700D7D7D7D7D700D7D7D7D7D7D7D700D7D7D7D7D7D7D7D7D7D7D7D7D7D7D7D7D7D7D7D7D7D7D7D7D7D7D7D7D7D7D7D7D7D7D7D7D7D7D7D7D7D7D7D7D7D7D7D7D7D7D7D7D7D7D7D7D7D7D7D7D7D7D7D7D7D7D7D7D7D7D7D7D7D7D7D7D7D7D7D7D7D7D7D7D7D7D7D7D7D7D7D7
310
D7D7D7D7D7D7D7D7D7D7D7D7D7D7D7D7D7D7D7D700D7D70000D7D700D7D7D7D7D7D7D7D7D7D7D7D7D7D7D7D7D7D7D7D7D7D7D7D7D7D7D70000D7D700D7D70000D700000000D70000D7D700D7D700D7D7D7D7D7D7D70000D70000D7D70000D70000D7000000D7D700D700D7D7D7D7D700D7D7D7D70000D7D70000D7D7D7D7D7
310
D7D7D7D7D7D7D7D7D7D7D7D7D7D7D7D7D7D7D7D7D7D7D7D7D7D7D7D7D7D7D7D7D7D7D7D7D7D7D7D7D7D7D7D7D7D7D7D7D7D7D7D7D7D7D7D7D7D7D7D7D7D7D7D7D7D7D7D7D7D7D7D7D7D7D7D7D7D7D7D7D7D7D7D7D7D7D7D7D7D7D7D7D7D7D7D7D7D7D7D7D7D7D7D7D700D7D70000D7D700D7D7D7D7D7D7D7D7D7D7D7D7D7D7
310
D7D7D7D7D7D7D7D7D7D700D7D7D7D7D7D7D7D7D7D7D7D7D7D7D7D7D700D7D7D7D7D7D7D7D7D70000D7D7D7D7D7D7D7D7D7D7D7D7D7D7D7D70000D7D7D7D7D7D70000D70000D7D7D7D7D7D7D7D7D7D7D7D7D7D7D7D7D7D7D7D7D7D7D7D7D7D7D7D7D7D7D7D7D7D7D7D7D7D7D7D7D7D7D7D7D7D7D7D7D7D7D7D7D7D7D7D7D7D7
310
D7D7D7D7D7D7D7D7D7D7D7D7D7D7D7D7D7D7D7D7D7D7D7D7D7D7D7D7D7D7D7D7D7D7D7D7D7D7D7D7D7D7D7D7D7D7D7D7D7D7D7D7D7D7D7D7D7D7D7D7D7D7D700D7D70000D7D700D7D7D7D7D7D7D7D7D7D7D7D7D7D7D7D7D7D7D7D7D7D7D7D7D7D7D7D7D7D7D7D7D7D7D7D7D7D7D7D7D7D7D7D7D7D7D7D7D7D7D7D7D7D7D7D7
310
D7D7D7D7D7D7D7D7D7D7D7D7D7D7D7D7D7D7D7D7D7D7D7D7D7D7D7D7D7D7D7D7D7D7D7D7D7D7D7D7D7D7D7D7D7D7D7D7D7D7D7D7D7D7D7D7D7D7D7D7D7D7D7D7D7D7D7D7D7D7D7D7D7D7D7D7D7D7D7D7D7D7D7D7D7D7D7D7D7D7D7D7D7D7D7D7D7D7D7D7D7D7D7D7D7D7D7D7D7D7D7D7D7D7D7D7D7D7D7D7D7D7D7D7D7D7D7
310
D7D7D7D7D7D7D7D7D7D7D7D7D7D7D7D7D7D7D7D7D700D7D70000D7D700D7D7D7D7D7D7D7D7D7D7D7D7D7D7D7D7D7D7D7D7D7D7D7D7D7D7D7D7D7D7D7D7D7D7D7D7D7D7D7D7D7D7D7D7D7D7D7D7D7D7D7D7D7D7D7D7D7D7D7D7D7D7D7D7D7D7D7D7D7D7D7D7D7D7D7D7D7D7D7D7D7D7D7D7D7D7D7D7D7D7D7D7D7D7D7D7D7D7
310
D7D7D7D7D7D7D7D7D7D7D7D7D7D7D7D7D7D7D7D7D7D7D7D7D7D7D7D7D7D7D7D7D7D7D7D7D7D7D7D7D7D7D7D7D7D7D7D7D7D7D7D7D7D7D7D7D7D7D7D7D7D7D7D7D7D7D7D7D7D7D7D7D7D7D7D7D7D7D7D7D7D7D7D7D7D7D7D7D7D7D7D7D7D7D7D7D7D7D7D7D7D7D7D7D7D700D7D70000D7D700D7D7D7D7D7D7D7D7D7D7D7D7D7
310
D7D7D7D7D7D7D7D7D7D7D7D7D7D7D7D7D7D7D7D7D7D7D7D7D7D7D7D7D7D7D7D7D7D7D7D7D7D7D7D7D7D7D7D7D7D7D7D7D7D7D7D7D7D7D7D7D7D7D7D7D7D7D7D7D7D7D7D7D7D7D7D7D7D7D7D7D7D7D7D7D7D7D7D7D7D7D7D7D7D7D7D7D7D7D7D7D7D7D7D7D7D7D7D7D7D7D7D7D7D7D7D7D7D7D7D7D7D7D7D7D7D7D7D7D7D7D7
310
D7D7D7D7D7D7D7D7D7D7D7D7D7D7D7D7D7D7D7D7D7D7D7D7D7D7D7D7D7D7D7D7D7D7D7D7D7D7D7D7D7D7D7D7D7D7D7D7D7D7D7D7D7D7D7D7D7D7D7D7D7D7D7D700D7D70000D7D7000000000000000000000000000000000000000000D7D7D7D7D7D7D7D7D7D7D7D7D7D7D7D7D7D7D7D7D7D7D7D7D7D7D7D7D7D7D7D7D7D7D7
310
D7D7D7D7D7D7D7D7D7D7D7D7D7D7D7D7D7D7D7D7D7D7D7D7D7D7D7D7D7D7D7D7D7D7D7D7D7D7D7D7D7D7D7D7D7D7D7D7D7D7D7D7D7D7D7D7D7D7D7D7D7D7D7D7D7D7D7D7D7D7D7D7D7D7D7D7D7D7D7D7D7D7D7D7D7D7D7D7D7D7D7D7D7D7D7D7D7D7D7D7D7D7D7D7D7D7D7D7D7D7D7D7D7D7D7D7D7D7D7D7D7D7D7D7D7D7D7
310
D7D7D7D7D7D7D7D7D7D7D7D7D7D7D7D7D7D7D7D7D7D700D7D70000D7D700D7D7D7D7D7D7D7D7D7D7D7D7D7D7D7D7D7D7D700D7D7D7D7D7D7D7D7D7D7D7D7D7D7D7D7D7D7D7D7D7D7D7D7D7D7D7D7D7D7D7D7D7D7D7D7D7D7D7D7D7D7D7D7D7D7D7D7D7D7D7D7D7D7D7D7D7D7D7D7D7D7D7D7D7D7D7D7D7D7D7D7D7D7D7D7D7
310
D7D7D7D7D7D7D7D7D7D7D7D7D7D7D7D7D7D7D7D7D7D7D7D7D7D7D7D7D7D7D7D7D7D7D7D7D7D7D7D7D7D7D7D7D7D7D7D7D7D7D7D7D7D7D7D7D7D7D7D7D7D7D7D7D7D7D7D7D7D7D7D7D7D7D7D7D7D7D7D7D7D7D7D7D7D7D7D7D7D7D7D7D7D7D7D7D7D7D7D7D7D7D7D7D7D7D700D7D70000D7D700D7D7D7D7D7D7D7D7D7D7D7D7
310
D7D7D7D7D7D7D700D7D7D7D7D7D7D7D7D7D7D7D7D7D7D7D7D7D7D7D7D7D7D7D7D7D7D7D7D7D7D7D7D7D7D7D7D7D7D7D7D7D7D7D7D7D7D7D7D7D7D7D7D7D7D7D7D7D7D7D7D7D7D7D7D7D7D7D7D7D7D7D7D7D7D7D7D7D7D7D7D7D7D7D7D7D7D7D7D7D7D7D7D7D7D7D7D7D7D7D7D7D7D7D7D7D7D7D7D7D7D7D7D7D7D7D7D7D7D7
310
D7D7D7D7D7D7D7D7D7D7D7D7D7D7D7D7D7D7D7D7D7D7D7D7D7D7D7D7D7D7D7D7D7D7D7D7D7D7D7D7D7D7D7D7D7D7D7D7D7D7D7D7D7D7D7D7D7D7D7D7D7D7D7D7D700D7D70000D7D700D7D7D7D7D7D7D7D7D7D7D7D7D7D7D7D7D7D7D700D7D7D7D7D7D7D7D7D7D7D7D7D7D7D7D7D7D7D7D7D7D7D7D7D7D7D7D7D7D7D7D7D7D7
310
D7D7D7D7D7D7D7D7D7D7D7D7D7D7D7D7D7D7D7D7D7D7D7D7D7D7D7D7D7D7D7D7D7D7D7D7D7D7D7D7D7D7D7D7D7D7D7D7D7D7D7D7D7D7D7D7D7D7D7D7D7D7D7D7D7D7D7D7D7D7D7D7D7D7D7D7D7D7D7D7D7D7D7D7D7D7D7D7D7D7D7D7D7D7D7D7D7D7D7D7D7D7D7D7D7D7D7D7D7D7D7D7D7D7D7D7D7D7D7D7D7D7D7D7D7D7D7
310
D7D7D7D7D7D7D7D7D7D7D7D7D7D7D7D7D7D7D7D7D7D7D700D7D70000D7D700D7D7D7D7D7D7D7D7D7D7D7D7D7D7D7D7D7D7D700D7D7D7D70000D7D7D700D7D7D7D7D700D7D7D7D7D7D700D7D7D7D7D700D7D700D7D7D7D7D700000000D700000000D7D7D7D7D7D7D7D7D7D7D7D7000000D7D7D7D70000D7D7D7D700D7D7D7D7
310
D7D7D7D7D7D7D7D70000D7D7D7D700D7D7D700D7D7D700D7D7D7D7D7D7D7D7D7D7D7D7D7D7D7D7D7D7D7D7D7D7D7D7D7D7D7D7D7D7D7D7D7D7D7D7D7D7D7D7D7D7D7D7D7D7D7D7D7D7D7D7D7D7D7D7D7D7D7D7D7D7D7D7D7D7D7D7D7D7D7D7D7D7D7D7D7D7D7D7D7D7D7D7D700D7D70000D7D700D7D7D7D7D7D7D7D7D700D7
310
00D7D700D7D7D7D700D7D7D700D7D700D7D700D7D7D7D7D700D7D700D7D7D700D7D7D7D70000D7D700D700D7D7D700D7D7D7D700D7D7D7D7D7D7D7D7D700D7D7D7D7D7D7D7D7D7D7D700D7D7D7D7D7D700D7D7D7D7D7D7D7D7D7D7D700D7D7D700D7D700D7D700D7D7D7D700D7D7D7D7D7D7D7D7D7D7D7D7D7D7D7D7D7D7D7
310
D7D7D7D7D7D7D7D7D7D7D7D7D7D7D7D7D7D7D7D7D7D7D7D7D7D7D7D7D7D7D7D7D7D7D7D7D7D7D7D7D7D7D7D7D7D7D7D7D7D7D7D7D7D7D7D7D7D7D7D7D7D7D7D7D7D700D7D70000D7D700D7D7D7D7D7D7D7D7D700D7D700D700D7D7D7D700D7D7D7D70000D7D7D7000000D7D7D700000000D7D7D700D7D7D700D700D7D70000
310
D7D7D7D700D7D7D7D700000000D7D7D700000000D7D7D7D7D7000000D7D7D700D7D7D7D7D7D7000000D7D7D7000000D7D7D700D7D7D700D7D700000000D7D7D7D700D7D7D7D7D7D7D7D7D7D7D7D7D7D7D7D7D7D7D7D7D7D7D7D7D7D7D7D7D7D7D7D7D7D7D7D7D7D7D7D7D7D7D7D7D7D7D7D7D7D7D7D7D7D7D7D7D7D7D7D7D7
310
D7D7D7D7D7D7D7D7D7D7D7D7D7D7D7D7D7D7D7D7D7D7D7D700D7D70000D7D700D7D7D7D7D7D7000000D7D700D70000D7D7D7D700D7D7D700D7D7D7D7D700D7D700D7D700D7D7D7D7D7D700D7D7D7D7D700D7D700D7D7D7D7D700D7D7D7D700D7D7D7D7D7D7D7D7D7D7D7D7D7D7D7D7D7D7D7D7D700D7D7D7D7D7D700D7D700
310
D7D7D7D7D700D7D700D7D7D700D7D700D7D7D700D7D7D700D7D7D7D7D7D7D7D7D7D7D7D7D7D7D7D7D7D7D7D7D7D7D7D7D7D7D7D7D7D7D7D7D7D7D7D7D7D7D7D7D7D7D7D7D7D7D7D7D7D7D7D7D7D7D7D7D7D7D7D7D7D7D7D7D7D7D7D7D7D7D7D7D7D7D7D7D7D7D7D7D7D7D7D7D700D7D70000D7D700D7D7D7D7D7D7D7D7D700
310
D700D7D700D7D7D7D700D7D7D700D7D700D7D700D7D700D7D700D7D7D7D7D7D700D7D700D7D700D7D700D7D700D7D700D7D7D7D700D7D7D7D7D7D7D7D7D7D7D7D7D7D7D7D7D7D7D7D7D700D7D7D7D7D7D700D7D700D7D7D7D7D700D7D7D7D7D700D7D7D700D7D7D700D7D7D700D7D7D7D7D7D7D7D7D7D7D7D7D7D7D7D7D7D7
310
D7D7D7D7D7D7D7D7D7D7D7D7D7D7D7D7D7D7D7D7D7D7D7D7D7D7D7D7D7D7D7D7D7D7D7D7D7D7D7D7D7D7D7D7D7D7D7D7D7D7D7D7D7D7D7D7D7D7D7D7D7D7D7D7D7D7D700D7D70000D7D700D7D7D7D7D7D7D7D7D700D700D7D700D7D7D7D700D7D7D7D70000D7D7D7000000D7D7D700000000D7D7D700D7D7D7D7D700D7D700
310
D7D7D7D7D700D7D7D7D700000000D7D7D700000000D7D7D7D7D7000000D7D7D700D7D7D7D7D7D7000000D7D7D7000000D7D7D7D70000D7D7D7D700000000D7D70000000000D7D7D7D7D7D7D7D7D7D7D7D7D7D7D7D7D7D7D7D7D7D7D7D7D7D7D7D7D7D7D7D7D7D7D7D7D7D7D7D7D7D7D7D7D7D7D7D7D7D7D7D7D7D7D7D7D7D7
310
D7D7D7D7D7D7D7D7D7D7D7D7D7D7D7D7D7D7D7D7D7D7D7D7D700D7D70000D7D700D7D7D7D7D7D7D7D7D7D7D7D7D7D7D7D7D7D7D700D7D7D7D7D7D7D7D7D7D7D7D7D7D7D7D7D7D7D7D7D7D7D7D7D7D7D7D7D7D7D7D7D7D7D7D7D7D7D7D7D7D7D7D7D7D7D7D7D7D7D7D7D7D7D7D7D7D7D7D7D7D7D7D7D7D7D7D7D7D7D7D7D7D7
310
D7D7D7D7D7D7D7D7D7D7D7D7D7D7D7D7D7D7D7D7D7D7D7D7D7D7D7D7D7D7D7D7D7D7D7D7D7D7D7D7D7D7D7D7D7D7D7D7D7D7D7D7D7D7D7D7D7D7D7D7D7D7D7D7D7D7D7D7D7D7D7D7D7D7D7D7D7D7D7D7D7D7D7D7D7D7D7D7D7D7D7D7D7D7D7D7D7D7D7D7D7D7D7D7D7D7D7D7D7D700D7D70000D7D700D7D7D7D7D7D7D7D7D7
310
D7D7D7D7D7D7D7D7D7D700D7D7D7D7D7D7D7D7D7D7D7D7D7D7D7D7D7D7D7D7D7D7D7D7D7D7D7D7D7D7D7D7D7D7D7D7D7D7D7D7D7D7D7D7D7D7D7D7D7D7D7D7D7D7D7D7D7D7D7D7D7D7D7D7D7D7D7D7D7D7D7D7D7D7D7D7D7D7D7D7D7D7D7D7D7D7D7D7D7D7D7D7D7D7D7D7D7D7D7D7D7D7D7D7D7D7D7D7D7D7D7D7D7D7D7D7
310
D7D7D7D7D7D7D7D7D7D7D7D7D7D7D7D7D7D7D7D7D7D7D7D7D7D7D7D7D7D7D7D7D7D7D7D7D7D7D7D7D7D7D7D7D7D7D7D7D7D7D7D7D7D7D7D7D7D7D7D7D7D7D7D7D7D7D7D700D7D70000D7D700D7D7D7D7D7D7D7D7D7D7D7D7D7D7D7D7D7D7D700D7D7D7D7D7D7D7D7D7D7D7D7D7D7D7D7D7D7D7D7D7D7D7D7D7D7D7D7D7D7D7
310
D7D7D7D7D7D7D7D7D7D7D7D7D7D7D7D7D7D7D7D7D7D7D7D7D7D7D7D7D7D7D7D7D7D7D7D7D7D7D7D7D7D7D7D7D7D7D7D7D7D7D7D7D7D7D7D7D7D7D7D7D7D7D7D7D7D7D7D7D7D7D7D7D7D7D7D7D7D7D7D7D7D7D7D7D7D7D7D7D7D7D7D7D7D7D7D7D7D7D7D7D7D7D7D7D7D7D7D7D7D7D7D7D7D7D7D7D7D7D7D7D7D7D7D7D7D7D7
310
D7D7D7D7D7D7D7D7D7D7D7D7D7D7D7D7D7D7D7D7D7D7D7D7D7D700D7D70000D7D700D7D7D7D7D7D7D7D7D7D7D7D7D7D7D7D7D7D7D700D7D7D7D7D7D7D7D7D7D7D7D7D7D7D7D7D7D7D7D7D7D7D7D7D7D7D7D7D7D7D7D7D7D7D7D7D7D7D7D7D7D7D7D7D7D7D7D7D7D7D7D7D7D7D7D7D7D7D7D7D7D7D7D7D7D7D7D7D7D7D7D7D7
310
D7D7D7D7D7D7D7D7D7D7D7D7D7D7D7D7D7D7D7D7D7D7D7D7D7D7D7D7D7D7D7D7D7D7D7D7D7D7D7D7D7D7D7D7D7D7D7D7D7D7D7D7D7D7D7D7D7D7D7D7D7D7D7D7D7D7D7D7D7D7D7D7D7D7D7D7D7D7D7D7D7D7D7D7D7D7D7D7D7D7D7D7D7D7D7D7D7D7D7D7D7D7D7D7D7D7D7D7D7D7D700D7D70000D7D700D7D7D7D7D7D7D7D7
310
D7D7D7D7D7D7D7D7D7D7D700D7D7D7D7D7D7D7D7D7D7D7D7D7D7D7D7D7D7D7D7D7D7D7D7D7D7D7D7D7D7D7D7D7D7D7D7D7D7D7D7D7D7D7D7D7D7D7D7D7D7D7D7D7D7D7D7D7D7D7D7D7D7D7D7D7D7D7D7D7D7D7D7D7D7D7D7D7D7D7D7D7D7D7D7D7D7D7D7D7D7D7D7D7D7D7D7D7D7D7D7D7D7D7D7D7D7D7D7D7D7D7D7D7D7D7
310
D7D7D7D7D7D7D7D7D7D7D7D7D7D7D7D7D7D7D7D7D7D7D7D7D7D7D7D7D7D7D7D7D7D7D7D7D7D7D7D7D7D7D7D7D7D7D7D7D7D7D7D7D7D7D7D7D7D7D7D7D7D7D7D7D7D7D7D7D700D7D70000D7D700D7D7D7D7D7D7D7D7D7D7D7D7D7D7D7D7D7D7D700D7D7D7D7D7D7D7D7D7D7D7D7D7D7D7D7D7D7D7D7D7D7D7D7D7D7D7D7D7D7
310
D7D7D7D7D7D7D7D7D7D7D7D7D7D7D7D7D7D7D7D7D7D7D7D7D7D7D7D7D7D7D7D7D7D7D7D7D7D7D7D7D7D7D7D7D7D7D7D7D7D7D7D7D7D7D7D7D7D7D7D7D7D7D7D7D7D7D7D7D7D7D7D7D7D7D7D7D7D7D7D7D7D7D7D7D7D7D7D7D7D7D7D7D7D7D7D7D7D7D7D7D7D7D7D7D7D7D7D7D7D7D7D7D7D7D7D7D7D7D7D7D7D7D7D7D7D7D7
310
D7D7D7D7D7D7D7D7D7D7D7D7D7D7D7D7D7D7D7D7D7D7D7D7D7D7D700D7D70000D7D7000000000000000000000000000000000000000000000000000000000000000000000000000000000000000000000000000000000000000000000000000000000000000000000000000000000000000000000000000000000000000000
310
0000000000000000000000000000000000000000000000000000000000000000000000000000000000000000000000000000000000000000000000000000000000000000000000000000000000000000000000000000000000000000000000000000000000000000000000000000000000D7D70000D7D7D7D7D7D7D7D7D7D7
310
D7D7D7D7D7D7D7D7D7D7D7D7D7D7D7D7D7D7D7D7D7D7D7D7D7D7D7D7D7D7D7D7D7D7D7D7D7D7D7D7D7D7D7D7D7D7D7D7D7D7D7D7D7D7D7D7D7D7D7D7D7D7D7D7D7D7D7D7D7D7D7D7D7D7D7D7D7D7D7D7D7D7D7D7D7D7D7D7D7D7D7D7D7D7D7D7D7D7D7D7D7D7D7D7D7D7D7D7D7D7D7D7D7D7D7D7D7D7D7D7D7D7D7D7D7D7D7
310
D7D7D7D7D7D7D7D7D7D7D7D7D7D7D7D7D7D7D7D7D7D7D7D7D7D7D7D7D7D7D7D7D7D7D7D7D7D7D7D7D7D7D7D7D7D7D7D7D7D7D7D7D7D7D7D7D7D7D7D7D7D7D7D7D7D7D7D7D7D7D7D7D70000D7D7D7D7D7D7D7D7D7D7D7D7D7D7D7D7D7D7D7D7D7D7D7D7D7D7D7D7D7D7D7D7D7D7D7D7D7D7D7D7D7D7D7D7D7D7D7D7D7D7D7D7
310
D7D7D7D7D7D7D7D7D7D7D7D7D7D7D7D7D7D7D7D7D7D7D7D7D7D7D7D7D7D7D7D7D7D7D7D7D7D7D7D7D7D7D7D7D7D7D7D7D7D7D7D7D7D7D7D7D7D7D7D7D7D7D7D7D7D7D7D7D7D7D7D7D7D7D7D7D7D7D7D7D7D7D7D7D7D7D7D7D7D7D7D7D7D7D7D7D7D7D7D7D7D7D7D7D7D7D7D7D7D7D7D7D7D7D7D7D7D7D7D7D7D7D7D7D7D7D7
310
D7D7D7D7D7D7D7D7D7D7D7D7D7D7D7D7D7D7D7D7D7D7D7D7D7D7D7D7D7D7D700000000000000000000000000000000
  0
ENDSEC
  0
EOF
